999
DXF file: C:\Users\sesa63760\Documents\7-Dev\_Creo\CAD\MCADFD0001430_3D-CAD\drw0001_7.dxf
999
Pro/ENGINEER 2019471 by Parametric Technology Corporation
  0
SECTION
  2
HEADER
  9
$ACADVER
  1
AC1024
  9
$DWGCODEPAGE
  3
ANSI_1252
  9
$EXTMAX
 10
59.2747710449
 20
83.8314619063
 30
0.0
  9
$EXTMIN
 10
0.0
 20
0.0
 30
0.0
  9
$LIMMIN
 10
0.0
 20
0.0
  9
$LIMMAX
 10
59.2747710449
 20
83.8314619063
  9
$VIEWCTR
 10
29.6373855224
 20
41.9157309532
  9
$VIEWSIZE
 40
83.8314619063
  9
$CLAYER
  8
0
  9
$LTSCALE
 40
5.4645693687
  9
$CELTYPE
  6
BYLAYER
  9
$DIMSCALE
 40
1.0
  9
$DIMASZ
 40
0.7056520362
  9
$DIMEXO
 40
1.0
  9
$DIMDLI
 40
3.7755206547
  9
$DIMEXE
 40
1.0
  9
$DIMCEN
 40
0.8942022603
  9
$DIMLFAC
 40
1.0
  9
$DIMBLK
  1
_FILLED
  9
$DIMALT
 70
0
  9
$DIMALTF
 40
0.0393700787
  9
$DIMTXT
 40
0.9879128507
  9
$DIMTOL
 70
1
  9
$DIMLIM
 70
0
  9
$DIMTFAC
 40
1.0
  9
$DIMTP
 40
0.01
  9
$DIMTM
 40
0.01
  9
$DIMGAP
 40
0.625
  9
$DIMDSEP
 70
46
  9
$AUNITS
 70
0
  9
$PDMODE
 70
3
  9
$PDSIZE
 40
0.3125
  9
$HANDSEED
  5
294
  9
$TILEMODE
 70
1
  9
$MEASUREMENT
 70
1
  9
$INSUNITS
 70
4
  0
ENDSEC
  0
SECTION
  2
CLASSES
  0
CLASS
  1
ACDBDICTIONARYWDFLT
  2
AcDbDictionaryWithDefault
  3
AutoCAD 2000
 90
0
 91
1
280
0
281
0
  0
CLASS
  1
ACDBPLACEHOLDER
  2
AcDbPlaceHolder
  3
AutoCAD 2000
 90
0
 91
1
280
0
281
0
  0
CLASS
  1
LAYOUT
  2
AcDbLayout
  3
AutoCAD 2000
 90
0
 91
0
280
0
281
0
  0
ENDSEC
  0
SECTION
  2
TABLES
  0
TABLE
  2
VPORT
  5
8
100
AcDbSymbolTable
 70
2
  0
VPORT
  5
1F4
100
AcDbSymbolTableRecord
100
AcDbViewportTableRecord
  2
*ACTIVE
 70
0
 10
0.0
 20
0.0
 11
1.0
 21
1.0
 12
29.6373855224
 22
41.9157309532
 13
0.0
 23
0.0
 14
1.0
 24
1.0
 15
0.0
 25
0.0
 16
0.0
 26
0.0
 36
1.0
 17
0.0
 27
0.0
 37
0.0
 40
83.8314619063
 41
0.7070707071
 42
50.0
 43
0.0
 44
0.0
 50
0.0
 51
0.0
 71
0
 72
100
 73
1
 74
1
 75
0
 76
0
 77
0
 78
0
  0
ENDTAB
  0
TABLE
  2
LTYPE
  5
5
100
AcDbSymbolTable
 70
6
  0
LTYPE
  5
14
100
AcDbSymbolTableRecord
100
AcDbLinetypeTableRecord
  2
BYBLOCK
 70
0
  3

 72
65
 73
0
 40
0.0
  0
LTYPE
  5
15
100
AcDbSymbolTableRecord
100
AcDbLinetypeTableRecord
  2
BYLAYER
 70
0
  3

 72
65
 73
0
 40
0.0
  0
LTYPE
  5
16
100
AcDbSymbolTableRecord
100
AcDbLinetypeTableRecord
  2
CONTINUOUS
 70
64
  3
Solid line
 72
65
 73
0
 40
0.0
  0
LTYPE
  5
1F5
100
AcDbSymbolTableRecord
100
AcDbLinetypeTableRecord
  2
CENTER
 70
64
  3
____ _ ____ _ ____ _ ____ _ ____ _ ____ _ ____
 72
65
 73
4
 40
0.6
 49
0.375
 74
0
 49
-0.075
 74
0
 49
0.075
 74
0
 49
-0.075
 74
0
  0
LTYPE
  5
1F6
100
AcDbSymbolTableRecord
100
AcDbLinetypeTableRecord
  2
HIDDEN
 70
64
  3
- - - - - - - - - - - - - - - - - - - -
 72
65
 73
2
 40
0.2
 49
0.1
 74
0
 49
-0.1
 74
0
  0
LTYPE
  5
1F7
100
AcDbSymbolTableRecord
100
AcDbLinetypeTableRecord
  2
PHANTOM
 70
64
  3
_____ _ _ _____ _ _ _____ _ _ _____
 72
65
 73
6
 40
0.8
 49
0.45
 74
0
 49
-0.05
 74
0
 49
0.1
 74
0
 49
-0.05
 74
0
 49
0.1
 74
0
 49
-0.05
 74
0
  0
LTYPE
  5
1F8
100
AcDbSymbolTableRecord
100
AcDbLinetypeTableRecord
  2
DOT
 70
64
  3
. . . . . . . . . . . . . . . . . . . .
 72
65
 73
2
 40
0.2
 49
0.1
 74
0
 49
-0.1
 74
0
  0
LTYPE
  5
1F9
100
AcDbSymbolTableRecord
100
AcDbLinetypeTableRecord
  2
DASHED
 70
64
  3
- - - - - - - - - - - - - - - - - - - -
 72
65
 73
2
 40
0.2
 49
0.1
 74
0
 49
-0.1
 74
0
  0
ENDTAB
  0
TABLE
  2
LAYER
  5
2
100
AcDbSymbolTable
 70
36
  0
LAYER
  5
10
100
AcDbSymbolTableRecord
100
AcDbLayerTableRecord
  2
0
 70
0
 62
7
  6
CONTINUOUS
370
-3
390
F
  0
LAYER
  5
1FA
100
AcDbSymbolTableRecord
100
AcDbLayerTableRecord
  2
DEFAULT_1
 70
0
 62
7
  6
CENTER
370
-3
390
F
  0
LAYER
  5
1FB
100
AcDbSymbolTableRecord
100
AcDbLayerTableRecord
  2
DEFAULT_2
 70
0
 62
8
  6
HIDDEN
370
-3
390
F
  0
LAYER
  5
1FC
100
AcDbSymbolTableRecord
100
AcDbLayerTableRecord
  2
DEFAULT_3
 70
0
 62
7
  6
PHANTOM
370
-3
390
F
  0
LAYER
  5
1FD
100
AcDbSymbolTableRecord
100
AcDbLayerTableRecord
  2
00_COMPONENTS
 70
0
 62
7
  6
CONTINUOUS
370
-3
390
F
  0
LAYER
  5
1FE
100
AcDbSymbolTableRecord
100
AcDbLayerTableRecord
  2
01_1_DEFAULT_DATUMS
 70
0
 62
7
  6
CONTINUOUS
370
-3
390
F
  0
LAYER
  5
1FF
100
AcDbSymbolTableRecord
100
AcDbLayerTableRecord
  2
01_PLANES
 70
0
 62
7
  6
CONTINUOUS
370
-3
390
F
  0
LAYER
  5
200
100
AcDbSymbolTableRecord
100
AcDbLayerTableRecord
  2
02_COORD_SYS
 70
0
 62
7
  6
CONTINUOUS
370
-3
390
F
  0
LAYER
  5
201
100
AcDbSymbolTableRecord
100
AcDbLayerTableRecord
  2
03_AXES
 70
0
 62
7
  6
CONTINUOUS
370
-3
390
F
  0
LAYER
  5
202
100
AcDbSymbolTableRecord
100
AcDbLayerTableRecord
  2
04_POINTS
 70
0
 62
7
  6
CONTINUOUS
370
-3
390
F
  0
LAYER
  5
203
100
AcDbSymbolTableRecord
100
AcDbLayerTableRecord
  2
05_CURVES
 70
0
 62
7
  6
CONTINUOUS
370
-3
390
F
  0
LAYER
  5
204
100
AcDbSymbolTableRecord
100
AcDbLayerTableRecord
  2
06_SURFS
 70
0
 62
7
  6
CONTINUOUS
370
-3
390
F
  0
LAYER
  5
205
100
AcDbSymbolTableRecord
100
AcDbLayerTableRecord
  2
07_COSMETICS
 70
0
 62
7
  6
CONTINUOUS
370
-3
390
F
  0
LAYER
  5
206
100
AcDbSymbolTableRecord
100
AcDbLayerTableRecord
  2
10_NOTES
 70
0
 62
7
  6
CONTINUOUS
370
-3
390
F
  0
LAYER
  5
207
100
AcDbSymbolTableRecord
100
AcDbLayerTableRecord
  2
11_NOTES_PUB
 70
0
 62
7
  6
CONTINUOUS
370
-3
390
F
  0
LAYER
  5
208
100
AcDbSymbolTableRecord
100
AcDbLayerTableRecord
  2
13_REF_GTOL
 70
0
 62
7
  6
CONTINUOUS
370
-3
390
F
  0
LAYER
  5
209
100
AcDbSymbolTableRecord
100
AcDbLayerTableRecord
  2
16_MISC
 70
0
 62
7
  6
CONTINUOUS
370
-3
390
F
  0
LAYER
  5
20A
100
AcDbSymbolTableRecord
100
AcDbLayerTableRecord
  2
17_NO_PRINT
 70
0
 62
7
  6
CONTINUOUS
370
-3
390
F
  0
LAYER
  5
20B
100
AcDbSymbolTableRecord
100
AcDbLayerTableRecord
  2
18_DATUM_CAMS_JOINTS
 70
0
 62
7
  6
CONTINUOUS
370
-3
390
F
  0
LAYER
  5
20C
100
AcDbSymbolTableRecord
100
AcDbLayerTableRecord
  2
19_DATUM_FUNCTIONAL
 70
0
 62
7
  6
CONTINUOUS
370
-3
390
F
  0
LAYER
  5
20D
100
AcDbSymbolTableRecord
100
AcDbLayerTableRecord
  2
20_DATUM_KINEMATIC_SCHEME
 70
0
 62
7
  6
CONTINUOUS
370
-3
390
F
  0
ENDTAB
  0
TABLE
  2
STYLE
  5
3
100
AcDbSymbolTable
 70
1
  0
STYLE
  5
11
100
AcDbSymbolTableRecord
100
AcDbTextStyleTableRecord
  2
STANDARD
 70
0
 40
0.0
 41
0.8
 50
0.0
 71
0
 42
0.2
  3
txt
  4

  0
STYLE
  5
20E
100
AcDbSymbolTableRecord
100
AcDbTextStyleTableRecord
  2
TEXTSTYLE_1
 70
0
 40
0.0
 41
0.8
 50
0.0
 71
0
 42
0.2
  3
gdt
  4

  0
ENDTAB
  0
TABLE
  2
VIEW
  5
6
100
AcDbSymbolTable
 70
0
  0
ENDTAB
  0
TABLE
  2
UCS
  5
7
100
AcDbSymbolTable
 70
0
  0
ENDTAB
  0
TABLE
  2
APPID
  5
9
100
AcDbSymbolTable
 70
1
  0
APPID
  5
20F
100
AcDbSymbolTableRecord
100
AcDbRegAppTableRecord
  2
ACAD
 70
0
  0
ENDTAB
  0
TABLE
  2
BLOCK_RECORD
  5
1
100
AcDbSymbolTable
 70
0
  0
BLOCK_RECORD
  5
210
100
AcDbSymbolTableRecord
100
AcDbBlockTableRecord
  2
*Model_Space
  0
BLOCK_RECORD
  5
211
100
AcDbSymbolTableRecord
100
AcDbBlockTableRecord
  2
*Paper_Space
  0
BLOCK_RECORD
  5
212
100
AcDbSymbolTableRecord
100
AcDbBlockTableRecord
  2
_FILLED
  0
ENDTAB
  0
TABLE
  2
DIMSTYLE
  5
A
100
AcDbSymbolTable
 70
1
100
AcDbDimStyleTable
 71
0
  0
DIMSTYLE
105
213
100
AcDbSymbolTableRecord
100
AcDbDimStyleTableRecord
  2
STANDARD
 70
0
  3

  4

 40
1.0
 41
0.7056520362
 42
1.0
 43
0.38
 44
1.0
 45
0.0
 46
0.0
 47
0.01
 48
0.01
140
0.9879128507
141
0.09
142
0.0
143
25.4
144
1.0
145
0.0
146
1.0
147
0.625
 71
1
 72
0
 73
0
 74
0
 75
0
 76
0
 77
1
 78
8
 79
2
170
0
171
1
172
0
173
0
174
0
175
0
176
0
177
0
178
0
270
2
179
2
271
2
272
2
273
2
274
2
275
0
280
0
281
0
282
0
283
1
284
8
285
0
286
0
287
3
288
0
340
11
278
46
341
212
342
212
343
212
344
212
  0
ENDTAB
  0
ENDSEC
  0
SECTION
  2
BLOCKS
  0
BLOCK
  5
20
100
AcDbEntity
  8
0
100
AcDbBlockBegin
  2
*Model_Space
 70
0
 10
0.0
 20
0.0
 30
0.0
  3
*Model_Space
  1

  0
ENDBLK
  5
21
100
AcDbEntity
  8
0
100
AcDbBlockEnd
  0
BLOCK
  5
1C
100
AcDbEntity
  8
0
100
AcDbBlockBegin
  2
*Paper_Space
 70
0
 10
0.0
 20
0.0
 30
0.0
  3
*Paper_Space
  1

  0
ENDBLK
  5
1D
100
AcDbEntity
  8
0
100
AcDbBlockEnd
  0
BLOCK
  5
214
100
AcDbEntity
  8
0
100
AcDbBlockBegin
  2
_FILLED
 70
64
 10
0.0
 20
0.0
  3
_FILLED
  1

  0
SOLID
  5
215
100
AcDbEntity
  8
0
  6
BYBLOCK
 62
0
100
AcDbTrace
 10
0.0
 20
0.0
 11
-1.0
 21
0.25
 12
-1.0
 22
-0.25
 13
-1.0
 23
-0.25
  0
ENDBLK
  5
216
100
AcDbEntity
  8
0
  6
BYBLOCK
 62
0
100
AcDbBlockEnd
  0
ENDSEC
  0
SECTION
  2
ENTITIES
  0
LINE
  5
217
100
AcDbEntity
  8
0
100
AcDbLine
 62
7
  6
CONTINUOUS
 10
31.9899944109
 20
6.2078377544
 11
23.9399944109
 21
6.2078377544
  0
LINE
  5
218
100
AcDbEntity
  8
0
100
AcDbLine
 62
7
  6
CONTINUOUS
 10
31.9899944109
 20
7.3460872748
 11
35.4399944109
 21
7.3460872748
  0
LINE
  5
219
100
AcDbEntity
  8
0
100
AcDbLine
 62
7
  6
CONTINUOUS
 10
35.4399944109
 20
7.7974972881
 11
31.9899944109
 21
7.7974972881
  0
LINE
  5
21A
100
AcDbEntity
  8
0
100
AcDbLine
 62
7
  6
CONTINUOUS
 10
31.9899944109
 20
8.7003173148
 11
35.4399944109
 21
8.7003173148
  0
LINE
  5
21B
100
AcDbEntity
  8
0
100
AcDbLine
 62
7
  6
CONTINUOUS
 10
31.9899944109
 20
9.1127845264
 11
27.3899944109
 21
9.1127845264
  0
LINE
  5
21C
100
AcDbEntity
  8
0
100
AcDbLine
 62
7
  6
CONTINUOUS
 10
23.9399944109
 20
9.1127845265
 11
25.3899944109
 21
9.1127845265
  0
LINE
  5
21D
100
AcDbEntity
  8
0
100
AcDbLine
 62
7
  6
CONTINUOUS
 10
31.9899944109
 20
9.1517273281
 11
35.4399944109
 21
9.1517273281
  0
LINE
  5
21E
100
AcDbEntity
  8
0
100
AcDbLine
 62
7
  6
CONTINUOUS
 10
23.3899944109
 20
9.2348478751
 11
31.9899944109
 21
9.2348478751
  0
LINE
  5
21F
100
AcDbEntity
  8
0
100
AcDbLine
 62
7
  6
CONTINUOUS
 10
35.4399944109
 20
9.6128618286
 11
31.9899944109
 21
9.6128618286
  0
LINE
  5
220
100
AcDbEntity
  8
0
100
AcDbLine
 62
7
  6
CONTINUOUS
 10
26.7899944109
 20
9.6696055709
 11
30.7899944109
 21
9.6696055709
  0
LINE
  5
221
100
AcDbEntity
  8
0
100
AcDbLine
 62
7
  6
CONTINUOUS
 10
26.7899944109
 20
9.8106423478
 11
30.7899944109
 21
9.8106423478
  0
LINE
  5
222
100
AcDbEntity
  8
0
100
AcDbLine
 62
7
  6
CONTINUOUS
 10
26.7899944109
 20
9.8571741963
 11
30.7899944109
 21
9.8571741963
  0
LINE
  5
223
100
AcDbEntity
  8
0
100
AcDbLine
 62
7
  6
CONTINUOUS
 10
26.7899944109
 20
9.9979393883
 11
30.7899944109
 21
9.9979393883
  0
LINE
  5
224
100
AcDbEntity
  8
0
100
AcDbLine
 62
7
  6
CONTINUOUS
 10
26.7899944109
 20
10.1106031738
 11
30.7899944109
 21
10.1106031738
  0
LINE
  5
225
100
AcDbEntity
  8
0
100
AcDbLine
 62
7
  6
CONTINUOUS
 10
26.7899944109
 20
10.2664204239
 11
30.7899944109
 21
10.2664204239
  0
LINE
  5
226
100
AcDbEntity
  8
0
100
AcDbLine
 62
7
  6
CONTINUOUS
 10
31.9899944109
 20
10.4033781153
 11
35.4399944109
 21
10.4033781153
  0
LINE
  5
227
100
AcDbEntity
  8
0
100
AcDbLine
 62
7
  6
CONTINUOUS
 10
26.7899944109
 20
10.4307173585
 11
30.7899944109
 21
10.4307173585
  0
LINE
  5
228
100
AcDbEntity
  8
0
100
AcDbLine
 62
7
  6
CONTINUOUS
 10
26.7899944109
 20
10.6017536544
 11
30.7899944109
 21
10.6017536544
  0
LINE
  5
229
100
AcDbEntity
  8
0
100
AcDbLine
 62
7
  6
CONTINUOUS
 10
26.7899944109
 20
10.8151769055
 11
30.7899944109
 21
10.8151769055
  0
LINE
  5
22A
100
AcDbEntity
  8
0
100
AcDbLine
 62
7
  6
CONTINUOUS
 10
31.9899944109
 20
10.8645126159
 11
35.4399944109
 21
10.8645126159
  0
LINE
  5
22B
100
AcDbEntity
  8
0
100
AcDbLine
 62
7
  6
CONTINUOUS
 10
26.7899944109
 20
11.0014879925
 11
30.7899944109
 21
11.0014879925
  0
LINE
  5
22C
100
AcDbEntity
  8
0
100
AcDbLine
 62
7
  6
CONTINUOUS
 10
30.7899944109
 20
11.2316471213
 11
26.7899944109
 21
11.2316471213
  0
LINE
  5
22D
100
AcDbEntity
  8
0
100
AcDbLine
 62
7
  6
CONTINUOUS
 10
26.7899944109
 20
11.3544848749
 11
30.7899944109
 21
11.3544848749
  0
LINE
  5
22E
100
AcDbEntity
  8
0
100
AcDbLine
 62
7
  6
CONTINUOUS
 10
26.7899944109
 20
12.1590381001
 11
30.7899944109
 21
12.1590381001
  0
LINE
  5
22F
100
AcDbEntity
  8
0
100
AcDbLine
 62
7
  6
CONTINUOUS
 10
26.7899944109
 20
12.3750937798
 11
29.4899944109
 21
12.3750937798
  0
LINE
  5
230
100
AcDbEntity
  8
0
100
AcDbLine
 62
7
  6
CONTINUOUS
 10
29.4899944109
 20
12.5130265768
 11
30.7899944109
 21
12.5130265768
  0
LINE
  5
231
100
AcDbEntity
  8
0
100
AcDbLine
 62
7
  6
CONTINUOUS
 10
31.9899944109
 20
12.5348478751
 11
23.3899944109
 21
12.5348478751
  0
LINE
  5
232
100
AcDbEntity
  8
0
100
AcDbLine
 62
7
  6
CONTINUOUS
 10
23.3899944109
 20
14.5348478751
 11
31.9899944109
 21
14.5348478751
  0
LINE
  5
233
100
AcDbEntity
  8
0
100
AcDbLine
 62
7
  6
CONTINUOUS
 10
34.5899944109
 20
70.8079762811
 11
34.9899944109
 21
71.1324401112
  0
LINE
  5
234
100
AcDbEntity
  8
0
100
AcDbLine
 62
7
  6
CONTINUOUS
 10
34.5899944109
 20
70.1168565339
 11
34.9899944109
 21
70.5802389062
  0
LINE
  5
235
100
AcDbEntity
  8
0
100
AcDbLine
 62
7
  6
CONTINUOUS
 10
30.9899944109
 20
60.2359073162
 11
30.2399944109
 21
59.8996915141
  0
LINE
  5
236
100
AcDbEntity
  8
0
100
AcDbLine
 62
7
  6
CONTINUOUS
 10
30.2399944109
 20
58.3544637415
 11
30.7425141575
 21
58.579737181
  0
LINE
  5
237
100
AcDbEntity
  8
0
100
AcDbLine
 62
7
  6
CONTINUOUS
 10
31.9899944109
 20
28.0423887931
 11
36.0899944109
 21
28.0423887931
  0
LINE
  5
238
100
AcDbEntity
  8
0
100
AcDbLine
 62
7
  6
CONTINUOUS
 10
23.3899944109
 20
28.7348478751
 11
31.9899944109
 21
28.7348478751
  0
LINE
  5
239
100
AcDbEntity
  8
0
100
AcDbLine
 62
7
  6
CONTINUOUS
 10
31.9899944109
 20
28.8363599852
 11
36.0899944109
 21
28.8363599852
  0
LINE
  5
23A
100
AcDbEntity
  8
0
100
AcDbLine
 62
7
  6
CONTINUOUS
 10
31.9899944109
 20
29.723812265
 11
36.0899944109
 21
29.723812265
  0
LINE
  5
23B
100
AcDbEntity
  8
0
100
AcDbLine
 62
7
  6
CONTINUOUS
 10
31.9899944109
 20
30.1815141724
 11
36.0899944109
 21
30.1815141724
  0
LINE
  5
23C
100
AcDbEntity
  8
0
100
AcDbLine
 62
7
  6
CONTINUOUS
 10
24.3899944109
 20
31.2806059254
 11
25.1399944109
 21
30.9202509148
  0
LINE
  5
23D
100
AcDbEntity
  8
0
100
AcDbLine
 62
7
  6
CONTINUOUS
 10
31.9899944109
 20
31.5348478751
 11
35.9899944109
 21
31.5348478751
  0
LINE
  5
23E
100
AcDbEntity
  8
0
100
AcDbLine
 62
7
  6
CONTINUOUS
 10
23.3899944109
 20
9.2348478751
 11
23.3899944109
 21
78.034059706
  0
LINE
  5
23F
100
AcDbEntity
  8
0
100
AcDbLine
 62
7
  6
CONTINUOUS
 10
23.9399944109
 20
9.2348478751
 11
23.9399944109
 21
6.2078377544
  0
LINE
  5
240
100
AcDbEntity
  8
0
100
AcDbLine
 62
7
  6
CONTINUOUS
 10
24.3899944109
 20
43.8422948299
 11
24.3899944109
 21
28.7348478751
  0
LINE
  5
241
100
AcDbEntity
  8
0
100
AcDbLine
 62
7
  6
CONTINUOUS
 10
24.3899944109
 20
48.5492259125
 11
24.3899944109
 21
58.579737181
  0
LINE
  5
242
100
AcDbEntity
  8
0
100
AcDbLine
 62
7
  6
CONTINUOUS
 10
24.3899944109
 20
63.6412404998
 11
24.3899944109
 21
73.5242347683
  0
LINE
  5
243
100
AcDbEntity
  8
0
100
AcDbLine
 62
7
  6
CONTINUOUS
 10
25.1399944109
 20
28.7348478751
 11
25.1399944109
 21
30.9202509148
  0
LINE
  5
244
100
AcDbEntity
  8
0
100
AcDbLine
 62
7
  6
CONTINUOUS
 10
25.1399944109
 20
42.9967547687
 11
25.1399944109
 21
44.9585867925
  0
LINE
  5
245
100
AcDbEntity
  8
0
100
AcDbLine
 62
7
  6
CONTINUOUS
 10
25.1399944109
 20
57.7709406085
 11
25.1399944109
 21
59.8996915141
  0
LINE
  5
246
100
AcDbEntity
  8
0
100
AcDbLine
 62
7
  6
CONTINUOUS
 10
31.9899944109
 20
35.5348478751
 11
35.9899944109
 21
35.5348478751
  0
LINE
  5
247
100
AcDbEntity
  8
0
100
AcDbLine
 62
7
  6
CONTINUOUS
 10
24.3899944109
 20
45.2948025945
 11
24.6070415501
 21
43.8422948299
  0
LINE
  5
248
100
AcDbEntity
  8
0
100
AcDbLine
 62
7
  6
CONTINUOUS
 10
25.3899944109
 20
9.2348478751
 11
25.3899944109
 21
9.1127845265
  0
LINE
  5
249
100
AcDbEntity
  8
0
100
AcDbLine
 62
7
  6
CONTINUOUS
 10
26.7899944109
 20
9.670028827
 11
26.7899944109
 21
10.9943505909
  0
LINE
  5
24A
100
AcDbEntity
  8
0
100
AcDbLine
 62
7
  6
CONTINUOUS
 10
26.7899944109
 20
11.0014879925
 11
26.7899944109
 21
12.3750937798
  0
LINE
  5
24B
100
AcDbEntity
  8
0
100
AcDbLine
 62
7
  6
CONTINUOUS
 10
27.3899944109
 20
9.1127845264
 11
27.3899944109
 21
9.2348478751
  0
LINE
  5
24C
100
AcDbEntity
  8
0
100
AcDbLine
 62
7
  6
CONTINUOUS
 10
30.9899944109
 20
45.2948025945
 11
30.2399944109
 21
44.9585867925
  0
LINE
  5
24D
100
AcDbEntity
  8
0
100
AcDbLine
 62
7
  6
CONTINUOUS
 10
23.3899944109
 20
38.2348478751
 11
24.3899944109
 21
38.2348478751
  0
LINE
  5
24E
100
AcDbEntity
  8
0
100
AcDbLine
 62
7
  6
CONTINUOUS
 10
30.9899944109
 20
38.2348478751
 11
31.9899944109
 21
38.2348478751
  0
LINE
  5
24F
100
AcDbEntity
  8
0
100
AcDbLine
 62
7
  6
CONTINUOUS
 10
24.3899944109
 20
60.2359073162
 11
24.6374746644
 21
58.579737181
  0
LINE
  5
250
100
AcDbEntity
  8
0
100
AcDbLine
 62
7
  6
CONTINUOUS
 10
29.4899944109
 20
12.5348478751
 11
29.4899944109
 21
12.3750937798
  0
LINE
  5
251
100
AcDbEntity
  8
0
100
AcDbLine
 62
7
  6
CONTINUOUS
 10
30.9899944109
 20
60.2359073162
 11
30.7425141575
 21
58.579737181
  0
LINE
  5
252
100
AcDbEntity
  8
0
100
AcDbLine
 62
7
  6
CONTINUOUS
 10
30.2399944109
 20
43.6033785985
 11
30.7729472718
 21
43.8422948299
  0
LINE
  5
253
100
AcDbEntity
  8
0
100
AcDbLine
 62
7
  6
CONTINUOUS
 10
24.6070415501
 20
43.8422948299
 11
25.1399944109
 21
43.6033785985
  0
LINE
  5
254
100
AcDbEntity
  8
0
100
AcDbLine
 62
7
  6
CONTINUOUS
 10
30.2399944109
 20
28.7348478751
 11
30.2399944109
 21
30.9153385386
  0
LINE
  5
255
100
AcDbEntity
  8
0
100
AcDbLine
 62
7
  6
CONTINUOUS
 10
30.2399944109
 20
42.9967547687
 11
30.2399944109
 21
44.9585867925
  0
LINE
  5
256
100
AcDbEntity
  8
0
100
AcDbLine
 62
7
  6
CONTINUOUS
 10
30.2399944109
 20
57.7709406085
 11
30.2399944109
 21
59.8996915141
  0
LINE
  5
257
100
AcDbEntity
  8
0
100
AcDbLine
 62
7
  6
CONTINUOUS
 10
30.7899944109
 20
9.6700251301
 11
30.7899944109
 21
10.9943505909
  0
LINE
  5
258
100
AcDbEntity
  8
0
100
AcDbLine
 62
7
  6
CONTINUOUS
 10
30.7899944109
 20
11.0014879925
 11
30.7899944109
 21
12.5348478751
  0
LINE
  5
259
100
AcDbEntity
  8
0
100
AcDbLine
 62
7
  6
CONTINUOUS
 10
30.9899944109
 20
58.579737181
 11
30.9899944109
 21
48.5492259124
  0
LINE
  5
25A
100
AcDbEntity
  8
0
100
AcDbLine
 62
7
  6
CONTINUOUS
 10
30.9899944109
 20
43.8422948299
 11
30.9899944109
 21
28.7348478751
  0
LINE
  5
25B
100
AcDbEntity
  8
0
100
AcDbLine
 62
7
  6
CONTINUOUS
 10
30.9899944109
 20
63.6412404998
 11
30.9899944109
 21
73.5242347683
  0
LINE
  5
25C
100
AcDbEntity
  8
0
100
AcDbLine
 62
7
  6
CONTINUOUS
 10
31.9899944109
 20
6.2078377544
 11
31.9899944109
 21
31.5348478751
  0
LINE
  5
25D
100
AcDbEntity
  8
0
100
AcDbLine
 62
7
  6
CONTINUOUS
 10
31.9899944109
 20
35.5348478751
 11
31.9899944109
 21
78.034059706
  0
LINE
  5
25E
100
AcDbEntity
  8
0
100
AcDbLine
 62
7
  6
CONTINUOUS
 10
30.9899944109
 20
45.2948025945
 11
30.7729472718
 21
43.8422948299
  0
LINE
  5
25F
100
AcDbEntity
  8
0
100
AcDbLine
 62
7
  6
CONTINUOUS
 10
24.3899944109
 20
43.8422948299
 11
24.6070415501
 21
43.8422948299
  0
LINE
  5
260
100
AcDbEntity
  8
0
100
AcDbLine
 62
7
  6
CONTINUOUS
 10
30.7729472718
 20
43.8422948299
 11
30.9899944109
 21
43.8422948299
  0
LINE
  5
261
100
AcDbEntity
  8
0
100
AcDbLine
 62
7
  6
CONTINUOUS
 10
25.1399944109
 20
44.9585867925
 11
24.3899944109
 21
45.2948025945
  0
LINE
  5
262
100
AcDbEntity
  8
0
100
AcDbLine
 62
7
  6
CONTINUOUS
 10
34.5899944109
 20
72.5348478751
 11
34.5899944109
 21
70.1168565339
  0
LINE
  5
263
100
AcDbEntity
  8
0
100
AcDbLine
 62
7
  6
CONTINUOUS
 10
23.3899944109
 20
45.2948025945
 11
24.3899944109
 21
45.2948025945
  0
LINE
  5
264
100
AcDbEntity
  8
0
100
AcDbLine
 62
7
  6
CONTINUOUS
 10
30.9899944109
 20
45.2948025945
 11
31.9899944109
 21
45.2948025945
  0
LINE
  5
265
100
AcDbEntity
  8
0
100
AcDbLine
 62
7
  6
CONTINUOUS
 10
31.9899944109
 20
45.572204011
 11
23.3899944109
 21
45.572204011
  0
LINE
  5
266
100
AcDbEntity
  8
0
100
AcDbLine
 62
7
  6
CONTINUOUS
 10
34.9899944109
 20
70.5802389062
 11
34.9899944109
 21
72.1348478751
  0
LINE
  5
267
100
AcDbEntity
  8
0
100
AcDbLine
 62
7
  6
CONTINUOUS
 10
35.0515237167
 20
31.5348478751
 11
35.0515237167
 21
35.5348478751
  0
LINE
  5
268
100
AcDbEntity
  8
0
100
AcDbLine
 62
7
  6
CONTINUOUS
 10
35.4399944109
 20
7.3460872748
 11
35.4399944109
 21
9.6128618286
  0
LINE
  5
269
100
AcDbEntity
  8
0
100
AcDbLine
 62
7
  6
CONTINUOUS
 10
35.4399944109
 20
9.6429742308
 11
35.4399944109
 21
10.8645126159
  0
LINE
  5
26A
100
AcDbEntity
  8
0
100
AcDbLine
 62
7
  6
CONTINUOUS
 10
35.9899944109
 20
31.5348478751
 11
35.9899944109
 21
35.5348478751
  0
LINE
  5
26B
100
AcDbEntity
  8
0
100
AcDbLine
 62
7
  6
CONTINUOUS
 10
36.0899944109
 20
28.0425844874
 11
36.0899944109
 21
30.1812876435
  0
LINE
  5
26C
100
AcDbEntity
  8
0
100
AcDbLine
 62
7
  6
CONTINUOUS
 10
23.3899944109
 20
49.4359073162
 11
24.3899944109
 21
49.4359073162
  0
LINE
  5
26D
100
AcDbEntity
  8
0
100
AcDbLine
 62
7
  6
CONTINUOUS
 10
30.9899944109
 20
49.4359073162
 11
31.9899944109
 21
49.4359073162
  0
LINE
  5
26E
100
AcDbEntity
  8
0
100
AcDbLine
 62
7
  6
CONTINUOUS
 10
30.2399944109
 20
30.9153385386
 11
30.9899944109
 21
31.2756935492
  0
LINE
  5
26F
100
AcDbEntity
  8
0
100
AcDbLine
 62
7
  6
CONTINUOUS
 10
24.6374746644
 20
58.579737181
 11
25.1399944109
 21
58.3544637415
  0
LINE
  5
270
100
AcDbEntity
  8
0
100
AcDbLine
 62
7
  6
CONTINUOUS
 10
25.1399944109
 20
59.8996915141
 11
24.3899944109
 21
60.2359073162
  0
LINE
  5
271
100
AcDbEntity
  8
0
100
AcDbLine
 62
7
  6
CONTINUOUS
 10
24.3899944109
 20
58.579737181
 11
24.6374746644
 21
58.579737181
  0
LINE
  5
272
100
AcDbEntity
  8
0
100
AcDbLine
 62
7
  6
CONTINUOUS
 10
30.7425141575
 20
58.579737181
 11
30.9899944109
 21
58.579737181
  0
LINE
  5
273
100
AcDbEntity
  8
0
100
AcDbLine
 62
7
  6
CONTINUOUS
 10
23.3899944109
 20
60.2359073162
 11
24.3899944109
 21
60.2359073162
  0
LINE
  5
274
100
AcDbEntity
  8
0
100
AcDbLine
 62
7
  6
CONTINUOUS
 10
30.9899944109
 20
60.2359073162
 11
31.9899944109
 21
60.2359073162
  0
LINE
  5
275
100
AcDbEntity
  8
0
100
AcDbLine
 62
7
  6
CONTINUOUS
 10
31.9899944109
 20
60.5133087327
 11
23.3899944109
 21
60.5133087327
  0
LINE
  5
276
100
AcDbEntity
  8
0
100
AcDbLine
 62
7
  6
CONTINUOUS
 10
23.3899944109
 20
64.3770120378
 11
24.3899944109
 21
64.3770120378
  0
LINE
  5
277
100
AcDbEntity
  8
0
100
AcDbLine
 62
7
  6
CONTINUOUS
 10
30.9899944109
 20
64.3770120378
 11
31.9899944109
 21
64.3770120378
  0
LINE
  5
278
100
AcDbEntity
  8
0
100
AcDbLine
 62
7
  6
CONTINUOUS
 10
34.9899944109
 20
72.1348478751
 11
34.5899944109
 21
72.5348478751
  0
LINE
  5
279
100
AcDbEntity
  8
0
100
AcDbLine
 62
7
  6
CONTINUOUS
 10
31.9899944109
 20
70.1168565339
 11
34.5899944109
 21
70.1168565339
  0
LINE
  5
27A
100
AcDbEntity
  8
0
100
AcDbLine
 62
7
  6
CONTINUOUS
 10
31.9899944109
 20
70.8079762811
 11
34.5899944109
 21
70.8079762811
  0
LINE
  5
27B
100
AcDbEntity
  8
0
100
AcDbLine
 62
7
  6
CONTINUOUS
 10
31.9899944109
 20
72.5348478751
 11
34.5899944109
 21
72.5348478751
  0
LINE
  5
27C
100
AcDbEntity
  8
0
100
AcDbLine
 62
7
  6
CONTINUOUS
 10
24.3899944109
 20
73.5242347683
 11
30.9899944109
 21
73.5242347683
  0
LINE
  5
27D
100
AcDbEntity
  8
0
100
AcDbLine
 62
7
  6
CONTINUOUS
 10
23.3899944109
 20
75.547849278
 11
31.9899944109
 21
75.547849278
  0
LINE
  5
27E
100
AcDbEntity
  8
0
100
AcDbLine
 62
7
  6
CONTINUOUS
 10
23.3899944109
 20
78.034059706
 11
31.9899944109
 21
78.034059706
  0
SPLINE
  5
27F
100
AcDbEntity
  8
0
100
AcDbSpline
 62
7
  6
CONTINUOUS
 70
0
 71
3
 72
9
 73
5
 74
0
 42
0.0000001
 43
0.0000001
 44
0.0000000001
 40
0.0
 40
0.0
 40
0.0
 40
0.0
 40
0.2189989526
 40
1.0
 40
1.0
 40
1.0
 40
1.0
 10
30.2339641339
 20
30.5516607748
 30
0.0
 10
30.2306052772
 20
30.5642533077
 30
0.0
 10
30.2091251911
 20
30.6201854619
 30
0.0
 10
30.1672668697
 20
30.6659474206
 30
0.0
 10
30.132059811
 20
30.6962898882
 30
0.0
  0
SPLINE
  5
280
100
AcDbEntity
  8
0
100
AcDbSpline
 62
7
  6
CONTINUOUS
 70
0
 71
3
 72
14
 73
10
 74
0
 42
0.0000001
 43
0.0000001
 44
0.0000000001
 40
0.0
 40
0.0
 40
0.0
 40
0.0
 40
0.0705293785
 40
0.1600852679
 40
0.2681240465
 40
0.392849107
 40
0.5316500142
 40
0.6814628921
 40
1.0
 40
1.0
 40
1.0
 40
1.0
 10
30.132059811
 20
30.6962898882
 30
0.0
 10
30.0872109715
 20
30.7349419232
 30
0.0
 10
29.9720774678
 20
30.8067816714
 30
0.0
 10
29.7645344558
 20
30.8947374934
 30
0.0
 10
29.5052886454
 20
30.9737204227
 30
0.0
 10
29.2006024516
 20
31.041420305
 30
0.0
 10
28.857771398
 20
31.0961459245
 30
0.0
 10
28.3508845763
 20
31.1507456482
 30
0.0
 10
27.9573927195
 20
31.1663034653
 30
0.0
 10
27.6899944109
 20
31.1663034653
 30
0.0
  0
SPLINE
  5
281
100
AcDbEntity
  8
0
100
AcDbSpline
 62
7
  6
CONTINUOUS
 70
0
 71
3
 72
14
 73
10
 74
0
 42
0.0000001
 43
0.0000001
 44
0.0000000001
 40
0.0
 40
0.0
 40
0.0
 40
0.0
 40
0.3181503681
 40
0.4678293371
 40
0.606562875
 40
0.7313041179
 40
0.8394506497
 40
0.9292052759
 40
1.0
 40
1.0
 40
1.0
 40
1.0
 10
27.6899944109
 20
31.1663034653
 30
0.0
 10
27.4232542331
 20
31.1663034653
 30
0.0
 10
27.0306927058
 20
31.1508180873
 30
0.0
 10
26.5249140406
 20
31.0964875908
 30
0.0
 10
26.1826401801
 20
31.0420176155
 30
0.0
 10
25.8782388022
 20
30.9746208228
 30
0.0
 10
25.618970176
 20
30.8959697066
 30
0.0
 10
25.4110700955
 20
30.8083543958
 30
0.0
 10
25.2955159426
 20
30.7368322353
 30
0.0
 10
25.2503292373
 20
30.6983462502
 30
0.0
  0
SPLINE
  5
282
100
AcDbEntity
  8
0
100
AcDbSpline
 62
7
  6
CONTINUOUS
 70
0
 71
3
 72
9
 73
5
 74
0
 42
0.0000001
 43
0.0000001
 44
0.0000000001
 40
0.0
 40
0.0
 40
0.0
 40
0.0
 40
0.2891149869
 40
1.0
 40
1.0
 40
1.0
 40
1.0
 10
25.2503292373
 20
30.6983462502
 30
0.0
 10
25.2370223599
 20
30.6870126449
 30
0.0
 10
25.1930475849
 20
30.6459193577
 30
0.0
 10
25.1571008508
 20
30.5931866299
 30
0.0
 10
25.1460244716
 20
30.5516599607
 30
0.0
  0
SPLINE
  5
283
100
AcDbEntity
  8
0
100
AcDbSpline
 62
7
  6
CONTINUOUS
 70
0
 71
3
 72
19
 73
15
 74
0
 42
0.0000001
 43
0.0000001
 44
0.0000000001
 40
0.0
 40
0.0
 40
0.0
 40
0.0
 40
0.1813343932
 40
0.3563189674
 40
0.5185046693
 40
0.6625057352
 40
0.7262047145
 40
0.7837565625
 40
0.8348344904
 40
0.879282073
 40
0.9172175519
 40
0.9490987585
 40
0.9760273945
 40
1.0
 40
1.0
 40
1.0
 40
1.0
 10
27.6899944109
 20
45.0119515277
 30
0.0
 10
27.5241658608
 20
45.0119515277
 30
0.0
 10
27.19825582
 20
45.0037655387
 30
0.0
 10
26.7252523565
 20
44.9673821978
 30
0.0
 10
26.2889582589
 20
44.9082822587
 30
0.0
 10
25.9572511857
 20
44.839897391
 30
0.0
 10
25.7237447466
 20
44.7738324176
 30
0.0
 10
25.5746788617
 20
44.7223827498
 30
0.0
 10
25.4457339275
 20
44.6675148526
 30
0.0
 10
25.338033716
 20
44.60964487
 30
0.0
 10
25.2523248739
 20
44.5492723005
 30
0.0
 10
25.1892650139
 20
44.4863662697
 30
0.0
 10
25.1495674584
 20
44.4207269957
 30
0.0
 10
25.1399944109
 20
44.3738856788
 30
0.0
 10
25.1399944109
 20
44.3519629627
 30
0.0
  0
SPLINE
  5
284
100
AcDbEntity
  8
0
100
AcDbSpline
 62
7
  6
CONTINUOUS
 70
0
 71
3
 72
19
 73
15
 74
0
 42
0.0000001
 43
0.0000001
 44
0.0000000001
 40
0.0
 40
0.0
 40
0.0
 40
0.0
 40
0.0239726005
 40
0.0509012207
 40
0.082782409
 40
0.1207178625
 40
0.1651654214
 40
0.2162433357
 40
0.2737951614
 40
0.33749413
 40
0.4814951813
 40
0.6436808952
 40
0.8186655558
 40
1.0
 40
1.0
 40
1.0
 40
1.0
 10
30.2399944109
 20
59.316168381
 30
0.0
 10
30.2399944109
 20
59.3380910926
 30
0.0
 10
30.2304213888
 20
59.3849323922
 30
0.0
 10
30.1907238745
 20
59.4505716539
 30
0.0
 10
30.1276640382
 20
59.5134776322
 30
0.0
 10
30.0419552675
 20
59.573850192
 30
0.0
 10
29.9342551168
 20
59.6317201712
 30
0.0
 10
29.8053102357
 20
59.6865880543
 30
0.0
 10
29.6562444039
 20
59.7380377476
 30
0.0
 10
29.4227380056
 20
59.8041027121
 30
0.0
 10
29.0910309521
 20
59.872487618
 30
0.0
 10
28.6547367778
 20
59.9315875869
 30
0.0
 10
28.1817331761
 20
59.9679709373
 30
0.0
 10
27.8558230085
 20
59.976156946
 30
0.0
 10
27.6899944109
 20
59.976156946
 30
0.0
  0
SPLINE
  5
285
100
AcDbEntity
  8
0
100
AcDbSpline
 62
7
  6
CONTINUOUS
 70
0
 71
3
 72
19
 73
15
 74
0
 42
0.0000001
 43
0.0000001
 44
0.0000000001
 40
0.0
 40
0.0
 40
0.0
 40
0.0
 40
0.0239726005
 40
0.0509012207
 40
0.082782409
 40
0.1207178625
 40
0.1651654214
 40
0.2162433357
 40
0.2737951614
 40
0.33749413
 40
0.4814951813
 40
0.6436808952
 40
0.8186655558
 40
1.0
 40
1.0
 40
1.0
 40
1.0
 10
30.2399944109
 20
44.3519629627
 30
0.0
 10
30.2399944109
 20
44.3738856743
 30
0.0
 10
30.2304213888
 20
44.4207269739
 30
0.0
 10
30.1907238745
 20
44.4863662356
 30
0.0
 10
30.1276640382
 20
44.5492722139
 30
0.0
 10
30.0419552675
 20
44.6096447737
 30
0.0
 10
29.9342551168
 20
44.6675147529
 30
0.0
 10
29.8053102356
 20
44.722382636
 30
0.0
 10
29.6562444039
 20
44.7738323293
 30
0.0
 10
29.4227380056
 20
44.8398972938
 30
0.0
 10
29.0910309521
 20
44.9082821997
 30
0.0
 10
28.6547367778
 20
44.9673821686
 30
0.0
 10
28.1817331761
 20
45.003765519
 30
0.0
 10
27.8558230085
 20
45.0119515277
 30
0.0
 10
27.6899944109
 20
45.0119515277
 30
0.0
  0
SPLINE
  5
286
100
AcDbEntity
  8
0
100
AcDbSpline
 62
7
  6
CONTINUOUS
 70
0
 71
3
 72
19
 73
15
 74
0
 42
0.0000001
 43
0.0000001
 44
0.0000000001
 40
0.0
 40
0.0
 40
0.0
 40
0.0
 40
0.1813343932
 40
0.3563189674
 40
0.5185046693
 40
0.6625057352
 40
0.7262047145
 40
0.7837565625
 40
0.8348344904
 40
0.879282073
 40
0.9172175519
 40
0.9490987585
 40
0.9760273945
 40
1.0
 40
1.0
 40
1.0
 40
1.0
 10
27.6899944109
 20
59.976156946
 30
0.0
 10
27.5241658608
 20
59.976156946
 30
0.0
 10
27.19825582
 20
59.967970957
 30
0.0
 10
26.7252523565
 20
59.9315876161
 30
0.0
 10
26.2889582589
 20
59.872487677
 30
0.0
 10
25.9572511857
 20
59.8041028093
 30
0.0
 10
25.7237447466
 20
59.7380378359
 30
0.0
 10
25.5746788617
 20
59.6865881681
 30
0.0
 10
25.4457339275
 20
59.6317202709
 30
0.0
 10
25.338033716
 20
59.5738502883
 30
0.0
 10
25.2523248739
 20
59.5134777188
 30
0.0
 10
25.1892650139
 20
59.450571688
 30
0.0
 10
25.1495674584
 20
59.384932414
 30
0.0
 10
25.1399944109
 20
59.3380910971
 30
0.0
 10
25.1399944109
 20
59.316168381
 30
0.0
  0
SPLINE
  5
287
100
AcDbEntity
  8
0
100
AcDbSpline
 62
7
  6
CONTINUOUS
 70
0
 71
3
 72
31
 73
27
 74
0
 42
0.0000001
 43
0.0000001
 44
0.0000000001
 40
0.0
 40
0.0
 40
0.0
 40
0.0
 40
0.0119893784
 40
0.0254534372
 40
0.0413935341
 40
0.0603581491
 40
0.0825827718
 40
0.1081251747
 40
0.1368984974
 40
0.1687497411
 40
0.2407401145
 40
0.3218499738
 40
0.409298512
 40
0.4999910957
 40
0.5906835691
 40
0.6781325375
 40
0.759245043
 40
0.8312399513
 40
0.8630932613
 40
0.8918690612
 40
0.9174134389
 40
0.9396394401
 40
0.9586053927
 40
0.9745462314
 40
0.9880105773
 40
1.0
 40
1.0
 40
1.0
 40
1.0
 10
24.3899944109
 20
32.5853410291
 30
0.0
 10
24.3899944109
 20
32.5569630672
 30
0.0
 10
24.4023679658
 20
32.4963360934
 30
0.0
 10
24.4537389415
 20
32.4113771501
 30
0.0
 10
24.5353712696
 20
32.330007797
 30
0.0
 10
24.6462683293
 20
32.2518651242
 30
0.0
 10
24.7856546113
 20
32.1769807678
 30
0.0
 10
24.9525295435
 20
32.1059789456
 30
0.0
 10
25.145435439
 20
32.0393655664
 30
0.0
 10
25.4476093789
 20
31.9539216898
 30
0.0
 10
25.8768872144
 20
31.8653684412
 30
0.0
 10
26.4414233801
 20
31.7889425472
 30
0.0
 10
27.0535528345
 20
31.7418119276
 30
0.0
 10
27.6899304685
 20
31.7258734167
 30
0.0
 10
28.326309258
 20
31.7418063281
 30
0.0
 10
28.9384461515
 20
31.7889316092
 30
0.0
 10
29.5030011756
 20
31.865351569
 30
0.0
 10
29.9323022417
 20
31.9539015793
 30
0.0
 10
30.23449707
 20
32.039350535
 30
0.0
 10
30.4274189924
 20
32.1059644876
 30
0.0
 10
30.5943085357
 20
32.1769675825
 30
0.0
 10
30.7337047306
 20
32.2518568584
 30
0.0
 10
30.8446104273
 20
32.3300015793
 30
0.0
 10
30.9262470689
 20
32.4113746755
 30
0.0
 10
30.9776202983
 20
32.4963352044
 30
0.0
 10
30.9899944109
 20
32.5569629623
 30
0.0
 10
30.9899944109
 20
32.5853410291
 30
0.0
  0
SPLINE
  5
288
100
AcDbEntity
  8
0
100
AcDbSpline
 62
7
  6
CONTINUOUS
 70
0
 71
3
 72
31
 73
27
 74
0
 42
0.0000001
 43
0.0000001
 44
0.0000000001
 40
0.0
 40
0.0
 40
0.0
 40
0.0
 40
0.0119893784
 40
0.0254534372
 40
0.0413935341
 40
0.0603581491
 40
0.0825827718
 40
0.1081251747
 40
0.1368984974
 40
0.1687497411
 40
0.2407401145
 40
0.3218499738
 40
0.409298512
 40
0.4999910957
 40
0.5906835691
 40
0.6781325375
 40
0.759245043
 40
0.8312399513
 40
0.8630932613
 40
0.8918690612
 40
0.9174134389
 40
0.9396394401
 40
0.9586053927
 40
0.9745462314
 40
0.9880105773
 40
1.0
 40
1.0
 40
1.0
 40
1.0
 10
30.9899944109
 20
43.1139325356
 30
0.0
 10
30.9899944109
 20
43.0855545737
 30
0.0
 10
30.977620856
 20
43.0249275999
 30
0.0
 10
30.9262498804
 20
42.9399686566
 30
0.0
 10
30.8446175523
 20
42.8585993035
 30
0.0
 10
30.7337204926
 20
42.7804566308
 30
0.0
 10
30.5943342106
 20
42.7055722743
 30
0.0
 10
30.4274592784
 20
42.6345704522
 30
0.0
 10
30.2345533829
 20
42.5679570729
 30
0.0
 10
29.932379443
 20
42.4825131963
 30
0.0
 10
29.5031016075
 20
42.3939599477
 30
0.0
 10
28.9385654418
 20
42.3175340538
 30
0.0
 10
28.3264359874
 20
42.2704034341
 30
0.0
 10
27.6900583533
 20
42.2544649232
 30
0.0
 10
27.0536795639
 20
42.2703978347
 30
0.0
 10
26.4415426704
 20
42.3175231157
 30
0.0
 10
25.8769876463
 20
42.3939430755
 30
0.0
 10
25.4476865802
 20
42.4824930858
 30
0.0
 10
25.1454917519
 20
42.5679420415
 30
0.0
 10
24.9525698295
 20
42.6345559942
 30
0.0
 10
24.7856802862
 20
42.705559089
 30
0.0
 10
24.6462840913
 20
42.7804483649
 30
0.0
 10
24.5353783946
 20
42.8585930858
 30
0.0
 10
24.453741753
 20
42.9399661821
 30
0.0
 10
24.4023685236
 20
43.0249267109
 30
0.0
 10
24.3899944109
 20
43.0855544688
 30
0.0
 10
24.3899944109
 20
43.1139325356
 30
0.0
  0
SPLINE
  5
289
100
AcDbEntity
  8
0
100
AcDbSpline
 62
7
  6
CONTINUOUS
 70
0
 71
3
 72
35
 73
31
 74
0
 42
0.0000001
 43
0.0000001
 44
0.0000000001
 40
0.0
 40
0.0
 40
0.0
 40
0.0
 40
0.0681319062
 40
0.1005516198
 40
0.1315775363
 40
0.1611412046
 40
0.1893973822
 40
0.2167759912
 40
0.2439379507
 40
0.2716077771
 40
0.3003722129
 40
0.3305648203
 40
0.3622638635
 40
0.3953500101
 40
0.4295702578
 40
0.5000000496
 40
0.5704298419
 40
0.6046501139
 40
0.6377362204
 40
0.6694352843
 40
0.6996278815
 40
0.7283923343
 40
0.7560621488
 40
0.783224109
 40
0.8106026981
 40
0.8388588164
 40
0.8684224324
 40
0.8994483367
 40
0.931868102
 40
1.0
 40
1.0
 40
1.0
 40
1.0
 10
24.3899944109
 20
63.6412404998
 30
0.0
 10
24.3899944109
 20
63.3998739997
 30
0.0
 10
24.3968532002
 20
63.0432321864
 30
0.0
 10
24.4444907784
 20
62.5792127376
 30
0.0
 10
24.5040345815
 20
62.2546672833
 30
0.0
 10
24.5938138299
 20
61.9521823621
 30
0.0
 10
24.7192385343
 20
61.6763532843
 30
0.0
 10
24.8840586976
 20
61.4318808541
 30
0.0
 10
25.0889714814
 20
61.2226567804
 30
0.0
 10
25.3313427769
 20
61.0500713465
 30
0.0
 10
25.6067338523
 20
60.9123747571
 30
0.0
 10
25.9103995656
 20
60.805805372
 30
0.0
 10
26.2376942412
 20
60.7260101426
 30
0.0
 10
26.5839974552
 20
60.6688109979
 30
0.0
 10
27.069458082
 20
60.6175928851
 30
0.0
 10
27.6899949386
 20
60.5953164253
 30
0.0
 10
28.3105318866
 20
60.6175929149
 30
0.0
 10
28.7959924429
 20
60.6688111386
 30
0.0
 10
29.1422956812
 20
60.7260103019
 30
0.0
 10
29.4695901652
 20
60.8058057937
 30
0.0
 10
29.7732560924
 20
60.9123749625
 30
0.0
 10
30.0486467684
 20
61.050072233
 30
0.0
 10
30.2910184662
 20
61.2226571844
 30
0.0
 10
30.4959304055
 20
61.4318819317
 30
0.0
 10
30.6607509099
 20
61.6763537532
 30
0.0
 10
30.7861749005
 20
61.9521826789
 30
0.0
 10
30.8759543198
 20
62.2546670592
 30
0.0
 10
30.9354979186
 20
62.5792125215
 30
0.0
 10
30.9831357174
 20
63.0432320479
 30
0.0
 10
30.9899944109
 20
63.3998740285
 30
0.0
 10
30.9899944109
 20
63.6412404998
 30
0.0
  0
SPLINE
  5
28A
100
AcDbEntity
  8
0
100
AcDbSpline
 62
7
  6
CONTINUOUS
 70
0
 71
3
 72
31
 73
27
 74
0
 42
0.0000001
 43
0.0000001
 44
0.0000000001
 40
0.0
 40
0.0
 40
0.0
 40
0.0
 40
0.0119893784
 40
0.0254534372
 40
0.0413935341
 40
0.0603581491
 40
0.0825827718
 40
0.1081251747
 40
0.1368984974
 40
0.1687497411
 40
0.2407401145
 40
0.3218499738
 40
0.409298512
 40
0.4999910957
 40
0.5906835691
 40
0.6781325375
 40
0.759245043
 40
0.8312399513
 40
0.8630932613
 40
0.8918690612
 40
0.9174134389
 40
0.9396394401
 40
0.9586053926
 40
0.9745462314
 40
0.9880105773
 40
1.0
 40
1.0
 40
1.0
 40
1.0
 10
30.9899944109
 20
72.8451366185
 30
0.0
 10
30.9899944109
 20
72.8167586566
 30
0.0
 10
30.977620856
 20
72.7561316828
 30
0.0
 10
30.9262498804
 20
72.6711727395
 30
0.0
 10
30.8446175523
 20
72.5898033864
 30
0.0
 10
30.7337204926
 20
72.5116607136
 30
0.0
 10
30.5943342106
 20
72.4367763572
 30
0.0
 10
30.4274592783
 20
72.3657745351
 30
0.0
 10
30.2345533829
 20
72.2991611558
 30
0.0
 10
29.932379443
 20
72.2137172792
 30
0.0
 10
29.5031016075
 20
72.1251640306
 30
0.0
 10
28.9385654418
 20
72.0487381367
 30
0.0
 10
28.3264359874
 20
72.001607517
 30
0.0
 10
27.6900583533
 20
71.9856690061
 30
0.0
 10
27.0536795639
 20
72.0016019176
 30
0.0
 10
26.4415426704
 20
72.0487271986
 30
0.0
 10
25.8769876463
 20
72.1251471584
 30
0.0
 10
25.4476865802
 20
72.2136971687
 30
0.0
 10
25.1454917519
 20
72.2991461244
 30
0.0
 10
24.9525698295
 20
72.365760077
 30
0.0
 10
24.7856802862
 20
72.4367631719
 30
0.0
 10
24.6462840913
 20
72.5116524478
 30
0.0
 10
24.5353783946
 20
72.5897971687
 30
0.0
 10
24.453741753
 20
72.671170265
 30
0.0
 10
24.4023685236
 20
72.7561307938
 30
0.0
 10
24.3899944109
 20
72.8167585517
 30
0.0
 10
24.3899944109
 20
72.8451366185
 30
0.0
  0
SPLINE
  5
28B
100
AcDbEntity
  8
0
100
AcDbSpline
 62
7
  6
CONTINUOUS
 70
0
 71
3
 72
19
 73
15
 74
0
 42
0.0000001
 43
0.0000001
 44
0.0000000001
 40
0.0
 40
0.0
 40
0.0
 40
0.0
 40
0.0239726005
 40
0.0509012207
 40
0.082782409
 40
0.1207178625
 40
0.1651654214
 40
0.2162433357
 40
0.2737951614
 40
0.33749413
 40
0.4814951813
 40
0.6436808952
 40
0.8186655558
 40
1.0
 40
1.0
 40
1.0
 40
1.0
 10
25.1399944109
 20
42.9967547687
 30
0.0
 10
25.1399944109
 20
42.9748320571
 30
0.0
 10
25.1495674331
 20
42.9279907575
 30
0.0
 10
25.1892649474
 20
42.8623514959
 30
0.0
 10
25.2523247837
 20
42.7994455176
 30
0.0
 10
25.3380335544
 20
42.7390729578
 30
0.0
 10
25.4457337051
 20
42.6812029785
 30
0.0
 10
25.5746785862
 20
42.6263350955
 30
0.0
 10
25.723744418
 20
42.5748854022
 30
0.0
 10
25.9572508163
 20
42.5088204376
 30
0.0
 10
26.2889578698
 20
42.4404355317
 30
0.0
 10
26.7252520441
 20
42.3813355628
 30
0.0
 10
27.1982556458
 20
42.3449522125
 30
0.0
 10
27.5241658134
 20
42.3367662037
 30
0.0
 10
27.6899944109
 20
42.3367662037
 30
0.0
  0
SPLINE
  5
28C
100
AcDbEntity
  8
0
100
AcDbSpline
 62
7
  6
CONTINUOUS
 70
0
 71
3
 72
37
 73
33
 74
0
 42
0.0000001
 43
0.0000001
 44
0.0000000001
 40
0.0
 40
0.0
 40
0.0
 40
0.0
 40
0.0344367894
 40
0.0678490996
 40
0.0999752231
 40
0.1306478307
 40
0.1598480898
 40
0.1877950851
 40
0.2149807195
 40
0.2420987681
 40
0.2698632456
 40
0.2988204327
 40
0.3292590938
 40
0.3612244766
 40
0.3945787284
 40
0.4290613135
 40
0.5000000506
 40
0.5709387891
 40
0.6054213913
 40
0.638775609
 40
0.670741007
 40
0.7011796594
 40
0.730136859
 40
0.7579013341
 40
0.7850193733
 40
0.8122049983
 40
0.8401519424
 40
0.8693521565
 40
0.9000247461
 40
0.9321509071
 40
0.9655632201
 40
1.0
 40
1.0
 40
1.0
 40
1.0
 10
24.3899944109
 20
48.5492259125
 30
0.0
 10
24.3899944109
 20
48.4297137996
 30
0.0
 10
24.3928758546
 20
48.1942182877
 30
0.0
 10
24.4112489871
 20
47.8476044315
 30
0.0
 10
24.4491083677
 20
47.5155737632
 30
0.0
 10
24.5121680878
 20
47.202059842
 30
0.0
 10
24.6060769918
 20
46.9112258147
 30
0.0
 10
24.7357702837
 20
46.6474816698
 30
0.0
 10
24.904333057
 20
46.4152276517
 30
0.0
 10
25.1117369273
 20
46.2177773499
 30
0.0
 10
25.3549817372
 20
46.0557922932
 30
0.0
 10
25.6297098049
 20
45.9270510046
 30
0.0
 10
25.9314271922
 20
45.8276972437
 30
0.0
 10
26.255732948
 20
45.7534859811
 30
0.0
 10
26.598229413
 20
45.7004069431
 30
0.0
 10
27.0776865146
 20
45.6529770471
 30
0.0
 10
27.6899949445
 20
45.6324001403
 30
0.0
 10
28.3023034389
 20
45.6529770684
 30
0.0
 10
28.7817604719
 20
45.7004070727
 30
0.0
 10
29.1242569347
 20
45.7534861342
 30
0.0
 10
29.4485625269
 20
45.8276976129
 30
0.0
 10
29.7502800678
 20
45.9270512045
 30
0.0
 10
30.0250078351
 20
46.055793076
 30
0.0
 10
30.2682529485
 20
46.2177777285
 30
0.0
 10
30.4756561306
 20
46.4152286413
 30
0.0
 10
30.644219148
 20
46.6474821496
 30
0.0
 10
30.7739118092
 20
46.9112262239
 30
0.0
 10
30.8678208382
 20
47.2020597658
 30
0.0
 10
30.9308803448
 20
47.5155736545
 30
0.0
 10
30.9687398864
 20
47.8476043737
 30
0.0
 10
30.9871129431
 20
48.1942183462
 30
0.0
 10
30.9899944109
 20
48.4297138327
 30
0.0
 10
30.9899944109
 20
48.5492259125
 30
0.0
  0
SPLINE
  5
28D
100
AcDbEntity
  8
0
100
AcDbSpline
 62
7
  6
CONTINUOUS
 70
0
 71
3
 72
19
 73
15
 74
0
 42
0.0000001
 43
0.0000001
 44
0.0000000001
 40
0.0
 40
0.0
 40
0.0
 40
0.0
 40
0.1813343932
 40
0.3563189674
 40
0.5185046693
 40
0.6625057352
 40
0.7262047145
 40
0.7837565625
 40
0.8348344904
 40
0.879282073
 40
0.9172175519
 40
0.9490987585
 40
0.9760273945
 40
1.0
 40
1.0
 40
1.0
 40
1.0
 10
27.6899944109
 20
42.3367662037
 30
0.0
 10
27.8558229611
 20
42.3367662037
 30
0.0
 10
28.1817330019
 20
42.3449521927
 30
0.0
 10
28.6547364654
 20
42.3813355337
 30
0.0
 10
29.091030563
 20
42.4404354727
 30
0.0
 10
29.4227376362
 20
42.5088203404
 30
0.0
 10
29.6562440753
 20
42.5748853138
 30
0.0
 10
29.8053099602
 20
42.6263349817
 30
0.0
 10
29.9342548944
 20
42.6812028789
 30
0.0
 10
30.0419551059
 20
42.7390728615
 30
0.0
 10
30.127663948
 20
42.799445431
 30
0.0
 10
30.190723808
 20
42.8623514618
 30
0.0
 10
30.2304213635
 20
42.9279907358
 30
0.0
 10
30.2399944109
 20
42.9748320526
 30
0.0
 10
30.2399944109
 20
42.9967547687
 30
0.0
  0
SPLINE
  5
28E
100
AcDbEntity
  8
0
100
AcDbSpline
 62
7
  6
CONTINUOUS
 70
0
 71
3
 72
31
 73
27
 74
0
 42
0.0000001
 43
0.0000001
 44
0.0000000001
 40
0.0
 40
0.0
 40
0.0
 40
0.0
 40
0.0119893784
 40
0.0254534372
 40
0.0413935341
 40
0.0603581491
 40
0.0825827718
 40
0.1081251747
 40
0.1368984974
 40
0.1687497411
 40
0.2407401145
 40
0.3218499738
 40
0.409298512
 40
0.4999910957
 40
0.5906835691
 40
0.6781325375
 40
0.759245043
 40
0.8312399513
 40
0.8630932613
 40
0.8918690612
 40
0.9174134389
 40
0.9396394401
 40
0.9586053927
 40
0.9745462314
 40
0.9880105773
 40
1.0
 40
1.0
 40
1.0
 40
1.0
 10
30.9899944109
 20
57.8829419944
 30
0.0
 10
30.9899944109
 20
57.8545640325
 30
0.0
 10
30.977620856
 20
57.7939370587
 30
0.0
 10
30.9262498804
 20
57.7089781155
 30
0.0
 10
30.8446175523
 20
57.6276087623
 30
0.0
 10
30.7337204926
 20
57.5494660896
 30
0.0
 10
30.5943342106
 20
57.4745817332
 30
0.0
 10
30.4274592784
 20
57.403579911
 30
0.0
 10
30.2345533829
 20
57.3369665317
 30
0.0
 10
29.932379443
 20
57.2515226552
 30
0.0
 10
29.5031016075
 20
57.1629694066
 30
0.0
 10
28.9385654418
 20
57.0865435126
 30
0.0
 10
28.3264359874
 20
57.0394128929
 30
0.0
 10
27.6900583533
 20
57.0234743821
 30
0.0
 10
27.0536795639
 20
57.0394072935
 30
0.0
 10
26.4415426704
 20
57.0865325745
 30
0.0
 10
25.8769876463
 20
57.1629525343
 30
0.0
 10
25.4476865802
 20
57.2515025446
 30
0.0
 10
25.1454917519
 20
57.3369515003
 30
0.0
 10
24.9525698295
 20
57.403565453
 30
0.0
 10
24.7856802862
 20
57.4745685478
 30
0.0
 10
24.6462840913
 20
57.5494578238
 30
0.0
 10
24.5353783946
 20
57.6276025447
 30
0.0
 10
24.453741753
 20
57.7089756409
 30
0.0
 10
24.4023685236
 20
57.7939361698
 30
0.0
 10
24.3899944109
 20
57.8545639277
 30
0.0
 10
24.3899944109
 20
57.8829419944
 30
0.0
  0
SPLINE
  5
28F
100
AcDbEntity
  8
0
100
AcDbSpline
 62
7
  6
CONTINUOUS
 70
0
 71
3
 72
19
 73
15
 74
0
 42
0.0000001
 43
0.0000001
 44
0.0000000001
 40
0.0
 40
0.0
 40
0.0
 40
0.0
 40
0.0239726005
 40
0.0509012207
 40
0.082782409
 40
0.1207178625
 40
0.1651654214
 40
0.2162433357
 40
0.2737951614
 40
0.33749413
 40
0.4814951813
 40
0.6436808952
 40
0.8186655558
 40
1.0
 40
1.0
 40
1.0
 40
1.0
 10
25.1399944109
 20
57.7709406085
 30
0.0
 10
25.1399944109
 20
57.7490178969
 30
0.0
 10
25.1495674331
 20
57.7021765973
 30
0.0
 10
25.1892649474
 20
57.6365373356
 30
0.0
 10
25.2523247837
 20
57.5736313573
 30
0.0
 10
25.3380335544
 20
57.5132587975
 30
0.0
 10
25.4457337051
 20
57.4553888183
 30
0.0
 10
25.5746785862
 20
57.4005209352
 30
0.0
 10
25.723744418
 20
57.3490712419
 30
0.0
 10
25.9572508163
 20
57.2830062774
 30
0.0
 10
26.2889578698
 20
57.2146213715
 30
0.0
 10
26.7252520441
 20
57.1555214026
 30
0.0
 10
27.1982556458
 20
57.1191380522
 30
0.0
 10
27.5241658134
 20
57.1109520434
 30
0.0
 10
27.6899944109
 20
57.1109520434
 30
0.0
  0
SPLINE
  5
290
100
AcDbEntity
  8
0
100
AcDbSpline
 62
7
  6
CONTINUOUS
 70
0
 71
3
 72
19
 73
15
 74
0
 42
0.0000001
 43
0.0000001
 44
0.0000000001
 40
0.0
 40
0.0
 40
0.0
 40
0.0
 40
0.1813343932
 40
0.3563189674
 40
0.5185046693
 40
0.6625057352
 40
0.7262047145
 40
0.7837565625
 40
0.8348344904
 40
0.879282073
 40
0.9172175519
 40
0.9490987585
 40
0.9760273945
 40
1.0
 40
1.0
 40
1.0
 40
1.0
 10
27.6899944109
 20
57.1109520434
 30
0.0
 10
27.8558229611
 20
57.1109520434
 30
0.0
 10
28.1817330019
 20
57.1191380324
 30
0.0
 10
28.6547364654
 20
57.1555213734
 30
0.0
 10
29.091030563
 20
57.2146213124
 30
0.0
 10
29.4227376362
 20
57.2830061802
 30
0.0
 10
29.6562440753
 20
57.3490711535
 30
0.0
 10
29.8053099602
 20
57.4005208214
 30
0.0
 10
29.9342548944
 20
57.4553887186
 30
0.0
 10
30.0419551059
 20
57.5132587012
 30
0.0
 10
30.127663948
 20
57.5736312707
 30
0.0
 10
30.190723808
 20
57.6365373015
 30
0.0
 10
30.2304213635
 20
57.7021765755
 30
0.0
 10
30.2399944109
 20
57.7490178924
 30
0.0
 10
30.2399944109
 20
57.7709406085
 30
0.0
  0
ELLIPSE
  5
291
100
AcDbEntity
  8
0
100
AcDbEllipse
 62
7
  6
CONTINUOUS
 10
27.6899944109
 20
30.5732323134
 30
0.0
 11
2.55
 21
-0.0
 31
0.0
 40
0.2679491924
 41
3.1914304901
 42
6.2333474706
  0
ENDSEC
  0
SECTION
  2
OBJECTS
  0
DICTIONARY
  5
C
100
AcDbDictionary
280
0
281
1
  3
ACAD_GROUP
350
D
  3
ACAD_MLINESTYLE
350
17
  3
ACAD_LAYOUT
350
1A
  3
ACAD_PLOTSETTINGS
350
19
  3
ACAD_PLOTSTYLENAME
350
E
  0
DICTIONARY
  5
D
102
{ACAD_REACTORS
330
C
102
}
100
AcDbDictionary
280
0
281
1
  0
ACDBDICTIONARYWDFLT
  5
E
102
{ACAD_REACTORS
330
C
102
}
100
AcDbDictionary
281
1
  3
Normal
350
F
100
AcDbDictionaryWithDefault
340
F
  0
DICTIONARY
  5
17
102
{ACAD_REACTORS
330
C
102
}
100
AcDbDictionary
280
0
281
1
  3
Standard
350
18
  0
DICTIONARY
  5
19
102
{ACAD_REACTORS
330
C
102
}
100
AcDbDictionary
281
1
  0
DICTIONARY
  5
1A
102
{ACAD_REACTORS
330
C
102
}
100
AcDbDictionary
281
1
  3
Model
350
292
  3
Layout1
350
293
  0
ACDBPLACEHOLDER
  5
F
102
{ACAD_REACTORS
330
E
102
}
  0
MLINESTYLE
  5
18
102
{ACAD_REACTORS
330
17
102
}
100
AcDbMlineStyle
  2
STANDARD
 70
0
  3

 62
256
 51
90.0
 52
90.0
 71
2
 49
0.5
 62
256
  6
BYLAYER
 49
-0.5
 62
256
  6
BYLAYER
  0
LAYOUT
  5
292
102
{ACAD_REACTORS
330
1A
102
}
100
AcDbPlotSettings
  1

  2
none_device
  4

  6

 40
0.0
 41
0.0
 42
0.0
 43
0.0
 44
210.0
 45
297.0
 46
0.0
 47
0.0
 48
0.0
 49
0.0
140
0.0
141
0.0
142
1.0
143
1.0
 70
1024
 72
1
 73
0
 74
0
  7

 75
0
147
1.0
148
0.0
149
0.0
100
AcDbLayout
  1
Model
 70
0
 71
0
 10
0.0
 20
0.0
 11
210.0
 21
297.0
 12
0.0
 22
0.0
 32
0.0
 14
0.0
 24
0.0
 34
0.0
 15
0.0
 25
0.0
 35
0.0
146
0.0
 13
0.0
 23
0.0
 33
0.0
 16
1.0
 26
0.0
 36
0.0
 17
0.0
 27
1.0
 37
0.0
 76
0
330
210
345
0
346
0
  0
LAYOUT
  5
293
102
{ACAD_REACTORS
330
1A
102
}
100
AcDbPlotSettings
  1

  2
none_device
  4

  6

 40
0.0
 41
0.0
 42
0.0
 43
0.0
 44
210.0
 45
297.0
 46
0.0
 47
0.0
 48
0.0
 49
0.0
140
0.0
141
0.0
142
1.0
143
1.0
 70
0
 72
1
 73
0
 74
0
  7

 75
0
147
1.0
148
0.0
149
0.0
100
AcDbLayout
  1
Layout1
 70
0
 71
1
 10
0.0
 20
0.0
 11
210.0
 21
297.0
 12
0.0
 22
0.0
 32
0.0
 14
0.0
 24
0.0
 34
0.0
 15
0.0
 25
0.0
 35
0.0
146
0.0
 13
0.0
 23
0.0
 33
0.0
 16
1.0
 26
0.0
 36
0.0
 17
0.0
 27
1.0
 37
0.0
 76
0
330
211
345
0
346
0
  0
ENDSEC
  0
EOF
