  0
SECTION
  2
HEADER
  9
$ACADVER
  1
AC1009
  9
$DWGCODEPAGE
  3
ansi_1250
  9
$INSBASE
 10
0.0
 20
0.0
 30
0.0
  9
$EXTMIN
 10
-4.291339
 20
-2.165354
 30
0.0
  9
$EXTMAX
 10
4.291339
 20
0.19685
 30
0.0
  9
$LIMMIN
 10
0.0
 20
0.0
  9
$LIMMAX
 10
0.0
 20
0.0
  9
$ORTHOMODE
 70
     0
  9
$REGENMODE
 70
     1
  9
$FILLMODE
 70
     1
  9
$QTEXTMODE
 70
     0
  9
$MIRRTEXT
 70
     1
  9
$DRAGMODE
 70
     2
  9
$LTSCALE
 40
1.0
  9
$OSMODE
 70
     0
  9
$ATTMODE
 70
     1
  9
$TEXTSIZE
 40
0.2
  9
$TRACEWID
 40
0.05
  9
$TEXTSTYLE
  7
STANDARD
  9
$CLAYER
  8
0
  9
$CELTYPE
  6
CONTINUOUS
  9
$CECOLOR
 62
   256
  9
$DIMSCALE
 40
1.0
  9
$DIMASZ
 40
0.18
  9
$DIMEXO
 40
0.0625
  9
$DIMDLI
 40
0.38
  9
$DIMRND
 40
0.0
  9
$DIMDLE
 40
0.0
  9
$DIMEXE
 40
0.18
  9
$DIMTP
 40
0.0
  9
$DIMTM
 40
0.0
  9
$DIMTXT
 40
0.18
  9
$DIMCEN
 40
0.09
  9
$DIMTSZ
 40
0.0
  9
$DIMTOL
 70
     0
  9
$DIMLIM
 70
     0
  9
$DIMTIH
 70
     1
  9
$DIMTOH
 70
     1
  9
$DIMSE1
 70
     0
  9
$DIMSE2
 70
     0
  9
$DIMTAD
 70
     0
  9
$DIMZIN
 70
     0
  9
$DIMBLK
  1

  9
$DIMASO
 70
     1
  9
$DIMSHO
 70
     1
  9
$DIMPOST
  1

  9
$DIMAPOST
  1

  9
$DIMALT
 70
     0
  9
$DIMALTD
 70
     2
  9
$DIMALTF
 40
25.4
  9
$DIMLFAC
 40
1.0
  9
$DIMTOFL
 70
     0
  9
$DIMTVP
 40
0.0
  9
$DIMTIX
 70
     0
  9
$DIMSOXD
 70
     0
  9
$DIMSAH
 70
     0
  9
$DIMBLK1
  1

  9
$DIMBLK2
  1

  9
$DIMSTYLE
  2
STANDARD
  9
$DIMCLRD
 70
     0
  9
$DIMCLRE
 70
     0
  9
$DIMCLRT
 70
     0
  9
$DIMTFAC
 40
1.0
  9
$DIMGAP
 40
0.09
  9
$LUNITS
 70
     2
  9
$LUPREC
 70
     4
  9
$AXISMODE
 70
     0
  9
$AXISUNIT
 10
0.0
 20
0.0
  9
$SKETCHINC
 40
0.1
  9
$FILLETRAD
 40
0.0
  9
$AUNITS
 70
     0
  9
$AUPREC
 70
     0
  9
$MENU
  1
acad
  9
$ELEVATION
 40
0.0
  9
$PELEVATION
 40
0.0
  9
$THICKNESS
 40
0.0
  9
$LIMCHECK
 70
     0
  9
$BLIPMODE
 70
     1
  9
$CHAMFERA
 40
0.0
  9
$CHAMFERB
 40
0.0
  9
$SKPOLY
 70
     0
  9
$TDCREATE
 40
0.000000000
  9
$TDUPDATE
 40
0.000000000
  9
$TDINDWG
 40
0.0000000000
  9
$TDUSRTIMER
 40
0.0000000000
  9
$USRTIMER
 70
     1
  9
$ANGBASE
 50
0.0
  9
$ANGDIR
 70
     0
  9
$PDMODE
 70
     0
  9
$PDSIZE
 40
0.0
  9
$PLINEWID
 40
0.0
  9
$COORDS
 70
     0
  9
$SPLFRAME
 70
     0
  9
$SPLINETYPE
 70
     6
  9
$SPLINESEGS
 70
     8
  9
$ATTDIA
 70
     0
  9
$ATTREQ
 70
     1
  9
$HANDLING
 70
     1
  9
$HANDSEED
  5
11E
  9
$SURFTAB1
 70
     6
  9
$SURFTAB2
 70
     6
  9
$SURFTYPE
 70
     6
  9
$SURFU
 70
     6
  9
$SURFV
 70
     6
  9
$UCSNAME
  2

  9
$UCSORG
 10
0.0
 20
0.0
 30
0.0
  9
$UCSXDIR
 10
1.0
 20
0.0
 30
0.0
  9
$UCSYDIR
 10
0.0
 20
1.0
 30
0.0
  9
$PUCSNAME
  2

  9
$PUCSORG
 10
0.0
 20
0.0
 30
0.0
  9
$PUCSXDIR
 10
1.0
 20
0.0
 30
0.0
  9
$PUCSYDIR
 10
0.0
 20
1.0
 30
0.0
  9
$USERI1
 70
     0
  9
$USERI2
 70
     0
  9
$USERI3
 70
     0
  9
$USERI4
 70
     0
  9
$USERI5
 70
     0
  9
$USERR1
 40
0.0
  9
$USERR2
 40
0.0
  9
$USERR3
 40
0.0
  9
$USERR4
 40
0.0
  9
$USERR5
 40
0.0
  9
$WORLDVIEW
 70
     1
  9
$SHADEDGE
 70
     3
  9
$SHADEDIF
 70
    70
  9
$TILEMODE
 70
     1
  9
$MAXACTVP
 70
    16
  9
$PINSBASE
 10
0.0
 20
0.0
 30
0.0
  9
$PLIMCHECK
 70
     0
  9
$PEXTMIN
 10
1.000000E+20
 20
1.000000E+20
 30
1.000000E+20
  9
$PEXTMAX
 10
-1.000000E+20
 20
-1.000000E+20
 30
-1.000000E+20
  9
$PLIMMIN
 10
0.0
 20
0.0
  9
$PLIMMAX
 10
12.0
 20
9.0
  9
$UNITMODE
 70
     0
  9
$VISRETAIN
 70
     0
  9
$PLINEGEN
 70
     1
  9
$PSLTSCALE
 70
     0
  9
$TREEDEPTH
 70
  3020
  0
ENDSEC
  0
SECTION
  2
TABLES
  0
TABLE
  2
VPORT
 70
     1
  0
VPORT
  2
*ACTIVE
 70
     0
 10
0.0
 20
0.0
 11
1.0
 21
1.0
 12
6.591288
 22
4.579184
 13
0.0
 23
0.0
 14
1.0
 24
1.0
 15
0.0
 25
0.0
 16
0.0
 26
0.0
 36
1.0
 17
0.0
 27
0.0
 37
0.0
 40
9.158369
 41
0.688564
 42
50.0
 43
0.0
 44
0.0
 50
0.0
 51
0.0
 71
     0
 72
   100
 73
     1
 74
     1
 75
     0
 76
     0
 77
     0
 78
     0
  0
ENDTAB
  0
TABLE
  2
LTYPE
 70
     5
  0
LTYPE
  2
CONTINUOUS
 70
    64
  3
Solid line
 72
    65
 73
     0
 40
0.0
  0
LTYPE
  2
CENTER
 70
    64
  3
Center ____ _ ____ _ ____ _ ____ _ ____ _ ____
 72
    65
 73
     4
 40
50.8
 49
31.75
 49
-6.35
 49
6.35
 49
-6.35
  0
LTYPE
  2
HIDDEN
 70
    64
  3
Hidden __ __ __ __ __ __ __ __ __ __ __ __ __ __
 72
    65
 73
     2
 40
9.525
 49
6.35
 49
-3.175
  0
LTYPE
  2
CENTER2
 70
    64
  3
Center (.5x) ___ _ ___ _ ___ _ ___ _ ___ _ ___
 72
    65
 73
     4
 40
28.575
 49
19.05
 49
-3.175
 49
3.175
 49
-3.175
  0
LTYPE
  2
HIDDEN2
 70
    64
  3
Hidden (.5x) _ _ _ _ _ _ _ _ _ _ _ _ _ _ _ _ _
 72
    65
 73
     2
 40
4.7625
 49
3.175
 49
-1.5875
  0
ENDTAB
  0
TABLE
  2
LAYER
 70
     1
  0
LAYER
  2
0
 70
     0
 62
     7
  6
CONTINUOUS
  0
ENDTAB
  0
TABLE
  2
STYLE
 70
     1
  0
STYLE
  2
STANDARD
 70
     0
 40
0.0
 41
1.0
 50
0.0
 71
     0
 42
0.0
  3
txt
  4

  0
ENDTAB
  0
TABLE
  2
VIEW
 70
     0
  0
ENDTAB
  0
TABLE
  2
UCS
 70
     0
  0
ENDTAB
  0
TABLE
  2
APPID
 70
     1
  0
APPID
  2
ACAD
 70
     0
  0
ENDTAB
  0
TABLE
  2
DIMSTYLE
 70
     1
  0
DIMSTYLE
  2
STANDARD
 70
     0
  3

  4

  5

  6

  7

 40
1.0
 41
0.18
 42
0.0625
 43
0.38
 44
0.18
 45
0.0
 46
0.0
 47
0.0
 48
0.0
 71
     0
 72
     0
 73
     1
 74
     1
 75
     0
 76
     0
 77
     0
 78
     0
140
0.18
141
0.09
142
0.0
143
25.4
144
1.0
145
0.0
146
1.0
147
0.09
170
     0
171
     2
172
     0
173
     0
174
     0
175
     0
176
     0
177
     0
178
     0
  0
ENDTAB
  0
ENDSEC
  0
SECTION
  2
BLOCKS
  0
ENDSEC
  0
SECTION
  2
ENTITIES
  0
LINE
  8
0
  6
CONTINUOUS
 62
     7
  5
B7
 10
0.956693
 20
-1.604331
 30
0.0
 11
0.944882
 21
-1.604331
 31
0.0
  0
LINE
  8
0
  6
CONTINUOUS
 62
     7
  5
B8
 10
0.956693
 20
-1.628937
 30
0.0
 11
0.956693
 21
-1.604331
 31
0.0
  0
LINE
  8
0
  6
CONTINUOUS
 62
     7
  5
B9
 10
0.944882
 20
-1.377953
 30
0.0
 11
0.944882
 21
-2.165354
 31
0.0
  0
LINE
  8
0
  6
CONTINUOUS
 62
     7
  5
BA
 10
0.944882
 20
-1.628937
 30
0.0
 11
1.109055
 21
-1.628937
 31
0.0
  0
LINE
  8
0
  6
CONTINUOUS
 62
     7
  5
BB
 10
0.944882
 20
-1.99311
 30
0.0
 11
1.109055
 21
-1.99311
 31
0.0
  0
LINE
  8
0
  6
CONTINUOUS
 62
     7
  5
BC
 10
1.109055
 20
-1.99311
 30
0.0
 11
1.109055
 21
-1.879921
 31
0.0
  0
LINE
  8
0
  6
CONTINUOUS
 62
     7
  5
BD
 10
1.109055
 20
-1.742126
 30
0.0
 11
1.109055
 21
-1.729791
 31
0.0
  0
LINE
  8
0
  6
CONTINUOUS
 62
     7
  5
BE
 10
1.109055
 20
-1.729791
 30
0.0
 11
1.109055
 21
-1.628937
 31
0.0
  0
LINE
  8
0
  6
CONTINUOUS
 62
     7
  5
BF
 10
0.944882
 20
-1.879921
 30
0.0
 11
1.109055
 21
-1.879921
 31
0.0
  0
LINE
  8
0
  6
CONTINUOUS
 62
     7
  5
C0
 10
1.109055
 20
-1.879921
 30
0.0
 11
1.109055
 21
-1.811024
 31
0.0
  0
LINE
  8
0
  6
CONTINUOUS
 62
     7
  5
C1
 10
0.944882
 20
-1.811024
 30
0.0
 11
1.109055
 21
-1.811024
 31
0.0
  0
LINE
  8
0
  6
CONTINUOUS
 62
     7
  5
C2
 10
1.109055
 20
-1.811024
 30
0.0
 11
1.109055
 21
-1.742126
 31
0.0
  0
LINE
  8
0
  6
CONTINUOUS
 62
     7
  5
C3
 10
0.944882
 20
-1.742126
 30
0.0
 11
1.109055
 21
-1.742126
 31
0.0
  0
ARC
  8
0
  6
CONTINUOUS
 62
     7
  5
C4
 10
-1.086614
 20
-0.927165
 30
0.0
 40
0.019685
 50
0.0
 51
90.0
  0
LINE
  8
0
  6
CONTINUOUS
 62
     7
  5
C5
 10
-1.066929
 20
-0.927165
 30
0.0
 11
-1.066929
 21
-0.94685
 31
0.0
  0
ARC
  8
0
  6
CONTINUOUS
 62
     7
  5
C6
 10
-1.086614
 20
-0.94685
 30
0.0
 40
0.019685
 50
300.0
 51
0.0
  0
ARC
  8
0
  6
CONTINUOUS
 62
     7
  5
C7
 10
-1.066929
 20
-0.980946
 30
0.0
 40
0.019685
 50
120.0
 51
180.0
  0
LINE
  8
0
  6
CONTINUOUS
 62
     7
  5
C8
 10
-1.086614
 20
-0.980946
 30
0.0
 11
-1.086614
 21
-1.025591
 31
0.0
  0
LINE
  8
0
  6
CONTINUOUS
 62
     7
  5
C9
 10
-1.086614
 20
-1.025591
 30
0.0
 11
-1.322835
 21
-1.025591
 31
0.0
  0
LINE
  8
0
  6
CONTINUOUS
 62
     7
  5
CA
 10
-1.322835
 20
-1.025591
 30
0.0
 11
-1.322835
 21
-0.980946
 31
0.0
  0
ARC
  8
0
  6
CONTINUOUS
 62
     7
  5
CB
 10
-1.34252
 20
-0.980946
 30
0.0
 40
0.019685
 50
0.0
 51
60.0
  0
ARC
  8
0
  6
CONTINUOUS
 62
     7
  5
CC
 10
-1.322835
 20
-0.94685
 30
0.0
 40
0.019685
 50
180.0
 51
240.0
  0
LINE
  8
0
  6
CONTINUOUS
 62
     7
  5
CD
 10
-1.34252
 20
-0.94685
 30
0.0
 11
-1.34252
 21
-0.927165
 31
0.0
  0
ARC
  8
0
  6
CONTINUOUS
 62
     7
  5
CE
 10
-1.322835
 20
-0.927165
 30
0.0
 40
0.019685
 50
90.0
 51
180.0
  0
LINE
  8
0
  6
CONTINUOUS
 62
     7
  5
CF
 10
-1.322835
 20
-0.90748
 30
0.0
 11
-1.086614
 21
-0.90748
 31
0.0
  0
LINE
  8
0
  6
CONTINUOUS
 62
     7
  5
D0
 10
-1.38189
 20
-0.86811
 30
0.0
 11
-1.027559
 21
-0.86811
 31
0.0
  0
LINE
  8
0
  6
CONTINUOUS
 62
     7
  5
D1
 10
-1.027559
 20
-0.86811
 30
0.0
 11
-1.027559
 21
-1.064961
 31
0.0
  0
LINE
  8
0
  6
CONTINUOUS
 62
     7
  5
D2
 10
-2.13563
 20
-1.19685
 30
0.0
 11
-2.247835
 21
-1.19685
 31
0.0
  0
LINE
  8
0
  6
CONTINUOUS
 62
     7
  5
D3
 10
-2.247835
 20
-1.19685
 30
0.0
 11
-2.247835
 21
-0.929134
 31
0.0
  0
LINE
  8
0
  6
CONTINUOUS
 62
     7
  5
D4
 10
-2.247835
 20
-0.929134
 30
0.0
 11
-1.775394
 21
-0.929134
 31
0.0
  0
LINE
  8
0
  6
CONTINUOUS
 62
     7
  5
D5
 10
-1.775394
 20
-0.929134
 30
0.0
 11
-1.775394
 21
-1.19685
 31
0.0
  0
LINE
  8
0
  6
CONTINUOUS
 62
     7
  5
D6
 10
-1.775394
 20
-1.19685
 30
0.0
 11
-1.887598
 21
-1.19685
 31
0.0
  0
LINE
  8
0
  6
CONTINUOUS
 62
     7
  5
D7
 10
-1.887598
 20
-1.19685
 30
0.0
 11
-1.887598
 21
-1.267717
 31
0.0
  0
LINE
  8
0
  6
CONTINUOUS
 62
     7
  5
D8
 10
-1.887598
 20
-1.267717
 30
0.0
 11
-1.930906
 21
-1.267717
 31
0.0
  0
LINE
  8
0
  6
CONTINUOUS
 62
     7
  5
D9
 10
-1.930906
 20
-1.267717
 30
0.0
 11
-1.930906
 21
-1.311024
 31
0.0
  0
LINE
  8
0
  6
CONTINUOUS
 62
     7
  5
DA
 10
-1.930906
 20
-1.311024
 30
0.0
 11
-2.092323
 21
-1.311024
 31
0.0
  0
LINE
  8
0
  6
CONTINUOUS
 62
     7
  5
DB
 10
-2.092323
 20
-1.311024
 30
0.0
 11
-2.092323
 21
-1.267717
 31
0.0
  0
LINE
  8
0
  6
CONTINUOUS
 62
     7
  5
DC
 10
-2.092323
 20
-1.267717
 30
0.0
 11
-2.13563
 21
-1.267717
 31
0.0
  0
LINE
  8
0
  6
CONTINUOUS
 62
     7
  5
DD
 10
-2.13563
 20
-1.267717
 30
0.0
 11
-2.13563
 21
-1.19685
 31
0.0
  0
LINE
  8
0
  6
CONTINUOUS
 62
     7
  5
DE
 10
-2.283465
 20
-0.879134
 30
0.0
 11
-1.732283
 21
-0.879134
 31
0.0
  0
LINE
  8
0
  6
CONTINUOUS
 62
     7
  5
DF
 10
-1.732283
 20
-0.879134
 30
0.0
 11
-1.732283
 21
-1.351575
 31
0.0
  0
LINE
  8
0
  6
CONTINUOUS
 62
     7
  5
E0
 10
1.535433
 20
-1.106299
 30
0.0
 11
1.535433
 21
-1.059055
 31
0.0
  0
LINE
  8
0
  6
CONTINUOUS
 62
     7
  5
E1
 10
1.582677
 20
-1.059055
 30
0.0
 11
1.582677
 21
-1.106299
 31
0.0
  0
LINE
  8
0
  6
CONTINUOUS
 62
     7
  5
E2
 10
1.535433
 20
-1.106299
 30
0.0
 11
1.582677
 21
-1.106299
 31
0.0
  0
LINE
  8
0
  6
CONTINUOUS
 62
     7
  5
E3
 10
1.535433
 20
-1.059055
 30
0.0
 11
1.582677
 21
-1.059055
 31
0.0
  0
LINE
  8
0
  6
CONTINUOUS
 62
     7
  5
E4
 10
1.228346
 20
-0.983858
 30
0.0
 11
1.280923
 21
-0.983858
 31
0.0
  0
LINE
  8
0
  6
CONTINUOUS
 62
     7
  5
E5
 10
1.837187
 20
-0.983858
 30
0.0
 11
1.889764
 21
-0.983858
 31
0.0
  0
LINE
  8
0
  6
CONTINUOUS
 62
     7
  5
E6
 10
1.640337
 20
-0.983858
 30
0.0
 11
1.674624
 21
-0.983858
 31
0.0
  0
LINE
  8
0
  6
CONTINUOUS
 62
     7
  5
E7
 10
1.443487
 20
-0.983858
 30
0.0
 11
1.477773
 21
-0.983858
 31
0.0
  0
LINE
  8
0
  6
CONTINUOUS
 62
     7
  5
E8
 10
1.228346
 20
-1.174409
 30
0.0
 11
1.228346
 21
-0.983858
 31
0.0
  0
LINE
  8
0
  6
CONTINUOUS
 62
     7
  5
E9
 10
1.889764
 20
-0.983858
 30
0.0
 11
1.889764
 21
-1.174409
 31
0.0
  0
LINE
  8
0
  6
CONTINUOUS
 62
     7
  5
EA
 10
1.889764
 20
-1.174409
 30
0.0
 11
1.228346
 21
-1.174409
 31
0.0
  0
ARC
  8
0
  6
CONTINUOUS
 62
     7
  5
EB
 10
1.559055
 20
-1.082677
 30
0.0
 40
0.127953
 50
50.561572
 51
129.438428
  0
ARC
  8
0
  6
CONTINUOUS
 62
     7
  5
EC
 10
1.362205
 20
-1.082677
 30
0.0
 40
0.127953
 50
50.561572
 51
129.438428
  0
ARC
  8
0
  6
CONTINUOUS
 62
     7
  5
ED
 10
1.755906
 20
-1.082677
 30
0.0
 40
0.127953
 50
50.561572
 51
129.438428
  0
LINE
  8
0
  6
CONTINUOUS
 62
     7
  5
EE
 10
1.204724
 20
-1.246063
 30
0.0
 11
1.204724
 21
-0.919291
 31
0.0
  0
LINE
  8
0
  6
CONTINUOUS
 62
     7
  5
EF
 10
1.913386
 20
-0.919291
 30
0.0
 11
1.913386
 21
-1.246063
 31
0.0
  0
LINE
  8
0
  6
CONTINUOUS
 62
     7
  5
F0
 10
1.204724
 20
-1.246063
 30
0.0
 11
1.913386
 21
-1.246063
 31
0.0
  0
LINE
  8
0
  6
CONTINUOUS
 62
     7
  5
F1
 10
1.204724
 20
-0.919291
 30
0.0
 11
1.913386
 21
-0.919291
 31
0.0
  0
LINE
  8
0
  6
CONTINUOUS
 62
     7
  5
F2
 10
1.732283
 20
-1.106299
 30
0.0
 11
1.732283
 21
-1.059055
 31
0.0
  0
LINE
  8
0
  6
CONTINUOUS
 62
     7
  5
F3
 10
1.779528
 20
-1.059055
 30
0.0
 11
1.779528
 21
-1.106299
 31
0.0
  0
LINE
  8
0
  6
CONTINUOUS
 62
     7
  5
F4
 10
1.732283
 20
-1.106299
 30
0.0
 11
1.779528
 21
-1.106299
 31
0.0
  0
LINE
  8
0
  6
CONTINUOUS
 62
     7
  5
F5
 10
1.732283
 20
-1.059055
 30
0.0
 11
1.779528
 21
-1.059055
 31
0.0
  0
LINE
  8
0
  6
CONTINUOUS
 62
     7
  5
F6
 10
1.338583
 20
-1.106299
 30
0.0
 11
1.338583
 21
-1.059055
 31
0.0
  0
LINE
  8
0
  6
CONTINUOUS
 62
     7
  5
F7
 10
1.385827
 20
-1.059055
 30
0.0
 11
1.385827
 21
-1.106299
 31
0.0
  0
LINE
  8
0
  6
CONTINUOUS
 62
     7
  5
F8
 10
1.338583
 20
-1.106299
 30
0.0
 11
1.385827
 21
-1.106299
 31
0.0
  0
LINE
  8
0
  6
CONTINUOUS
 62
     7
  5
F9
 10
1.338583
 20
-1.059055
 30
0.0
 11
1.385827
 21
-1.059055
 31
0.0
  0
LINE
  8
0
  6
CONTINUOUS
 62
     7
  5
FA
 10
1.930709
 20
-1.377953
 30
0.0
 11
1.064567
 21
-1.377953
 31
0.0
  0
LINE
  8
0
  6
CONTINUOUS
 62
     7
  5
FB
 10
1.064567
 20
-0.846457
 30
0.0
 11
1.930709
 21
-0.846457
 31
0.0
  0
LINE
  8
0
  6
CONTINUOUS
 62
     7
  5
FC
 10
1.064567
 20
-1.377953
 30
0.0
 11
1.064567
 21
-0.846457
 31
0.0
  0
LINE
  8
0
  6
CONTINUOUS
 62
     7
  5
FD
 10
1.930709
 20
-0.846457
 30
0.0
 11
1.930709
 21
-1.377953
 31
0.0
  0
LINE
  8
0
  6
CONTINUOUS
 62
     7
  5
FE
 10
1.064567
 20
-1.377953
 30
0.0
 11
0.944882
 21
-1.377953
 31
0.0
  0
LINE
  8
0
  6
CONTINUOUS
 62
     7
  5
FF
 10
2.244094
 20
-1.377953
 30
0.0
 11
1.930709
 21
-1.377953
 31
0.0
  0
LINE
  8
0
  6
CONTINUOUS
 62
     7
  5
100
 10
-2.283465
 20
-1.351575
 30
0.0
 11
-2.283465
 21
-0.879134
 31
0.0
  0
LINE
  8
0
  6
CONTINUOUS
 62
     7
  5
101
 10
-1.732283
 20
-1.351575
 30
0.0
 11
-2.283465
 21
-1.351575
 31
0.0
  0
LINE
  8
0
  6
CONTINUOUS
 62
     7
  5
102
 10
-1.38189
 20
-1.064961
 30
0.0
 11
-1.38189
 21
-0.86811
 31
0.0
  0
LINE
  8
0
  6
CONTINUOUS
 62
     7
  5
103
 10
-1.027559
 20
-1.064961
 30
0.0
 11
-1.38189
 21
-1.064961
 31
0.0
  0
LINE
  8
0
  6
CONTINUOUS
 62
     7
  5
104
 10
2.602665
 20
-0.787402
 30
0.0
 11
3.011811
 21
-1.023622
 31
0.0
  0
LINE
  8
0
  6
CONTINUOUS
 62
     7
  5
105
 10
-2.602665
 20
-0.787402
 30
0.0
 11
2.602665
 21
-0.787402
 31
0.0
  0
LINE
  8
0
  6
CONTINUOUS
 62
     7
  5
106
 10
-3.011811
 20
-1.023622
 30
0.0
 11
-2.602665
 21
-0.787402
 31
0.0
  0
LINE
  8
0
  6
CONTINUOUS
 62
     7
  5
107
 10
-3.864748
 20
-1.023622
 30
0.0
 11
-3.011811
 21
-1.023622
 31
0.0
  0
LINE
  8
0
  6
CONTINUOUS
 62
     7
  5
108
 10
-4.014748
 20
-1.023622
 30
0.0
 11
-3.864748
 21
-1.023622
 31
0.0
  0
LINE
  8
0
  6
CONTINUOUS
 62
     7
  5
109
 10
3.011811
 20
-1.023622
 30
0.0
 11
2.598425
 21
-1.023622
 31
0.0
  0
LINE
  8
0
  6
CONTINUOUS
 62
     7
  5
10A
 10
3.864748
 20
-1.023622
 30
0.0
 11
4.014748
 21
-1.023622
 31
0.0
  0
LINE
  8
0
  6
CONTINUOUS
 62
     7
  5
10B
 10
3.011811
 20
-1.023622
 30
0.0
 11
3.864748
 21
-1.023622
 31
0.0
  0
LINE
  8
0
  6
CONTINUOUS
 62
     7
  5
10C
 10
2.598425
 20
-1.023622
 30
0.0
 11
2.244094
 21
-1.377953
 31
0.0
  0
LINE
  8
0
  6
CONTINUOUS
 62
     7
  5
10D
 10
-4.014748
 20
-2.165354
 30
0.0
 11
-4.014748
 21
-1.023622
 31
0.0
  0
LINE
  8
0
  6
CONTINUOUS
 62
     7
  5
10E
 10
0.944882
 20
-2.165354
 30
0.0
 11
-4.014748
 21
-2.165354
 31
0.0
  0
LINE
  8
0
  6
CONTINUOUS
 62
     7
  5
10F
 10
4.014748
 20
-0.765354
 30
0.0
 11
4.014748
 21
-1.023622
 31
0.0
  0
LINE
  8
0
  6
CONTINUOUS
 62
     7
  5
110
 10
-4.014748
 20
-0.765354
 30
0.0
 11
-4.014748
 21
-1.023622
 31
0.0
  0
LINE
  8
0
  6
CONTINUOUS
 62
     7
  5
111
 10
3.865748
 20
-0.765354
 30
0.0
 11
4.015748
 21
-0.765354
 31
0.0
  0
LINE
  8
0
  6
CONTINUOUS
 62
     7
  5
112
 10
-3.865748
 20
-0.765354
 30
0.0
 11
3.865748
 21
-0.765354
 31
0.0
  0
LINE
  8
0
  6
CONTINUOUS
 62
     7
  5
113
 10
-4.015748
 20
-0.765354
 30
0.0
 11
-3.865748
 21
-0.765354
 31
0.0
  0
LINE
  8
0
  6
CONTINUOUS
 62
     7
  5
114
 10
-4.015748
 20
0.0
 30
0.0
 11
-4.015748
 21
-0.765354
 31
0.0
  0
LINE
  8
0
  6
CONTINUOUS
 62
     7
  5
115
 10
4.015748
 20
0.0
 30
0.0
 11
4.015748
 21
-0.765354
 31
0.0
  0
LINE
  8
0
  6
CONTINUOUS
 62
     7
  5
116
 10
4.291339
 20
0.09685
 30
0.0
 11
4.291339
 21
0.0
 31
0.0
  0
ARC
  8
0
  6
CONTINUOUS
 62
     7
  5
117
 10
4.191339
 20
0.09685
 30
0.0
 40
0.1
 50
0.0
 51
90.0
  0
LINE
  8
0
  6
CONTINUOUS
 62
     7
  5
118
 10
-4.191339
 20
0.19685
 30
0.0
 11
4.191339
 21
0.19685
 31
0.0
  0
ARC
  8
0
  6
CONTINUOUS
 62
     7
  5
119
 10
-4.191339
 20
0.09685
 30
0.0
 40
0.1
 50
90.0
 51
180.0
  0
LINE
  8
0
  6
CONTINUOUS
 62
     7
  5
11A
 10
-4.291339
 20
0.0
 30
0.0
 11
-4.291339
 21
0.09685
 31
0.0
  0
LINE
  8
0
  6
CONTINUOUS
 62
     7
  5
11B
 10
4.291339
 20
0.0
 30
0.0
 11
-4.291339
 21
0.0
 31
0.0
  0
ENDSEC
  0
EOF
