999
DXF file: C:\Users\sesa63760\Dev\_Creo\CAD\MCADID0005788_3D-CAD\mcadid0005788_3d-simplified_3.dxf
999
Pro/ENGINEER 2019471 by Parametric Technology Corporation
  0
SECTION
  2
HEADER
  9
$ACADVER
  1
AC1024
  9
$DWGCODEPAGE
  3
ANSI_1252
  9
$EXTMAX
 10
84.0978223296
 20
118.9383487233
 30
0.0
  9
$EXTMIN
 10
0.0
 20
0.0
 30
0.0
  9
$LIMMIN
 10
0.0
 20
0.0
  9
$LIMMAX
 10
84.0978223296
 20
118.9383487233
  9
$VIEWCTR
 10
42.0489111648
 20
59.4691743617
  9
$VIEWSIZE
 40
118.9383487233
  9
$CLAYER
  8
0
  9
$LTSCALE
 40
7.7530182872
  9
$CELTYPE
  6
BYLAYER
  9
$DIMSCALE
 40
1.0
  9
$DIMASZ
 40
1.0011645515
  9
$DIMEXO
 40
1.0
  9
$DIMDLI
 40
5.3566308166
  9
$DIMEXE
 40
1.0
  9
$DIMCEN
 40
1.2686757197
  9
$DIMLFAC
 40
1.0
  9
$DIMBLK
  1
_FILLED
  9
$DIMALT
 70
0
  9
$DIMALTF
 40
0.0393700787
  9
$DIMTXT
 40
1.4016303722
  9
$DIMTOL
 70
1
  9
$DIMLIM
 70
0
  9
$DIMTFAC
 40
1.0
  9
$DIMTP
 40
0.01
  9
$DIMTM
 40
0.01
  9
$DIMGAP
 40
0.625
  9
$DIMDSEP
 70
46
  9
$AUNITS
 70
0
  9
$PDMODE
 70
3
  9
$PDSIZE
 40
0.3125
  9
$HANDSEED
  5
2B8
  9
$TILEMODE
 70
1
  9
$MEASUREMENT
 70
1
  9
$INSUNITS
 70
4
  0
ENDSEC
  0
SECTION
  2
CLASSES
  0
CLASS
  1
ACDBDICTIONARYWDFLT
  2
AcDbDictionaryWithDefault
  3
AutoCAD 2000
 90
0
 91
1
280
0
281
0
  0
CLASS
  1
ACDBPLACEHOLDER
  2
AcDbPlaceHolder
  3
AutoCAD 2000
 90
0
 91
1
280
0
281
0
  0
CLASS
  1
LAYOUT
  2
AcDbLayout
  3
AutoCAD 2000
 90
0
 91
0
280
0
281
0
  0
ENDSEC
  0
SECTION
  2
TABLES
  0
TABLE
  2
VPORT
  5
8
100
AcDbSymbolTable
 70
2
  0
VPORT
  5
1F4
100
AcDbSymbolTableRecord
100
AcDbViewportTableRecord
  2
*ACTIVE
 70
0
 10
0.0
 20
0.0
 11
1.0
 21
1.0
 12
42.0489111648
 22
59.4691743617
 13
0.0
 23
0.0
 14
1.0
 24
1.0
 15
0.0
 25
0.0
 16
0.0
 26
0.0
 36
1.0
 17
0.0
 27
0.0
 37
0.0
 40
118.9383487233
 41
0.7070707071
 42
50.0
 43
0.0
 44
0.0
 50
0.0
 51
0.0
 71
0
 72
100
 73
1
 74
1
 75
0
 76
0
 77
0
 78
0
  0
ENDTAB
  0
TABLE
  2
LTYPE
  5
5
100
AcDbSymbolTable
 70
6
  0
LTYPE
  5
14
100
AcDbSymbolTableRecord
100
AcDbLinetypeTableRecord
  2
BYBLOCK
 70
0
  3

 72
65
 73
0
 40
0.0
  0
LTYPE
  5
15
100
AcDbSymbolTableRecord
100
AcDbLinetypeTableRecord
  2
BYLAYER
 70
0
  3

 72
65
 73
0
 40
0.0
  0
LTYPE
  5
16
100
AcDbSymbolTableRecord
100
AcDbLinetypeTableRecord
  2
CONTINUOUS
 70
64
  3
Solid line
 72
65
 73
0
 40
0.0
  0
LTYPE
  5
1F5
100
AcDbSymbolTableRecord
100
AcDbLinetypeTableRecord
  2
CENTER
 70
64
  3
____ _ ____ _ ____ _ ____ _ ____ _ ____ _ ____
 72
65
 73
4
 40
0.6
 49
0.375
 74
0
 49
-0.075
 74
0
 49
0.075
 74
0
 49
-0.075
 74
0
  0
LTYPE
  5
1F6
100
AcDbSymbolTableRecord
100
AcDbLinetypeTableRecord
  2
HIDDEN
 70
64
  3
- - - - - - - - - - - - - - - - - - - -
 72
65
 73
2
 40
0.2
 49
0.1
 74
0
 49
-0.1
 74
0
  0
LTYPE
  5
1F7
100
AcDbSymbolTableRecord
100
AcDbLinetypeTableRecord
  2
PHANTOM
 70
64
  3
_____ _ _ _____ _ _ _____ _ _ _____
 72
65
 73
6
 40
0.8
 49
0.45
 74
0
 49
-0.05
 74
0
 49
0.1
 74
0
 49
-0.05
 74
0
 49
0.1
 74
0
 49
-0.05
 74
0
  0
LTYPE
  5
1F8
100
AcDbSymbolTableRecord
100
AcDbLinetypeTableRecord
  2
DOT
 70
64
  3
. . . . . . . . . . . . . . . . . . . .
 72
65
 73
2
 40
0.2
 49
0.1
 74
0
 49
-0.1
 74
0
  0
LTYPE
  5
1F9
100
AcDbSymbolTableRecord
100
AcDbLinetypeTableRecord
  2
DASHED
 70
64
  3
- - - - - - - - - - - - - - - - - - - -
 72
65
 73
2
 40
0.2
 49
0.1
 74
0
 49
-0.1
 74
0
  0
ENDTAB
  0
TABLE
  2
LAYER
  5
2
100
AcDbSymbolTable
 70
36
  0
LAYER
  5
10
100
AcDbSymbolTableRecord
100
AcDbLayerTableRecord
  2
0
 70
0
 62
7
  6
CONTINUOUS
370
-3
390
F
  0
LAYER
  5
1FA
100
AcDbSymbolTableRecord
100
AcDbLayerTableRecord
  2
DEFAULT_1
 70
0
 62
7
  6
CENTER
370
-3
390
F
  0
LAYER
  5
1FB
100
AcDbSymbolTableRecord
100
AcDbLayerTableRecord
  2
DEFAULT_2
 70
0
 62
7
  6
HIDDEN
370
-3
390
F
  0
LAYER
  5
1FC
100
AcDbSymbolTableRecord
100
AcDbLayerTableRecord
  2
DEFAULT_3
 70
0
 62
7
  6
PHANTOM
370
-3
390
F
  0
LAYER
  5
1FD
100
AcDbSymbolTableRecord
100
AcDbLayerTableRecord
  2
00_COMPONENTS
 70
0
 62
7
  6
CONTINUOUS
370
-3
390
F
  0
LAYER
  5
1FE
100
AcDbSymbolTableRecord
100
AcDbLayerTableRecord
  2
01_1_DEFAULT_DATUMS
 70
0
 62
7
  6
CONTINUOUS
370
-3
390
F
  0
LAYER
  5
1FF
100
AcDbSymbolTableRecord
100
AcDbLayerTableRecord
  2
01_PLANES
 70
0
 62
7
  6
CONTINUOUS
370
-3
390
F
  0
LAYER
  5
200
100
AcDbSymbolTableRecord
100
AcDbLayerTableRecord
  2
02_COORD_SYS
 70
0
 62
7
  6
CONTINUOUS
370
-3
390
F
  0
LAYER
  5
201
100
AcDbSymbolTableRecord
100
AcDbLayerTableRecord
  2
03_AXES
 70
0
 62
7
  6
CONTINUOUS
370
-3
390
F
  0
LAYER
  5
202
100
AcDbSymbolTableRecord
100
AcDbLayerTableRecord
  2
04_POINTS
 70
0
 62
7
  6
CONTINUOUS
370
-3
390
F
  0
LAYER
  5
203
100
AcDbSymbolTableRecord
100
AcDbLayerTableRecord
  2
05_CURVES
 70
0
 62
7
  6
CONTINUOUS
370
-3
390
F
  0
LAYER
  5
204
100
AcDbSymbolTableRecord
100
AcDbLayerTableRecord
  2
06_SURFS
 70
0
 62
7
  6
CONTINUOUS
370
-3
390
F
  0
LAYER
  5
205
100
AcDbSymbolTableRecord
100
AcDbLayerTableRecord
  2
07_COSMETICS
 70
0
 62
7
  6
CONTINUOUS
370
-3
390
F
  0
LAYER
  5
206
100
AcDbSymbolTableRecord
100
AcDbLayerTableRecord
  2
10_NOTES
 70
0
 62
7
  6
CONTINUOUS
370
-3
390
F
  0
LAYER
  5
207
100
AcDbSymbolTableRecord
100
AcDbLayerTableRecord
  2
11_NOTES_PUB
 70
0
 62
7
  6
CONTINUOUS
370
-3
390
F
  0
LAYER
  5
208
100
AcDbSymbolTableRecord
100
AcDbLayerTableRecord
  2
13_REF_GTOL
 70
0
 62
7
  6
CONTINUOUS
370
-3
390
F
  0
LAYER
  5
209
100
AcDbSymbolTableRecord
100
AcDbLayerTableRecord
  2
16_MISC
 70
0
 62
7
  6
CONTINUOUS
370
-3
390
F
  0
LAYER
  5
20A
100
AcDbSymbolTableRecord
100
AcDbLayerTableRecord
  2
17_NO_PRINT
 70
0
 62
7
  6
CONTINUOUS
370
-3
390
F
  0
LAYER
  5
20B
100
AcDbSymbolTableRecord
100
AcDbLayerTableRecord
  2
18_DATUM_CAMS_JOINTS
 70
0
 62
7
  6
CONTINUOUS
370
-3
390
F
  0
LAYER
  5
20C
100
AcDbSymbolTableRecord
100
AcDbLayerTableRecord
  2
19_DATUM_FUNCTIONAL
 70
0
 62
7
  6
CONTINUOUS
370
-3
390
F
  0
LAYER
  5
20D
100
AcDbSymbolTableRecord
100
AcDbLayerTableRecord
  2
20_DATUM_KINEMATIC_SCHEME
 70
0
 62
7
  6
CONTINUOUS
370
-3
390
F
  0
ENDTAB
  0
TABLE
  2
STYLE
  5
3
100
AcDbSymbolTable
 70
1
  0
STYLE
  5
11
100
AcDbSymbolTableRecord
100
AcDbTextStyleTableRecord
  2
STANDARD
 70
0
 40
0.0
 41
1.0
 50
0.0
 71
0
 42
0.2
  3
ARIAL.TTF
  4

  0
STYLE
  5
20E
100
AcDbSymbolTableRecord
100
AcDbTextStyleTableRecord
  2
TEXTSTYLE_1
 70
0
 40
0.0
 41
0.8
 50
0.0
 71
0
 42
0.2
  3
gdt
  4

  0
ENDTAB
  0
TABLE
  2
VIEW
  5
6
100
AcDbSymbolTable
 70
0
  0
ENDTAB
  0
TABLE
  2
UCS
  5
7
100
AcDbSymbolTable
 70
0
  0
ENDTAB
  0
TABLE
  2
APPID
  5
9
100
AcDbSymbolTable
 70
1
  0
APPID
  5
20F
100
AcDbSymbolTableRecord
100
AcDbRegAppTableRecord
  2
ACAD
 70
0
  0
ENDTAB
  0
TABLE
  2
BLOCK_RECORD
  5
1
100
AcDbSymbolTable
 70
0
  0
BLOCK_RECORD
  5
210
100
AcDbSymbolTableRecord
100
AcDbBlockTableRecord
  2
*Model_Space
  0
BLOCK_RECORD
  5
211
100
AcDbSymbolTableRecord
100
AcDbBlockTableRecord
  2
*Paper_Space
  0
BLOCK_RECORD
  5
212
100
AcDbSymbolTableRecord
100
AcDbBlockTableRecord
  2
_FILLED
  0
ENDTAB
  0
TABLE
  2
DIMSTYLE
  5
A
100
AcDbSymbolTable
 70
1
100
AcDbDimStyleTable
 71
0
  0
DIMSTYLE
105
213
100
AcDbSymbolTableRecord
100
AcDbDimStyleTableRecord
  2
STANDARD
 70
0
  3

  4

 40
1.0
 41
1.0011645515
 42
1.0
 43
0.38
 44
1.0
 45
0.0
 46
0.0
 47
0.01
 48
0.01
140
1.4016303722
141
0.09
142
0.0
143
25.4
144
1.0
145
0.0
146
1.0
147
0.625
 71
1
 72
0
 73
0
 74
0
 75
0
 76
0
 77
1
 78
8
 79
2
170
0
171
1
172
0
173
0
174
0
175
0
176
0
177
0
178
0
270
2
179
2
271
2
272
2
273
2
274
2
275
0
280
0
281
0
282
0
283
1
284
8
285
0
286
0
287
3
288
0
340
11
278
46
341
212
342
212
343
212
344
212
  0
ENDTAB
  0
ENDSEC
  0
SECTION
  2
BLOCKS
  0
BLOCK
  5
20
100
AcDbEntity
  8
0
100
AcDbBlockBegin
  2
*Model_Space
 70
0
 10
0.0
 20
0.0
 30
0.0
  3
*Model_Space
  1

  0
ENDBLK
  5
21
100
AcDbEntity
  8
0
100
AcDbBlockEnd
  0
BLOCK
  5
1C
100
AcDbEntity
  8
0
100
AcDbBlockBegin
  2
*Paper_Space
 70
0
 10
0.0
 20
0.0
 30
0.0
  3
*Paper_Space
  1

  0
ENDBLK
  5
1D
100
AcDbEntity
  8
0
100
AcDbBlockEnd
  0
BLOCK
  5
214
100
AcDbEntity
  8
0
100
AcDbBlockBegin
  2
_FILLED
 70
64
 10
0.0
 20
0.0
  3
_FILLED
  1

  0
SOLID
  5
215
100
AcDbEntity
  8
0
  6
BYBLOCK
 62
0
100
AcDbTrace
 10
0.0
 20
0.0
 11
-1.0
 21
0.25
 12
-1.0
 22
-0.25
 13
-1.0
 23
-0.25
  0
ENDBLK
  5
216
100
AcDbEntity
  8
0
  6
BYBLOCK
 62
0
100
AcDbBlockEnd
  0
ENDSEC
  0
SECTION
  2
ENTITIES
  0
LINE
  5
217
100
AcDbEntity
  8
0
100
AcDbLine
 62
7
  6
BYLAYER
 10
29.013546159
 20
108.7142235929
 11
30.4096349539
 21
109.1281912205
  0
LINE
  5
218
100
AcDbEntity
  8
0
100
AcDbLine
 62
7
  6
BYLAYER
 10
28.3885461584
 20
9.5355942785
 11
38.1885461584
 21
9.5355942785
  0
LINE
  5
219
100
AcDbEntity
  8
0
100
AcDbLine
 62
7
  6
BYLAYER
 10
48.2385461584
 20
9.5355942785
 11
58.0385461584
 21
9.5355942785
  0
LINE
  5
21A
100
AcDbEntity
  8
0
100
AcDbLine
 62
7
  6
BYLAYER
 10
28.3885461584
 20
13.6568104077
 11
38.1885461584
 21
13.6568104077
  0
LINE
  5
21B
100
AcDbEntity
  8
0
100
AcDbLine
 62
7
  6
BYLAYER
 10
48.2385461584
 20
13.6568104077
 11
58.0385461584
 21
13.6568104077
  0
LINE
  5
21C
100
AcDbEntity
  8
0
100
AcDbLine
 62
7
  6
BYLAYER
 10
36.0885461584
 20
16.6503400742
 11
29.8216137523
 21
16.6198981429
  0
LINE
  5
21D
100
AcDbEntity
  8
0
100
AcDbLine
 62
7
  6
BYLAYER
 10
50.2991267651
 20
15.6398802005
 11
56.6007743185
 21
15.651510322
  0
LINE
  5
21E
100
AcDbEntity
  8
0
100
AcDbLine
 62
7
  6
BYLAYER
 10
29.8263172974
 20
15.6515282892
 11
36.1279655518
 21
15.6398802005
  0
LINE
  5
21F
100
AcDbEntity
  8
0
100
AcDbLine
 62
7
  6
BYLAYER
 10
56.6054783098
 20
16.6198981441
 11
50.3385461584
 21
16.6503400742
  0
LINE
  5
220
100
AcDbEntity
  8
0
100
AcDbLine
 62
7
  6
BYLAYER
 10
29.8102330158
 20
18.9629738125
 11
36.1117240147
 21
18.9834464745
  0
LINE
  5
221
100
AcDbEntity
  8
0
100
AcDbLine
 62
7
  6
BYLAYER
 10
58.0385461584
 20
19.5226165847
 11
48.2385461584
 21
19.5226165847
  0
LINE
  5
222
100
AcDbEntity
  8
0
100
AcDbLine
 62
7
  6
BYLAYER
 10
38.1885461584
 20
19.5226165847
 11
28.3885461584
 21
19.5226165847
  0
LINE
  5
223
100
AcDbEntity
  8
0
100
AcDbLine
 62
7
  6
BYLAYER
 10
50.3153683022
 20
18.9834464745
 11
56.6168599357
 21
18.962978124
  0
LINE
  5
224
100
AcDbEntity
  8
0
100
AcDbLine
 62
7
  6
BYLAYER
 10
43.6145721982
 20
95.1355942785
 11
42.091017292
 21
94.3107213152
  0
LINE
  5
225
100
AcDbEntity
  8
0
100
AcDbLine
 62
7
  6
BYLAYER
 10
28.3885461584
 20
29.3355942785
 11
29.3885461584
 21
29.3355942785
  0
LINE
  5
226
100
AcDbEntity
  8
0
100
AcDbLine
 62
7
  6
BYLAYER
 10
37.1885461584
 20
29.3355942785
 11
38.1885461584
 21
29.3355942785
  0
LINE
  5
227
100
AcDbEntity
  8
0
100
AcDbLine
 62
7
  6
BYLAYER
 10
48.2385461584
 20
29.3355942785
 11
49.2385461584
 21
29.3355942785
  0
LINE
  5
228
100
AcDbEntity
  8
0
100
AcDbLine
 62
7
  6
BYLAYER
 10
57.0385461584
 20
29.3355942785
 11
58.0385461584
 21
29.3355942785
  0
LINE
  5
229
100
AcDbEntity
  8
0
100
AcDbLine
 62
7
  6
BYLAYER
 10
39.9635461584
 20
30.1355942785
 11
46.4635461584
 21
30.1355942785
  0
LINE
  5
22A
100
AcDbEntity
  8
0
100
AcDbLine
 62
7
  6
BYLAYER
 10
39.9635461584
 20
31.1355942785
 11
46.4635461584
 21
31.1355942785
  0
LINE
  5
22B
100
AcDbEntity
  8
0
100
AcDbLine
 62
7
  6
BYLAYER
 10
39.9635461584
 20
32.6355942785
 11
46.4635461584
 21
32.6355942785
  0
LINE
  5
22C
100
AcDbEntity
  8
0
100
AcDbLine
 62
7
  6
BYLAYER
 10
58.0385461584
 20
33.1355942785
 11
28.3885461584
 21
33.1355942785
  0
LINE
  5
22D
100
AcDbEntity
  8
0
100
AcDbLine
 62
7
  6
BYLAYER
 10
29.7135461584
 20
38.0499536324
 11
36.7135461584
 21
38.0499536324
  0
LINE
  5
22E
100
AcDbEntity
  8
0
100
AcDbLine
 62
7
  6
BYLAYER
 10
49.7135461584
 20
38.0499536324
 11
56.5646560604
 21
38.0499536324
  0
LINE
  5
22F
100
AcDbEntity
  8
0
100
AcDbLine
 62
7
  6
BYLAYER
 10
47.8635461584
 20
41.9355942785
 11
37.4635461584
 21
41.9355942785
  0
LINE
  5
230
100
AcDbEntity
  8
0
100
AcDbLine
 62
7
  6
BYLAYER
 10
56.5646560604
 20
42.3355942785
 11
49.7135461584
 21
42.3355942785
  0
LINE
  5
231
100
AcDbEntity
  8
0
100
AcDbLine
 62
7
  6
BYLAYER
 10
36.7135461584
 20
42.3355942785
 11
29.7135461584
 21
42.3355942785
  0
LINE
  5
232
100
AcDbEntity
  8
0
100
AcDbLine
 62
7
  6
BYLAYER
 10
29.8102330158
 20
18.9629738125
 11
29.8263172974
 21
15.6515282892
  0
LINE
  5
233
100
AcDbEntity
  8
0
100
AcDbLine
 62
7
  6
BYLAYER
 10
28.2635461584
 20
83.5355942785
 11
28.2635461584
 21
73.7355942785
  0
LINE
  5
234
100
AcDbEntity
  8
0
100
AcDbLine
 62
7
  6
BYLAYER
 10
28.3885461584
 20
33.1355942785
 11
28.3885461584
 21
9.5355942785
  0
LINE
  5
235
100
AcDbEntity
  8
0
100
AcDbLine
 62
7
  6
BYLAYER
 10
28.4635461584
 20
33.1355942785
 11
28.4635461584
 21
73.7355942785
  0
LINE
  5
236
100
AcDbEntity
  8
0
100
AcDbLine
 62
7
  6
BYLAYER
 10
28.5485461584
 20
83.5355942785
 11
28.5485461584
 21
89.5355942785
  0
LINE
  5
237
100
AcDbEntity
  8
0
100
AcDbLine
 62
7
  6
BYLAYER
 10
29.3885461584
 20
33.1355942785
 11
29.3885461584
 21
29.3355942785
  0
LINE
  5
238
100
AcDbEntity
  8
0
100
AcDbLine
 62
7
  6
BYLAYER
 10
29.6385461588
 20
95.8855942787
 11
29.6385461588
 21
97.1355942787
  0
LINE
  5
239
100
AcDbEntity
  8
0
100
AcDbLine
 62
7
  6
BYLAYER
 10
29.013546159
 20
108.7142235929
 11
28.9635461588
 21
97.1355942787
  0
LINE
  5
23A
100
AcDbEntity
  8
0
100
AcDbLine
 62
7
  6
BYLAYER
 10
28.4635461584
 20
43.5355942785
 11
37.4635461584
 21
43.5355942785
  0
LINE
  5
23B
100
AcDbEntity
  8
0
100
AcDbLine
 62
7
  6
BYLAYER
 10
47.8635461584
 20
43.5355942785
 11
57.9635461584
 21
43.5355942785
  0
LINE
  5
23C
100
AcDbEntity
  8
0
100
AcDbLine
 62
7
  6
BYLAYER
 10
47.8635461584
 20
44.0723585596
 11
37.4635461584
 21
44.0723585596
  0
LINE
  5
23D
100
AcDbEntity
  8
0
100
AcDbLine
 62
7
  6
BYLAYER
 10
29.7135461584
 20
42.3355942785
 11
29.7135461584
 21
38.0499536324
  0
LINE
  5
23E
100
AcDbEntity
  8
0
100
AcDbLine
 62
7
  6
BYLAYER
 10
30.863546159
 20
109.1281912205
 11
30.863546159
 21
109.2355942787
  0
LINE
  5
23F
100
AcDbEntity
  8
0
100
AcDbLine
 62
7
  6
BYLAYER
 10
31.5885397217
 20
89.5355942785
 11
31.5885397217
 21
89.7355942785
  0
LINE
  5
240
100
AcDbEntity
  8
0
100
AcDbLine
 62
7
  6
BYLAYER
 10
32.3385461587
 20
92.9451205277
 11
32.3385461588
 21
94.6355942787
  0
LINE
  5
241
100
AcDbEntity
  8
0
100
AcDbLine
 62
7
  6
BYLAYER
 10
32.3485461584
 20
89.5355942785
 11
32.3485461584
 21
83.5355942785
  0
LINE
  5
242
100
AcDbEntity
  8
0
100
AcDbLine
 62
7
  6
BYLAYER
 10
32.7135461587
 20
89.7355942785
 11
32.7135461587
 21
92.9451205277
  0
LINE
  5
243
100
AcDbEntity
  8
0
100
AcDbLine
 62
7
  6
BYLAYER
 10
32.7135461588
 20
94.6355942787
 11
32.7135461588
 21
95.8855942787
  0
LINE
  5
244
100
AcDbEntity
  8
0
100
AcDbLine
 62
7
  6
BYLAYER
 10
42.0180117088
 20
94.2440757511
 11
41.6188715865
 21
93.1887386559
  0
LINE
  5
245
100
AcDbEntity
  8
0
100
AcDbLine
 62
7
  6
BYLAYER
 10
45.6561796999
 20
80.0355942785
 11
43.9300806399
 21
78.4071766739
  0
LINE
  5
246
100
AcDbEntity
  8
0
100
AcDbLine
 62
7
  6
BYLAYER
 10
47.8635461584
 20
47.5284439781
 11
37.4635461584
 21
47.5284439781
  0
LINE
  5
247
100
AcDbEntity
  8
0
100
AcDbLine
 62
7
  6
BYLAYER
 10
36.0885461584
 20
16.6503400742
 11
36.1279655518
 21
15.6398802005
  0
LINE
  5
248
100
AcDbEntity
  8
0
100
AcDbLine
 62
7
  6
BYLAYER
 10
36.1117240147
 20
18.9834464745
 11
36.1279655518
 21
15.6398802005
  0
LINE
  5
249
100
AcDbEntity
  8
0
100
AcDbLine
 62
7
  6
BYLAYER
 10
34.5635461584
 20
80.0355942785
 11
34.5635461584
 21
74.1859274885
  0
LINE
  5
24A
100
AcDbEntity
  8
0
100
AcDbLine
 62
7
  6
BYLAYER
 10
34.675982103
 20
89.5355942785
 11
34.675982103
 21
89.7355942785
  0
LINE
  5
24B
100
AcDbEntity
  8
0
100
AcDbLine
 62
7
  6
BYLAYER
 10
36.0885461584
 20
18.9834464745
 11
36.0885461584
 21
16.6503400742
  0
LINE
  5
24C
100
AcDbEntity
  8
0
100
AcDbLine
 62
7
  6
BYLAYER
 10
36.4635461584
 20
83.5355942785
 11
36.4635461584
 21
89.5355942785
  0
LINE
  5
24D
100
AcDbEntity
  8
0
100
AcDbLine
 62
7
  6
BYLAYER
 10
36.5635461584
 20
80.0355942785
 11
36.5635461584
 21
74.4746026231
  0
LINE
  5
24E
100
AcDbEntity
  8
0
100
AcDbLine
 62
7
  6
BYLAYER
 10
41.6188715865
 20
93.1887386559
 11
41.6145721982
 21
93.1659787725
  0
LINE
  5
24F
100
AcDbEntity
  8
0
100
AcDbLine
 62
7
  6
BYLAYER
 10
36.7135461584
 20
38.0499536324
 11
36.7135461584
 21
42.3355942785
  0
LINE
  5
250
100
AcDbEntity
  8
0
100
AcDbLine
 62
7
  6
BYLAYER
 10
37.1885461584
 20
29.3355942785
 11
37.1885461584
 21
33.1355942785
  0
LINE
  5
251
100
AcDbEntity
  8
0
100
AcDbLine
 62
7
  6
BYLAYER
 10
37.4635461584
 20
41.9355942785
 11
37.4635461584
 21
70.3355942785
  0
LINE
  5
252
100
AcDbEntity
  8
0
100
AcDbLine
 62
7
  6
BYLAYER
 10
38.1885461584
 20
9.5355942785
 11
38.1885461584
 21
33.1355942785
  0
LINE
  5
253
100
AcDbEntity
  8
0
100
AcDbLine
 62
7
  6
BYLAYER
 10
39.9635461584
 20
30.1355942785
 11
39.9635461584
 21
33.1355942785
  0
LINE
  5
254
100
AcDbEntity
  8
0
100
AcDbLine
 62
7
  6
BYLAYER
 10
40.2635461584
 20
89.5355942785
 11
40.2635461584
 21
83.5355942785
  0
LINE
  5
255
100
AcDbEntity
  8
0
100
AcDbLine
 62
7
  6
BYLAYER
 10
40.5810568422
 20
89.7355942785
 11
40.5810568422
 21
89.5355942785
  0
LINE
  5
256
100
AcDbEntity
  8
0
100
AcDbLine
 62
7
  6
BYLAYER
 10
40.8835949611
 20
74.4546314652
 11
40.8835949611
 21
71.9926120827
  0
LINE
  5
257
100
AcDbEntity
  8
0
100
AcDbLine
 62
7
  6
BYLAYER
 10
41.6145721982
 20
93.1659787725
 11
41.6145721982
 21
89.5355942785
  0
LINE
  5
258
100
AcDbEntity
  8
0
100
AcDbLine
 62
7
  6
BYLAYER
 10
41.6145721982
 20
83.5355942785
 11
41.6145721982
 21
80.0355942785
  0
LINE
  5
259
100
AcDbEntity
  8
0
100
AcDbLine
 62
7
  6
BYLAYER
 10
41.8145721982
 20
75.5144108532
 11
41.8145721982
 21
74.7900951138
  0
LINE
  5
25A
100
AcDbEntity
  8
0
100
AcDbLine
 62
7
  6
BYLAYER
 10
42.4970115904
 20
76.2355942785
 11
42.4970115904
 21
78.4071766739
  0
LINE
  5
25B
100
AcDbEntity
  8
0
100
AcDbLine
 62
7
  6
BYLAYER
 10
43.9300806399
 20
78.4071766739
 11
43.9300806399
 21
76.2355942785
  0
LINE
  5
25C
100
AcDbEntity
  8
0
100
AcDbLine
 62
7
  6
BYLAYER
 10
45.4145721982
 20
75.1980195884
 11
45.4145721982
 21
74.7892585801
  0
LINE
  5
25D
100
AcDbEntity
  8
0
100
AcDbLine
 62
7
  6
BYLAYER
 10
45.6145721982
 20
93.1659787725
 11
45.6145721982
 21
89.5355942785
  0
LINE
  5
25E
100
AcDbEntity
  8
0
100
AcDbLine
 62
7
  6
BYLAYER
 10
45.6145721982
 20
83.5355942785
 11
45.6145721982
 21
80.0355942785
  0
LINE
  5
25F
100
AcDbEntity
  8
0
100
AcDbLine
 62
7
  6
BYLAYER
 10
45.8460354747
 20
89.5355942785
 11
45.8460354747
 21
89.7355942785
  0
LINE
  5
260
100
AcDbEntity
  8
0
100
AcDbLine
 62
7
  6
BYLAYER
 10
46.1635461584
 20
83.5355942785
 11
46.1635461584
 21
89.5355942785
  0
LINE
  5
261
100
AcDbEntity
  8
0
100
AcDbLine
 62
7
  6
BYLAYER
 10
46.3455494353
 20
74.4546314652
 11
46.3455494353
 21
71.9926120827
  0
LINE
  5
262
100
AcDbEntity
  8
0
100
AcDbLine
 62
7
  6
BYLAYER
 10
46.4635461584
 20
30.1355942785
 11
46.4635461584
 21
33.1355942785
  0
LINE
  5
263
100
AcDbEntity
  8
0
100
AcDbLine
 62
7
  6
BYLAYER
 10
47.8635461584
 20
41.9355942785
 11
47.8635461584
 21
70.3355942785
  0
LINE
  5
264
100
AcDbEntity
  8
0
100
AcDbLine
 62
7
  6
BYLAYER
 10
48.2385461584
 20
33.1355942785
 11
48.2385461584
 21
9.5355942785
  0
LINE
  5
265
100
AcDbEntity
  8
0
100
AcDbLine
 62
7
  6
BYLAYER
 10
49.2385461584
 20
33.1355942785
 11
49.2385461584
 21
29.3355942785
  0
LINE
  5
266
100
AcDbEntity
  8
0
100
AcDbLine
 62
7
  6
BYLAYER
 10
49.7135461584
 20
42.3355942785
 11
49.7135461584
 21
38.0499536324
  0
LINE
  5
267
100
AcDbEntity
  8
0
100
AcDbLine
 62
7
  6
BYLAYER
 10
49.8635461584
 20
75.0519528922
 11
49.8635461584
 21
80.0355942785
  0
LINE
  5
268
100
AcDbEntity
  8
0
100
AcDbLine
 62
7
  6
BYLAYER
 10
49.9635461584
 20
89.5355942785
 11
49.9635461584
 21
83.5355942785
  0
LINE
  5
269
100
AcDbEntity
  8
0
100
AcDbLine
 62
7
  6
BYLAYER
 10
50.3385461584
 20
16.6503400742
 11
50.3385461584
 21
18.9834464745
  0
LINE
  5
26A
100
AcDbEntity
  8
0
100
AcDbLine
 62
7
  6
BYLAYER
 10
50.3153683022
 20
18.9834464745
 11
50.2991267651
 21
15.6398802005
  0
LINE
  5
26B
100
AcDbEntity
  8
0
100
AcDbLine
 62
7
  6
BYLAYER
 10
51.7511102138
 20
89.7355942785
 11
51.7511102138
 21
89.5355942785
  0
LINE
  5
26C
100
AcDbEntity
  8
0
100
AcDbLine
 62
7
  6
BYLAYER
 10
51.8635461584
 20
74.1859274885
 11
51.8635461584
 21
80.0355942785
  0
LINE
  5
26D
100
AcDbEntity
  8
0
100
AcDbLine
 62
7
  6
BYLAYER
 10
53.7135461588
 20
95.8855942783
 11
53.7135461588
 21
94.6355942783
  0
LINE
  5
26E
100
AcDbEntity
  8
0
100
AcDbLine
 62
7
  6
BYLAYER
 10
53.7135461587
 20
92.9451205273
 11
53.7135461587
 21
89.7355942785
  0
LINE
  5
26F
100
AcDbEntity
  8
0
100
AcDbLine
 62
7
  6
BYLAYER
 10
54.0785461584
 20
83.5355942785
 11
54.0785461584
 21
89.5355942785
  0
LINE
  5
270
100
AcDbEntity
  8
0
100
AcDbLine
 62
7
  6
BYLAYER
 10
54.0885461588
 20
94.6355942783
 11
54.0885461587
 21
92.9451205273
  0
LINE
  5
271
100
AcDbEntity
  8
0
100
AcDbLine
 62
7
  6
BYLAYER
 10
50.2991267651
 20
15.6398802005
 11
50.3385461584
 21
16.6503400742
  0
LINE
  5
272
100
AcDbEntity
  8
0
100
AcDbLine
 62
7
  6
BYLAYER
 10
47.8635461584
 20
70.3355942785
 11
37.4635461584
 21
70.3355942785
  0
LINE
  5
273
100
AcDbEntity
  8
0
100
AcDbLine
 62
7
  6
BYLAYER
 10
45.6145721982
 20
93.1659787725
 11
45.61027281
 21
93.1887386559
  0
LINE
  5
274
100
AcDbEntity
  8
0
100
AcDbLine
 62
7
  6
BYLAYER
 10
57.4635461588
 20
97.1355942783
 11
57.413546159
 21
108.7142235924
  0
LINE
  5
275
100
AcDbEntity
  8
0
100
AcDbLine
 62
7
  6
BYLAYER
 10
54.8385461584
 20
89.7355942785
 11
54.8385461584
 21
89.5355942785
  0
LINE
  5
276
100
AcDbEntity
  8
0
100
AcDbLine
 62
7
  6
BYLAYER
 10
55.563546159
 20
109.2355942783
 11
55.563546159
 21
109.12819122
  0
LINE
  5
277
100
AcDbEntity
  8
0
100
AcDbLine
 62
7
  6
BYLAYER
 10
56.5646560604
 20
38.0499536324
 11
56.5646560604
 21
42.3355942785
  0
LINE
  5
278
100
AcDbEntity
  8
0
100
AcDbLine
 62
7
  6
BYLAYER
 10
56.7885461588
 20
97.1355942783
 11
56.7885461588
 21
95.8855942783
  0
LINE
  5
279
100
AcDbEntity
  8
0
100
AcDbLine
 62
7
  6
BYLAYER
 10
57.0385461584
 20
29.3355942785
 11
57.0385461584
 21
33.1355942785
  0
LINE
  5
27A
100
AcDbEntity
  8
0
100
AcDbLine
 62
7
  6
BYLAYER
 10
56.6168599357
 20
18.962978124
 11
56.6007743185
 21
15.651510322
  0
LINE
  5
27B
100
AcDbEntity
  8
0
100
AcDbLine
 62
7
  6
BYLAYER
 10
57.9635461584
 20
70.7953858302
 11
28.4635461584
 21
70.7953858302
  0
LINE
  5
27C
100
AcDbEntity
  8
0
100
AcDbLine
 62
7
  6
BYLAYER
 10
28.2635461584
 20
73.7355942785
 11
40.8835949611
 21
73.7355942785
  0
LINE
  5
27D
100
AcDbEntity
  8
0
100
AcDbLine
 62
7
  6
BYLAYER
 10
46.3455494353
 20
73.7355942785
 11
58.1635461584
 21
73.7355942785
  0
LINE
  5
27E
100
AcDbEntity
  8
0
100
AcDbLine
 62
7
  6
BYLAYER
 10
28.2635461584
 20
74.1859274885
 11
34.5635461584
 21
74.1859274885
  0
LINE
  5
27F
100
AcDbEntity
  8
0
100
AcDbLine
 62
7
  6
BYLAYER
 10
51.8635461584
 20
74.1859274885
 11
58.1635461584
 21
74.1859274885
  0
LINE
  5
280
100
AcDbEntity
  8
0
100
AcDbLine
 62
7
  6
BYLAYER
 10
42.4970115904
 20
78.4071766739
 11
40.7709125557
 21
80.0355942785
  0
LINE
  5
281
100
AcDbEntity
  8
0
100
AcDbLine
 62
7
  6
BYLAYER
 10
45.2111326876
 20
94.2440757511
 11
45.61027281
 21
93.1887386559
  0
LINE
  5
282
100
AcDbEntity
  8
0
100
AcDbLine
 62
7
  6
BYLAYER
 10
57.8785461584
 20
89.5355942785
 11
57.8785461584
 21
83.5355942785
  0
LINE
  5
283
100
AcDbEntity
  8
0
100
AcDbLine
 62
7
  6
BYLAYER
 10
57.9635461584
 20
33.1355942785
 11
57.9635461584
 21
73.7355942785
  0
LINE
  5
284
100
AcDbEntity
  8
0
100
AcDbLine
 62
7
  6
BYLAYER
 10
58.0385461584
 20
9.5355942785
 11
58.0385461584
 21
33.1355942785
  0
LINE
  5
285
100
AcDbEntity
  8
0
100
AcDbLine
 62
7
  6
BYLAYER
 10
58.1635461584
 20
73.7355942785
 11
58.1635461584
 21
83.5355942785
  0
LINE
  5
286
100
AcDbEntity
  8
0
100
AcDbLine
 62
7
  6
BYLAYER
 10
36.5635461584
 20
75.0519528922
 11
40.9869489941
 21
76.2355942785
  0
LINE
  5
287
100
AcDbEntity
  8
0
100
AcDbLine
 62
7
  6
BYLAYER
 10
34.5635461584
 20
74.4746026231
 11
36.5635461584
 21
74.4746026231
  0
LINE
  5
288
100
AcDbEntity
  8
0
100
AcDbLine
 62
7
  6
BYLAYER
 10
49.8635461584
 20
75.0519528922
 11
51.8635461584
 21
75.0519528922
  0
LINE
  5
289
100
AcDbEntity
  8
0
100
AcDbLine
 62
7
  6
BYLAYER
 10
40.9869489941
 20
76.2355942785
 11
45.4401432583
 21
76.2355942785
  0
LINE
  5
28A
100
AcDbEntity
  8
0
100
AcDbLine
 62
7
  6
BYLAYER
 10
45.4401432583
 20
76.2355942785
 11
49.8635461584
 21
75.0519528922
  0
LINE
  5
28B
100
AcDbEntity
  8
0
100
AcDbLine
 62
7
  6
BYLAYER
 10
42.4970115904
 20
78.4071766739
 11
43.9300806399
 21
78.4071766739
  0
LINE
  5
28C
100
AcDbEntity
  8
0
100
AcDbLine
 62
7
  6
BYLAYER
 10
58.1635461584
 20
80.0355942785
 11
28.2635461584
 21
80.0355942785
  0
LINE
  5
28D
100
AcDbEntity
  8
0
100
AcDbLine
 62
7
  6
BYLAYER
 10
58.1635461584
 20
81.5355942785
 11
45.6145721982
 21
81.5355942785
  0
LINE
  5
28E
100
AcDbEntity
  8
0
100
AcDbLine
 62
7
  6
BYLAYER
 10
41.6145721982
 20
81.5355942785
 11
28.2635461584
 21
81.5355942785
  0
LINE
  5
28F
100
AcDbEntity
  8
0
100
AcDbLine
 62
7
  6
BYLAYER
 10
28.2635461584
 20
83.5355942785
 11
58.1635461584
 21
83.5355942785
  0
LINE
  5
290
100
AcDbEntity
  8
0
100
AcDbLine
 62
7
  6
BYLAYER
 10
28.5485461584
 20
89.5355942785
 11
57.8785461584
 21
89.5355942785
  0
LINE
  5
291
100
AcDbEntity
  8
0
100
AcDbLine
 62
7
  6
BYLAYER
 10
54.8385461584
 20
89.7355942785
 11
45.6145721982
 21
89.7355942785
  0
LINE
  5
292
100
AcDbEntity
  8
0
100
AcDbLine
 62
7
  6
BYLAYER
 10
41.6145721982
 20
89.7355942785
 11
31.5885397217
 21
89.7355942785
  0
LINE
  5
293
100
AcDbEntity
  8
0
100
AcDbLine
 62
7
  6
BYLAYER
 10
43.6145721982
 20
95.1355942785
 11
45.1381271045
 21
94.3107213152
  0
LINE
  5
294
100
AcDbEntity
  8
0
100
AcDbLine
 62
7
  6
BYLAYER
 10
32.3385461587
 20
92.9451205277
 11
41.6145721982
 21
92.9451205276
  0
LINE
  5
295
100
AcDbEntity
  8
0
100
AcDbLine
 62
7
  6
BYLAYER
 10
45.6145721982
 20
92.9451205275
 11
54.0885461587
 21
92.9451205273
  0
LINE
  5
296
100
AcDbEntity
  8
0
100
AcDbLine
 62
7
  6
BYLAYER
 10
54.0885461588
 20
94.6355942783
 11
44.5380810136
 21
94.6355942785
  0
LINE
  5
297
100
AcDbEntity
  8
0
100
AcDbLine
 62
7
  6
BYLAYER
 10
42.6910633829
 20
94.6355942785
 11
32.3385461588
 21
94.6355942787
  0
LINE
  5
298
100
AcDbEntity
  8
0
100
AcDbLine
 62
7
  6
BYLAYER
 10
29.6385461588
 20
95.8855942787
 11
56.7885461588
 21
95.8855942783
  0
LINE
  5
299
100
AcDbEntity
  8
0
100
AcDbLine
 62
7
  6
BYLAYER
 10
28.9635461588
 20
97.1355942787
 11
57.4635461588
 21
97.1355942783
  0
LINE
  5
29A
100
AcDbEntity
  8
0
100
AcDbLine
 62
7
  6
BYLAYER
 10
30.863546159
 20
109.2355942787
 11
32.8298896493
 21
109.7602952259
  0
LINE
  5
29B
100
AcDbEntity
  8
0
100
AcDbLine
 62
7
  6
BYLAYER
 10
32.8298896493
 20
109.760295226
 11
34.713546159
 21
109.98521721
  0
LINE
  5
29C
100
AcDbEntity
  8
0
100
AcDbLine
 62
7
  6
BYLAYER
 10
29.013546159
 20
108.7142235929
 11
57.413546159
 21
108.7142235924
  0
LINE
  5
29D
100
AcDbEntity
  8
0
100
AcDbLine
 62
7
  6
BYLAYER
 10
30.4096349539
 20
109.1281912205
 11
56.0174573641
 21
109.12819122
  0
LINE
  5
29E
100
AcDbEntity
  8
0
100
AcDbLine
 62
7
  6
BYLAYER
 10
55.563546159
 20
109.2355942783
 11
30.863546159
 21
109.2355942787
  0
LINE
  5
29F
100
AcDbEntity
  8
0
100
AcDbLine
 62
7
  6
BYLAYER
 10
32.8298896494
 20
109.7602952259
 11
53.5972026687
 21
109.7602952256
  0
LINE
  5
2A0
100
AcDbEntity
  8
0
100
AcDbLine
 62
7
  6
BYLAYER
 10
34.713546159
 20
109.98521721
 11
51.713546159
 21
109.9852172097
  0
LINE
  5
2A1
100
AcDbEntity
  8
0
100
AcDbLine
 62
7
  6
BYLAYER
 10
53.5972026687
 20
109.7602952256
 11
51.713546159
 21
109.9852172097
  0
LINE
  5
2A2
100
AcDbEntity
  8
0
100
AcDbLine
 62
7
  6
BYLAYER
 10
53.5972026687
 20
109.7602952256
 11
55.563546159
 21
109.2355942783
  0
LINE
  5
2A3
100
AcDbEntity
  8
0
100
AcDbLine
 62
7
  6
BYLAYER
 10
56.0174573641
 20
109.12819122
 11
57.413546159
 21
108.7142235924
  0
SPLINE
  5
2A4
100
AcDbEntity
  8
0
100
AcDbSpline
 62
7
  6
BYLAYER
 70
0
 71
3
 72
9
 73
5
 74
0
 42
0.0000001
 43
0.0000001
 44
0.0000000001
 40
0.0
 40
0.0
 40
0.0
 40
0.0
 40
0.4170543208
 40
1.0
 40
1.0
 40
1.0
 40
1.0
 10
45.2111156623
 20
94.2440755575
 30
0.0
 10
45.2061969724
 20
94.2571159981
 30
0.0
 10
45.1836736973
 20
94.2837695355
 30
0.0
 10
45.1552307108
 20
94.3014426433
 30
0.0
 10
45.1381004819
 20
94.3107198329
 30
0.0
  0
SPLINE
  5
2A5
100
AcDbEntity
  8
0
100
AcDbSpline
 62
7
  6
BYLAYER
 70
0
 71
3
 72
19
 73
15
 74
0
 42
0.0000001
 43
0.0000001
 44
0.0000000001
 40
0.0
 40
0.0
 40
0.0
 40
0.0
 40
0.0170155815
 40
0.0383353242
 40
0.0662385594
 40
0.1015907953
 40
0.1445712566
 40
0.1950929233
 40
0.2528409877
 40
0.3173768645
 40
0.4646195026
 40
0.6315963598
 40
0.8123816543
 40
1.0
 40
1.0
 40
1.0
 40
1.0
 10
46.3455334999
 20
71.9926120829
 30
0.0
 10
46.3455314983
 20
71.9765082885
 30
0.0
 10
46.3336778224
 20
71.9401719746
 30
0.0
 10
46.2899234886
 20
71.893885674
 30
0.0
 10
46.2228423395
 20
71.8495646747
 30
0.0
 10
46.1316053976
 20
71.8067541754
 30
0.0
 10
46.0167458258
 20
71.7654486017
 30
0.0
 10
45.879001807
 20
71.7261936968
 30
0.0
 10
45.7196138455
 20
71.6893199873
 30
0.0
 10
45.4689445187
 20
71.6417831288
 30
0.0
 10
45.1136421063
 20
71.5927282745
 30
0.0
 10
44.646961092
 20
71.5503521013
 30
0.0
 10
44.1408281707
 20
71.5242558265
 30
0.0
 10
43.7921369371
 20
71.5183828622
 30
0.0
 10
43.6145721982
 20
71.5183828622
 30
0.0
  0
SPLINE
  5
2A6
100
AcDbEntity
  8
0
100
AcDbSpline
 62
7
  6
BYLAYER
 70
0
 71
3
 72
19
 73
15
 74
0
 42
0.0000001
 43
0.0000001
 44
0.0000000001
 40
0.0
 40
0.0
 40
0.0
 40
0.0
 40
0.0170160949
 40
0.0383333652
 40
0.0662468099
 40
0.1015958648
 40
0.1445761533
 40
0.1951047746
 40
0.2528513315
 40
0.3173913149
 40
0.4646273062
 40
0.6315950709
 40
0.8123918604
 40
1.0
 40
1.0
 40
1.0
 40
1.0
 10
46.3455252125
 20
74.4546314394
 30
0.0
 10
46.3455121203
 20
74.4707356986
 30
0.0
 10
46.3336820262
 20
74.5070698204
 30
0.0
 10
46.2899265903
 20
74.5533775894
 30
0.0
 10
46.2228199128
 20
74.5976652044
 30
0.0
 10
46.1315905304
 20
74.6405019993
 30
0.0
 10
46.0167239579
 20
74.6818031739
 30
0.0
 10
45.878973395
 20
74.7210499598
 30
0.0
 10
45.719578725
 20
74.7579346816
 30
0.0
 10
45.468911004
 20
74.8054586551
 30
0.0
 10
45.1136215623
 20
74.8545211343
 30
0.0
 10
44.6469442473
 20
74.8968927468
 30
0.0
 10
44.1408191517
 20
74.9229840102
 30
0.0
 10
43.7921271028
 20
74.9288606857
 30
0.0
 10
43.6145721982
 20
74.9288606857
 30
0.0
  0
SPLINE
  5
2A7
100
AcDbEntity
  8
0
100
AcDbSpline
 62
7
  6
BYLAYER
 70
0
 71
3
 72
9
 73
5
 74
0
 42
0.0000001
 43
0.0000001
 44
0.0000000001
 40
0.0
 40
0.0
 40
0.0
 40
0.0
 40
0.5829456792
 40
1.0
 40
1.0
 40
1.0
 40
1.0
 10
42.0910439145
 20
94.3107198329
 30
0.0
 10
42.0739136856
 20
94.3014426433
 30
0.0
 10
42.0454706991
 20
94.2837695355
 30
0.0
 10
42.022947424
 20
94.2571159981
 30
0.0
 10
42.0180287342
 20
94.2440755575
 30
0.0
  0
SPLINE
  5
2A8
100
AcDbEntity
  8
0
100
AcDbSpline
 62
7
  6
BYLAYER
 70
0
 71
3
 72
19
 73
15
 74
0
 42
0.0000001
 43
0.0000001
 44
0.0000000001
 40
0.0
 40
0.0
 40
0.0
 40
0.0
 40
0.1876218212
 40
0.3684028601
 40
0.5353750785
 40
0.6826151366
 40
0.7471501585
 40
0.8048997244
 40
0.8554210251
 40
0.8984043348
 40
0.9337592903
 40
0.9616623643
 40
0.9829840856
 40
1.0
 40
1.0
 40
1.0
 40
1.0
 10
43.6145721982
 20
71.5183828622
 30
0.0
 10
43.4370041179
 20
71.5183828622
 30
0.0
 10
43.0883135309
 20
71.524255827
 30
0.0
 10
42.5821855251
 20
71.550351453
 30
0.0
 10
42.1155153707
 20
71.5927276677
 30
0.0
 10
41.7602198998
 20
71.6417782722
 30
0.0
 10
41.5095525738
 20
71.6893159309
 30
0.0
 10
41.3501632994
 20
71.7261853991
 30
0.0
 10
41.2124162017
 20
71.7654439483
 30
0.0
 10
41.0975518282
 20
71.8067494831
 30
0.0
 10
41.0063068052
 20
71.8495564054
 30
0.0
 10
40.9392264921
 20
71.8938862181
 30
0.0
 10
40.8954662741
 20
71.9401679216
 30
0.0
 10
40.883608895
 20
71.9765079683
 30
0.0
 10
40.8836108966
 20
71.9926120825
 30
0.0
  0
SPLINE
  5
2A9
100
AcDbEntity
  8
0
100
AcDbSpline
 62
7
  6
BYLAYER
 70
0
 71
3
 72
12
 73
8
 74
0
 42
0.0000001
 43
0.0000001
 44
0.0000000001
 40
0.0
 40
0.0
 40
0.0
 40
0.0
 40
0.2965336446
 40
0.5735542879
 40
0.8130202822
 40
0.9138362269
 40
1.0
 40
1.0
 40
1.0
 40
1.0
 10
43.6145721982
 20
74.9288606857
 30
0.0
 10
43.3792176998
 20
74.9288606857
 30
0.0
 10
42.9239051698
 20
74.9188286784
 30
0.0
 10
42.2799669154
 20
74.8741583323
 30
0.0
 10
41.7933816607
 20
74.8128232016
 30
0.0
 10
41.4610048151
 20
74.7483781578
 30
0.0
 10
41.3169867285
 20
74.7119805776
 30
0.0
 10
41.2514798199
 20
74.6923433711
 30
0.0
  0
SPLINE
  5
2AA
100
AcDbEntity
  8
0
100
AcDbSpline
 62
7
  6
BYLAYER
 70
0
 71
3
 72
9
 73
5
 74
0
 42
0.0000001
 43
0.0000001
 44
0.0000000001
 40
0.0
 40
0.0
 40
0.0
 40
0.0
 40
0.2646510783
 40
1.0
 40
1.0
 40
1.0
 40
1.0
 10
41.2514798199
 20
74.6923433711
 30
0.0
 10
41.2410681502
 20
74.6892222331
 30
0.0
 10
41.2018149319
 20
74.6771415685
 30
0.0
 10
41.1629176496
 20
74.663874492
 30
0.0
 10
41.1346544826
 20
74.6532295535
 30
0.0
  0
SPLINE
  5
2AB
100
AcDbEntity
  8
0
100
AcDbSpline
 62
7
  6
BYLAYER
 70
0
 71
3
 72
12
 73
8
 74
0
 42
0.0000001
 43
0.0000001
 44
0.0000000001
 40
0.0
 40
0.0
 40
0.0
 40
0.0
 40
0.3547897295
 40
0.6321144444
 40
0.7438470789
 40
0.8400679092
 40
1.0
 40
1.0
 40
1.0
 40
1.0
 10
41.1346544826
 20
74.6532295535
 30
0.0
 10
41.0975919853
 20
74.6392704664
 30
0.0
 10
41.0325302529
 20
74.61172443
 30
0.0
 10
40.9605691503
 20
74.5691974894
 30
0.0
 10
40.9199163733
 20
74.5330184384
 30
0.0
 10
40.8939851447
 20
74.5011580687
 30
0.0
 10
40.8836086776
 20
74.4724841993
 30
0.0
 10
40.8836108966
 20
74.4546314654
 30
0.0
  0
SPLINE
  5
2AC
100
AcDbEntity
  8
0
100
AcDbSpline
 62
7
  6
BYLAYER
 70
0
 71
3
 72
12
 73
8
 74
0
 42
0.0000001
 43
0.0000001
 44
0.0000000001
 40
0.0
 40
0.0
 40
0.0
 40
0.0
 40
0.3101237639
 40
0.5726297579
 40
0.7968151116
 40
0.8998668372
 40
1.0
 40
1.0
 40
1.0
 40
1.0
 10
42.0470686493
 20
75.6688303519
 30
0.0
 10
41.9128773136
 20
75.613886937
 30
0.0
 10
41.672432197
 20
75.4910163894
 30
0.0
 10
41.3855954222
 20
75.2474674497
 30
0.0
 10
41.232490701
 20
75.0112475623
 30
0.0
 10
41.1753927812
 20
74.81855854
 30
0.0
 10
41.1667181405
 20
74.7232016116
 30
0.0
 10
41.1671896204
 20
74.6763849804
 30
0.0
  0
SPLINE
  5
2AD
100
AcDbEntity
  8
0
100
AcDbSpline
 62
7
  6
BYLAYER
 70
0
 71
3
 72
19
 73
15
 74
0
 42
0.0000001
 43
0.0000001
 44
0.0000000001
 40
0.0
 40
0.0
 40
0.0
 40
0.0
 40
0.0170155815
 40
0.0383353242
 40
0.0662385594
 40
0.1015907953
 40
0.1445712566
 40
0.1950929233
 40
0.2528409877
 40
0.3173768645
 40
0.4646195026
 40
0.6315963598
 40
0.8123816543
 40
1.0
 40
1.0
 40
1.0
 40
1.0
 10
40.8836108966
 20
71.9926120825
 30
0.0
 10
40.8836128982
 20
72.0087158769
 30
0.0
 10
40.895466574
 20
72.0450521908
 30
0.0
 10
40.9392209079
 20
72.0913384914
 30
0.0
 10
41.0063020569
 20
72.1356594907
 30
0.0
 10
41.0975389988
 20
72.17846999
 30
0.0
 10
41.2123985706
 20
72.2197755637
 30
0.0
 10
41.3501425895
 20
72.2590304686
 30
0.0
 10
41.5095305509
 20
72.2959041781
 30
0.0
 10
41.7601998777
 20
72.3434410366
 30
0.0
 10
42.1155022901
 20
72.3924958909
 30
0.0
 10
42.5821833045
 20
72.4348720641
 30
0.0
 10
43.0883162257
 20
72.4609683389
 30
0.0
 10
43.4370074593
 20
72.4668413032
 30
0.0
 10
43.6145721982
 20
72.4668413032
 30
0.0
  0
SPLINE
  5
2AE
100
AcDbEntity
  8
0
100
AcDbSpline
 62
7
  6
BYLAYER
 70
0
 71
3
 72
13
 73
9
 74
0
 42
0.0000001
 43
0.0000001
 44
0.0000000001
 40
0.0
 40
0.0
 40
0.0
 40
0.0
 40
0.3212204356
 40
0.611781968
 40
0.7369153399
 40
0.8446747061
 40
0.9328323023
 40
1.0
 40
1.0
 40
1.0
 40
1.0
 10
43.6145721982
 20
94.5037049287
 30
0.0
 10
43.4492083604
 20
94.5037049287
 30
0.0
 10
43.134219366
 20
94.4953665704
 30
0.0
 10
42.7558311935
 20
94.4638075908
 30
0.0
 10
42.4891080424
 20
94.4249159409
 30
0.0
 10
42.3268767172
 20
94.3926327692
 30
0.0
 10
42.1962248712
 20
94.3567353918
 30
0.0
 10
42.1214491819
 20
94.3271863631
 30
0.0
 10
42.0910439145
 20
94.3107198329
 30
0.0
  0
SPLINE
  5
2AF
100
AcDbEntity
  8
0
100
AcDbSpline
 62
7
  6
BYLAYER
 70
0
 71
3
 72
9
 73
5
 74
0
 42
0.0000001
 43
0.0000001
 44
0.0000000001
 40
0.0
 40
0.0
 40
0.0
 40
0.0
 40
0.2335037915
 40
1.0
 40
1.0
 40
1.0
 40
1.0
 10
45.6102515283
 20
93.1887384138
 30
0.0
 10
45.6093944894
 20
93.1910105971
 30
0.0
 10
45.6052393237
 20
93.2005592822
 30
0.0
 10
45.5992990799
 20
93.2092642544
 30
0.0
 10
45.594215082
 20
93.2154041971
 30
0.0
  0
SPLINE
  5
2B0
100
AcDbEntity
  8
0
100
AcDbSpline
 62
7
  6
BYLAYER
 70
0
 71
3
 72
16
 73
12
 74
0
 42
0.0000001
 43
0.0000001
 44
0.0000000001
 40
0.0
 40
0.0
 40
0.0
 40
0.0
 40
0.0222691256
 40
0.0504837442
 40
0.0850846086
 40
0.1261898556
 40
0.2272410523
 40
0.3514673509
 40
0.4953453185
 40
0.6546752369
 40
1.0
 40
1.0
 40
1.0
 40
1.0
 10
45.594215082
 20
93.2154041971
 30
0.0
 10
45.5846276085
 20
93.2269829859
 30
0.0
 10
45.5585060859
 20
93.2495082756
 30
0.0
 10
45.5089213241
 20
93.2787274838
 30
0.0
 10
45.4446617774
 20
93.3071918213
 30
0.0
 10
45.3318901709
 20
93.3464301538
 30
0.0
 10
45.1570416012
 20
93.389771004
 30
0.0
 10
44.911468708
 20
93.4326951984
 30
0.0
 10
44.6249521507
 20
93.4677894973
 30
0.0
 10
44.1885306887
 20
93.5033358321
 30
0.0
 10
43.8476856014
 20
93.5132751278
 30
0.0
 10
43.6145721982
 20
93.5132751278
 30
0.0
  0
SPLINE
  5
2B1
100
AcDbEntity
  8
0
100
AcDbSpline
 62
7
  6
BYLAYER
 70
0
 71
3
 72
19
 73
15
 74
0
 42
0.0000001
 43
0.0000001
 44
0.0000000001
 40
0.0
 40
0.0
 40
0.0
 40
0.0
 40
0.1876218212
 40
0.3684028601
 40
0.5353750785
 40
0.6826151366
 40
0.7471501585
 40
0.8048997244
 40
0.8554210251
 40
0.8984043348
 40
0.9337592903
 40
0.9616623643
 40
0.9829840856
 40
1.0
 40
1.0
 40
1.0
 40
1.0
 10
43.6145721982
 20
72.4668413032
 30
0.0
 10
43.7921402786
 20
72.4668413032
 30
0.0
 10
44.1408308655
 20
72.4609683384
 30
0.0
 10
44.6469588713
 20
72.4348727124
 30
0.0
 10
45.1136290257
 20
72.3924964977
 30
0.0
 10
45.4689244966
 20
72.3434458933
 30
0.0
 10
45.7195918226
 20
72.2959082345
 30
0.0
 10
45.878981097
 20
72.2590387663
 30
0.0
 10
46.0167281947
 20
72.2197802171
 30
0.0
 10
46.1315925683
 20
72.1784746823
 30
0.0
 10
46.2228375913
 20
72.13566776
 30
0.0
 10
46.2899179044
 20
72.0913379473
 30
0.0
 10
46.3336781223
 20
72.0450562438
 30
0.0
 10
46.3455355015
 20
72.0087161971
 30
0.0
 10
46.3455334999
 20
71.9926120829
 30
0.0
  0
SPLINE
  5
2B2
100
AcDbEntity
  8
0
100
AcDbSpline
 62
7
  6
BYLAYER
 70
0
 71
3
 72
16
 73
12
 74
0
 42
0.0000001
 43
0.0000001
 44
0.0000000001
 40
0.0
 40
0.0
 40
0.0
 40
0.0
 40
0.3453247631
 40
0.5046546815
 40
0.6485326491
 40
0.7727589477
 40
0.8738101444
 40
0.9149153914
 40
0.9495162558
 40
0.9777308744
 40
1.0
 40
1.0
 40
1.0
 40
1.0
 10
43.6145721982
 20
93.5132751278
 30
0.0
 10
43.3814587951
 20
93.5132751278
 30
0.0
 10
43.0406137077
 20
93.5033358321
 30
0.0
 10
42.6041922457
 20
93.4677894973
 30
0.0
 10
42.3176756884
 20
93.4326951984
 30
0.0
 10
42.0721027952
 20
93.389771004
 30
0.0
 10
41.8972542255
 20
93.3464301538
 30
0.0
 10
41.784482619
 20
93.3071918213
 30
0.0
 10
41.7202230724
 20
93.2787274838
 30
0.0
 10
41.6706383106
 20
93.2495082756
 30
0.0
 10
41.6445167879
 20
93.2269829859
 30
0.0
 10
41.6349293145
 20
93.2154041971
 30
0.0
  0
SPLINE
  5
2B3
100
AcDbEntity
  8
0
100
AcDbSpline
 62
7
  6
BYLAYER
 70
0
 71
3
 72
9
 73
5
 74
0
 42
0.0000001
 43
0.0000001
 44
0.0000000001
 40
0.0
 40
0.0
 40
0.0
 40
0.0
 40
0.2689950593
 40
1.0
 40
1.0
 40
1.0
 40
1.0
 10
41.6349293145
 20
93.2154041971
 30
0.0
 10
41.6331455511
 20
93.2132499466
 30
0.0
 10
41.6267825703
 20
93.2050327256
 30
0.0
 10
41.621575274
 20
93.1958500137
 30
0.0
 10
41.6188928681
 20
93.1887384138
 30
0.0
  0
SPLINE
  5
2B4
100
AcDbEntity
  8
0
100
AcDbSpline
 62
7
  6
BYLAYER
 70
0
 71
3
 72
13
 73
9
 74
0
 42
0.0000001
 43
0.0000001
 44
0.0000000001
 40
0.0
 40
0.0
 40
0.0
 40
0.0
 40
0.0671676977
 40
0.1553252939
 40
0.2630846601
 40
0.388218032
 40
0.6787795644
 40
1.0
 40
1.0
 40
1.0
 40
1.0
 10
45.1381004819
 20
94.3107198329
 30
0.0
 10
45.1076952146
 20
94.3271863631
 30
0.0
 10
45.0329195253
 20
94.3567353918
 30
0.0
 10
44.9022676792
 20
94.3926327692
 30
0.0
 10
44.7400363541
 20
94.4249159409
 30
0.0
 10
44.473313203
 20
94.4638075908
 30
0.0
 10
44.0949250305
 20
94.4953665704
 30
0.0
 10
43.7799360361
 20
94.5037049287
 30
0.0
 10
43.6145721982
 20
94.5037049287
 30
0.0
  0
ELLIPSE
  5
2B5
100
AcDbEntity
  8
0
100
AcDbEllipse
 62
7
  6
BYLAYER
 10
43.6145721982
 20
75.1980195884
 30
0.0
 11
1.8
 21
0.0
 31
0.0
 40
0.5320888862
 41
-0.0000000007
 42
2.6276953407
  0
ENDSEC
  0
SECTION
  2
OBJECTS
  0
DICTIONARY
  5
C
100
AcDbDictionary
280
0
281
1
  3
ACAD_GROUP
350
D
  3
ACAD_MLINESTYLE
350
17
  3
ACAD_LAYOUT
350
1A
  3
ACAD_PLOTSETTINGS
350
19
  3
ACAD_PLOTSTYLENAME
350
E
  0
DICTIONARY
  5
D
102
{ACAD_REACTORS
330
C
102
}
100
AcDbDictionary
280
0
281
1
  0
ACDBDICTIONARYWDFLT
  5
E
102
{ACAD_REACTORS
330
C
102
}
100
AcDbDictionary
281
1
  3
Normal
350
F
100
AcDbDictionaryWithDefault
340
F
  0
DICTIONARY
  5
17
102
{ACAD_REACTORS
330
C
102
}
100
AcDbDictionary
280
0
281
1
  3
Standard
350
18
  0
DICTIONARY
  5
19
102
{ACAD_REACTORS
330
C
102
}
100
AcDbDictionary
281
1
  0
DICTIONARY
  5
1A
102
{ACAD_REACTORS
330
C
102
}
100
AcDbDictionary
281
1
  3
Model
350
2B6
  3
Layout1
350
2B7
  0
ACDBPLACEHOLDER
  5
F
102
{ACAD_REACTORS
330
E
102
}
  0
MLINESTYLE
  5
18
102
{ACAD_REACTORS
330
17
102
}
100
AcDbMlineStyle
  2
STANDARD
 70
0
  3

 62
256
 51
90.0
 52
90.0
 71
2
 49
0.5
 62
256
  6
BYLAYER
 49
-0.5
 62
256
  6
BYLAYER
  0
LAYOUT
  5
2B6
102
{ACAD_REACTORS
330
1A
102
}
100
AcDbPlotSettings
  1

  2
none_device
  4

  6

 40
0.0
 41
0.0
 42
0.0
 43
0.0
 44
210.0
 45
297.0
 46
0.0
 47
0.0
 48
0.0
 49
0.0
140
0.0
141
0.0
142
1.0
143
1.0
 70
1024
 72
1
 73
0
 74
0
  7

 75
0
147
1.0
148
0.0
149
0.0
100
AcDbLayout
  1
Model
 70
0
 71
0
 10
0.0
 20
0.0
 11
210.0
 21
297.0
 12
0.0
 22
0.0
 32
0.0
 14
0.0
 24
0.0
 34
0.0
 15
0.0
 25
0.0
 35
0.0
146
0.0
 13
0.0
 23
0.0
 33
0.0
 16
1.0
 26
0.0
 36
0.0
 17
0.0
 27
1.0
 37
0.0
 76
0
330
210
345
0
346
0
  0
LAYOUT
  5
2B7
102
{ACAD_REACTORS
330
1A
102
}
100
AcDbPlotSettings
  1

  2
none_device
  4

  6

 40
0.0
 41
0.0
 42
0.0
 43
0.0
 44
210.0
 45
297.0
 46
0.0
 47
0.0
 48
0.0
 49
0.0
140
0.0
141
0.0
142
1.0
143
1.0
 70
0
 72
1
 73
0
 74
0
  7

 75
0
147
1.0
148
0.0
149
0.0
100
AcDbLayout
  1
Layout1
 70
0
 71
1
 10
0.0
 20
0.0
 11
210.0
 21
297.0
 12
0.0
 22
0.0
 32
0.0
 14
0.0
 24
0.0
 34
0.0
 15
0.0
 25
0.0
 35
0.0
146
0.0
 13
0.0
 23
0.0
 33
0.0
 16
1.0
 26
0.0
 36
0.0
 17
0.0
 27
1.0
 37
0.0
 76
0
330
211
345
0
346
0
  0
ENDSEC
  0
EOF
