999
DXF file: C:\Users\sesa63760\Dev\_Creo\CAD\MCADUE0002560_3D-CAD\drw0001_5.dxf
999
Pro/ENGINEER 2019471 by Parametric Technology Corporation
  0
SECTION
  2
HEADER
  9
$ACADVER
  1
AC1024
  9
$DWGCODEPAGE
  3
ANSI_1252
  9
$EXTMAX
 10
188.7832574107
 20
266.9934640523
 30
0.0
  9
$EXTMIN
 10
0.0
 20
0.0
 30
0.0
  9
$LIMMIN
 10
0.0
 20
0.0
  9
$LIMMAX
 10
188.7832574107
 20
266.9934640523
  9
$VIEWCTR
 10
94.3916287054
 20
133.4967320261
  9
$VIEWSIZE
 40
266.9934640523
  9
$CLAYER
  8
0
  9
$LTSCALE
 40
17.4040183975
  9
$CELTYPE
  6
BYLAYER
  9
$DIMSCALE
 40
1.0
  9
$DIMASZ
 40
2.2474197311
  9
$DIMEXO
 40
1.0
  9
$DIMDLI
 40
12.0245945292
  9
$DIMEXE
 40
1.0
  9
$DIMCEN
 40
2.8479302832
  9
$DIMLFAC
 40
1.0
  9
$DIMBLK
  1
_FILLED
  9
$DIMALT
 70
0
  9
$DIMALTF
 40
0.0393700787
  9
$DIMTXT
 40
3.1463876235
  9
$DIMTOL
 70
1
  9
$DIMLIM
 70
0
  9
$DIMTFAC
 40
1.0
  9
$DIMTP
 40
0.01
  9
$DIMTM
 40
0.01
  9
$DIMGAP
 40
0.625
  9
$DIMDSEP
 70
46
  9
$AUNITS
 70
0
  9
$PDMODE
 70
3
  9
$PDSIZE
 40
0.3125
  9
$HANDSEED
  5
2AA
  9
$TILEMODE
 70
1
  9
$MEASUREMENT
 70
1
  9
$INSUNITS
 70
4
  0
ENDSEC
  0
SECTION
  2
CLASSES
  0
CLASS
  1
ACDBDICTIONARYWDFLT
  2
AcDbDictionaryWithDefault
  3
AutoCAD 2000
 90
0
 91
1
280
0
281
0
  0
CLASS
  1
ACDBPLACEHOLDER
  2
AcDbPlaceHolder
  3
AutoCAD 2000
 90
0
 91
1
280
0
281
0
  0
CLASS
  1
LAYOUT
  2
AcDbLayout
  3
AutoCAD 2000
 90
0
 91
0
280
0
281
0
  0
ENDSEC
  0
SECTION
  2
TABLES
  0
TABLE
  2
VPORT
  5
8
100
AcDbSymbolTable
 70
2
  0
VPORT
  5
1F4
100
AcDbSymbolTableRecord
100
AcDbViewportTableRecord
  2
*ACTIVE
 70
0
 10
0.0
 20
0.0
 11
1.0
 21
1.0
 12
94.3916287054
 22
133.4967320261
 13
0.0
 23
0.0
 14
1.0
 24
1.0
 15
0.0
 25
0.0
 16
0.0
 26
0.0
 36
1.0
 17
0.0
 27
0.0
 37
0.0
 40
266.9934640523
 41
0.7070707071
 42
50.0
 43
0.0
 44
0.0
 50
0.0
 51
0.0
 71
0
 72
100
 73
1
 74
1
 75
0
 76
0
 77
0
 78
0
  0
ENDTAB
  0
TABLE
  2
LTYPE
  5
5
100
AcDbSymbolTable
 70
6
  0
LTYPE
  5
14
100
AcDbSymbolTableRecord
100
AcDbLinetypeTableRecord
  2
BYBLOCK
 70
0
  3

 72
65
 73
0
 40
0.0
  0
LTYPE
  5
15
100
AcDbSymbolTableRecord
100
AcDbLinetypeTableRecord
  2
BYLAYER
 70
0
  3

 72
65
 73
0
 40
0.0
  0
LTYPE
  5
16
100
AcDbSymbolTableRecord
100
AcDbLinetypeTableRecord
  2
CONTINUOUS
 70
64
  3
Solid line
 72
65
 73
0
 40
0.0
  0
LTYPE
  5
1F5
100
AcDbSymbolTableRecord
100
AcDbLinetypeTableRecord
  2
CENTER
 70
64
  3
____ _ ____ _ ____ _ ____ _ ____ _ ____ _ ____
 72
65
 73
4
 40
0.6
 49
0.375
 74
0
 49
-0.075
 74
0
 49
0.075
 74
0
 49
-0.075
 74
0
  0
LTYPE
  5
1F6
100
AcDbSymbolTableRecord
100
AcDbLinetypeTableRecord
  2
HIDDEN
 70
64
  3
- - - - - - - - - - - - - - - - - - - -
 72
65
 73
2
 40
0.2
 49
0.1
 74
0
 49
-0.1
 74
0
  0
LTYPE
  5
1F7
100
AcDbSymbolTableRecord
100
AcDbLinetypeTableRecord
  2
PHANTOM
 70
64
  3
_____ _ _ _____ _ _ _____ _ _ _____
 72
65
 73
6
 40
0.8
 49
0.45
 74
0
 49
-0.05
 74
0
 49
0.1
 74
0
 49
-0.05
 74
0
 49
0.1
 74
0
 49
-0.05
 74
0
  0
LTYPE
  5
1F8
100
AcDbSymbolTableRecord
100
AcDbLinetypeTableRecord
  2
DOT
 70
64
  3
. . . . . . . . . . . . . . . . . . . .
 72
65
 73
2
 40
0.2
 49
0.1
 74
0
 49
-0.1
 74
0
  0
LTYPE
  5
1F9
100
AcDbSymbolTableRecord
100
AcDbLinetypeTableRecord
  2
DASHED
 70
64
  3
- - - - - - - - - - - - - - - - - - - -
 72
65
 73
2
 40
0.2
 49
0.1
 74
0
 49
-0.1
 74
0
  0
ENDTAB
  0
TABLE
  2
LAYER
  5
2
100
AcDbSymbolTable
 70
36
  0
LAYER
  5
10
100
AcDbSymbolTableRecord
100
AcDbLayerTableRecord
  2
0
 70
0
 62
7
  6
CONTINUOUS
370
-3
390
F
  0
LAYER
  5
1FA
100
AcDbSymbolTableRecord
100
AcDbLayerTableRecord
  2
DEFAULT_1
 70
0
 62
7
  6
CENTER
370
-3
390
F
  0
LAYER
  5
1FB
100
AcDbSymbolTableRecord
100
AcDbLayerTableRecord
  2
DEFAULT_2
 70
0
 62
8
  6
HIDDEN
370
-3
390
F
  0
LAYER
  5
1FC
100
AcDbSymbolTableRecord
100
AcDbLayerTableRecord
  2
DEFAULT_3
 70
0
 62
7
  6
PHANTOM
370
-3
390
F
  0
LAYER
  5
1FD
100
AcDbSymbolTableRecord
100
AcDbLayerTableRecord
  2
00_COMPONENTS
 70
0
 62
7
  6
CONTINUOUS
370
-3
390
F
  0
LAYER
  5
1FE
100
AcDbSymbolTableRecord
100
AcDbLayerTableRecord
  2
01_1_DEFAULT_DATUMS
 70
0
 62
7
  6
CONTINUOUS
370
-3
390
F
  0
LAYER
  5
1FF
100
AcDbSymbolTableRecord
100
AcDbLayerTableRecord
  2
01_PLANES
 70
0
 62
7
  6
CONTINUOUS
370
-3
390
F
  0
LAYER
  5
200
100
AcDbSymbolTableRecord
100
AcDbLayerTableRecord
  2
02_COORD_SYS
 70
0
 62
7
  6
CONTINUOUS
370
-3
390
F
  0
LAYER
  5
201
100
AcDbSymbolTableRecord
100
AcDbLayerTableRecord
  2
03_AXES
 70
0
 62
7
  6
CONTINUOUS
370
-3
390
F
  0
LAYER
  5
202
100
AcDbSymbolTableRecord
100
AcDbLayerTableRecord
  2
04_POINTS
 70
0
 62
7
  6
CONTINUOUS
370
-3
390
F
  0
LAYER
  5
203
100
AcDbSymbolTableRecord
100
AcDbLayerTableRecord
  2
05_CURVES
 70
0
 62
7
  6
CONTINUOUS
370
-3
390
F
  0
LAYER
  5
204
100
AcDbSymbolTableRecord
100
AcDbLayerTableRecord
  2
06_SURFS
 70
0
 62
7
  6
CONTINUOUS
370
-3
390
F
  0
LAYER
  5
205
100
AcDbSymbolTableRecord
100
AcDbLayerTableRecord
  2
07_COSMETICS
 70
0
 62
7
  6
CONTINUOUS
370
-3
390
F
  0
LAYER
  5
206
100
AcDbSymbolTableRecord
100
AcDbLayerTableRecord
  2
10_NOTES
 70
0
 62
7
  6
CONTINUOUS
370
-3
390
F
  0
LAYER
  5
207
100
AcDbSymbolTableRecord
100
AcDbLayerTableRecord
  2
11_NOTES_PUB
 70
0
 62
7
  6
CONTINUOUS
370
-3
390
F
  0
LAYER
  5
208
100
AcDbSymbolTableRecord
100
AcDbLayerTableRecord
  2
13_REF_GTOL
 70
0
 62
7
  6
CONTINUOUS
370
-3
390
F
  0
LAYER
  5
209
100
AcDbSymbolTableRecord
100
AcDbLayerTableRecord
  2
16_MISC
 70
0
 62
7
  6
CONTINUOUS
370
-3
390
F
  0
LAYER
  5
20A
100
AcDbSymbolTableRecord
100
AcDbLayerTableRecord
  2
17_NO_PRINT
 70
0
 62
7
  6
CONTINUOUS
370
-3
390
F
  0
LAYER
  5
20B
100
AcDbSymbolTableRecord
100
AcDbLayerTableRecord
  2
18_DATUM_CAMS_JOINTS
 70
0
 62
7
  6
CONTINUOUS
370
-3
390
F
  0
LAYER
  5
20C
100
AcDbSymbolTableRecord
100
AcDbLayerTableRecord
  2
19_DATUM_FUNCTIONAL
 70
0
 62
7
  6
CONTINUOUS
370
-3
390
F
  0
LAYER
  5
20D
100
AcDbSymbolTableRecord
100
AcDbLayerTableRecord
  2
20_DATUM_KINEMATIC_SCHEME
 70
0
 62
7
  6
CONTINUOUS
370
-3
390
F
  0
ENDTAB
  0
TABLE
  2
STYLE
  5
3
100
AcDbSymbolTable
 70
1
  0
STYLE
  5
11
100
AcDbSymbolTableRecord
100
AcDbTextStyleTableRecord
  2
STANDARD
 70
0
 40
0.0
 41
0.8
 50
0.0
 71
0
 42
0.2
  3
txt
  4

  0
STYLE
  5
20E
100
AcDbSymbolTableRecord
100
AcDbTextStyleTableRecord
  2
TEXTSTYLE_1
 70
0
 40
0.0
 41
0.8
 50
0.0
 71
0
 42
0.2
  3
gdt
  4

  0
ENDTAB
  0
TABLE
  2
VIEW
  5
6
100
AcDbSymbolTable
 70
0
  0
ENDTAB
  0
TABLE
  2
UCS
  5
7
100
AcDbSymbolTable
 70
0
  0
ENDTAB
  0
TABLE
  2
APPID
  5
9
100
AcDbSymbolTable
 70
1
  0
APPID
  5
20F
100
AcDbSymbolTableRecord
100
AcDbRegAppTableRecord
  2
ACAD
 70
0
  0
ENDTAB
  0
TABLE
  2
BLOCK_RECORD
  5
1
100
AcDbSymbolTable
 70
0
  0
BLOCK_RECORD
  5
210
100
AcDbSymbolTableRecord
100
AcDbBlockTableRecord
  2
*Model_Space
  0
BLOCK_RECORD
  5
211
100
AcDbSymbolTableRecord
100
AcDbBlockTableRecord
  2
*Paper_Space
  0
BLOCK_RECORD
  5
212
100
AcDbSymbolTableRecord
100
AcDbBlockTableRecord
  2
_FILLED
  0
ENDTAB
  0
TABLE
  2
DIMSTYLE
  5
A
100
AcDbSymbolTable
 70
1
100
AcDbDimStyleTable
 71
0
  0
DIMSTYLE
105
213
100
AcDbSymbolTableRecord
100
AcDbDimStyleTableRecord
  2
STANDARD
 70
0
  3

  4

 40
1.0
 41
2.2474197311
 42
1.0
 43
0.38
 44
1.0
 45
0.0
 46
0.0
 47
0.01
 48
0.01
140
3.1463876235
141
0.09
142
0.0
143
25.4
144
1.0
145
0.0
146
1.0
147
0.625
 71
1
 72
0
 73
0
 74
0
 75
0
 76
0
 77
1
 78
8
 79
2
170
0
171
1
172
0
173
0
174
0
175
0
176
0
177
0
178
0
270
2
179
2
271
2
272
2
273
2
274
2
275
0
280
0
281
0
282
0
283
1
284
8
285
0
286
0
287
3
288
0
340
11
278
46
341
212
342
212
343
212
344
212
  0
ENDTAB
  0
ENDSEC
  0
SECTION
  2
BLOCKS
  0
BLOCK
  5
20
100
AcDbEntity
  8
0
100
AcDbBlockBegin
  2
*Model_Space
 70
0
 10
0.0
 20
0.0
 30
0.0
  3
*Model_Space
  1

  0
ENDBLK
  5
21
100
AcDbEntity
  8
0
100
AcDbBlockEnd
  0
BLOCK
  5
1C
100
AcDbEntity
  8
0
100
AcDbBlockBegin
  2
*Paper_Space
 70
0
 10
0.0
 20
0.0
 30
0.0
  3
*Paper_Space
  1

  0
ENDBLK
  5
1D
100
AcDbEntity
  8
0
100
AcDbBlockEnd
  0
BLOCK
  5
214
100
AcDbEntity
  8
0
100
AcDbBlockBegin
  2
_FILLED
 70
64
 10
0.0
 20
0.0
  3
_FILLED
  1

  0
SOLID
  5
215
100
AcDbEntity
  8
0
  6
BYBLOCK
 62
0
100
AcDbTrace
 10
0.0
 20
0.0
 11
-1.0
 21
0.25
 12
-1.0
 22
-0.25
 13
-1.0
 23
-0.25
  0
ENDBLK
  5
216
100
AcDbEntity
  8
0
  6
BYBLOCK
 62
0
100
AcDbBlockEnd
  0
ENDSEC
  0
SECTION
  2
ENTITIES
  0
LINE
  5
217
100
AcDbEntity
  8
0
100
AcDbLine
 62
7
  6
CONTINUOUS
 10
24.0060077903
 20
190.3463892437
 11
24.2925350054
 21
192.0784400513
  0
LINE
  5
218
100
AcDbEntity
  8
0
100
AcDbLine
 62
7
  6
CONTINUOUS
 10
22.0060077903
 20
174.8463892437
 11
22.0060077903
 21
74.3463892437
  0
LINE
  5
219
100
AcDbEntity
  8
0
100
AcDbLine
 62
7
  6
CONTINUOUS
 10
23.0060077903
 20
174.8463892437
 11
23.0060077903
 21
74.3463892437
  0
LINE
  5
21A
100
AcDbEntity
  8
0
100
AcDbLine
 62
7
  6
CONTINUOUS
 10
23.0060077903
 20
180.3463892437
 11
23.0060077903
 21
190.3463892437
  0
LINE
  5
21B
100
AcDbEntity
  8
0
100
AcDbLine
 62
7
  6
CONTINUOUS
 10
24.0060077903
 20
180.3463892437
 11
24.0060077903
 21
190.3463892437
  0
LINE
  5
21C
100
AcDbEntity
  8
0
100
AcDbLine
 62
7
  6
CONTINUOUS
 10
31.9838697038
 20
178.0200374213
 11
31.7869148336
 21
177.8463913635
  0
LINE
  5
21D
100
AcDbEntity
  8
0
100
AcDbLine
 62
7
  6
CONTINUOUS
 10
36.4933435278
 20
194.0597272562
 11
32.7776774621
 21
192.8338010372
  0
LINE
  5
21E
100
AcDbEntity
  8
0
100
AcDbLine
 62
7
  6
CONTINUOUS
 10
24.0060077903
 20
72.3463892437
 11
170.0060077903
 21
72.3463892437
  0
LINE
  5
21F
100
AcDbEntity
  8
0
100
AcDbLine
 62
7
  6
CONTINUOUS
 10
172.0060077903
 20
74.3463892437
 11
22.0060077903
 21
74.3463892437
  0
LINE
  5
220
100
AcDbEntity
  8
0
100
AcDbLine
 62
7
  6
CONTINUOUS
 10
30.5888633579
 20
180.3463892437
 11
30.9990619507
 21
178.0200374214
  0
LINE
  5
221
100
AcDbEntity
  8
0
100
AcDbLine
 62
7
  6
CONTINUOUS
 10
41.18621354
 20
195.2927533722
 11
41.1863553706
 21
195.2880568846
  0
LINE
  5
222
100
AcDbEntity
  8
0
100
AcDbLine
 62
7
  6
CONTINUOUS
 10
41.1860322588
 20
195.3006683596
 11
41.18621354
 21
195.2927533722
  0
LINE
  5
223
100
AcDbEntity
  8
0
100
AcDbLine
 62
7
  6
CONTINUOUS
 10
41.4910077903
 20
195.2972338276
 11
41.4910077903
 21
195.0604588209
  0
LINE
  5
224
100
AcDbEntity
  8
0
100
AcDbLine
 62
7
  6
CONTINUOUS
 10
42.5210077903
 20
195.0604587778
 11
42.5210077903
 21
195.2972338276
  0
LINE
  5
225
100
AcDbEntity
  8
0
100
AcDbLine
 62
7
  6
CONTINUOUS
 10
42.8258020407
 20
195.2927533722
 11
42.8259833219
 21
195.3006683596
  0
LINE
  5
226
100
AcDbEntity
  8
0
100
AcDbLine
 62
7
  6
CONTINUOUS
 10
42.8256602101
 20
195.2880568846
 11
42.8258020407
 21
195.2927533722
  0
LINE
  5
227
100
AcDbEntity
  8
0
100
AcDbLine
 62
7
  6
CONTINUOUS
 10
31.5736711109
 20
180.3463892437
 11
31.9838697038
 21
178.0200374214
  0
LINE
  5
228
100
AcDbEntity
  8
0
100
AcDbLine
 62
7
  6
CONTINUOUS
 10
146.4933435278
 20
194.0597272562
 11
142.7776774621
 21
192.8338010372
  0
LINE
  5
229
100
AcDbEntity
  8
0
100
AcDbLine
 62
7
  6
CONTINUOUS
 10
24.2287214739
 20
191.6926886358
 11
24.0060077903
 21
192.0784400512
  0
LINE
  5
22A
100
AcDbEntity
  8
0
100
AcDbLine
 62
7
  6
CONTINUOUS
 10
70.5060077903
 20
189.3463892437
 11
70.5060077903
 21
181.3463892437
  0
LINE
  5
22B
100
AcDbEntity
  8
0
100
AcDbLine
 62
7
  6
CONTINUOUS
 10
75.5060077903
 20
189.3463892437
 11
75.5060077903
 21
181.3463892437
  0
LINE
  5
22C
100
AcDbEntity
  8
0
100
AcDbLine
 62
7
  6
CONTINUOUS
 10
169.7832941068
 20
191.6926886358
 11
170.0060077903
 21
192.0784400512
  0
LINE
  5
22D
100
AcDbEntity
  8
0
100
AcDbLine
 62
7
  6
CONTINUOUS
 10
22.0060077903
 20
174.8463892437
 11
172.0060077903
 21
174.8463892437
  0
LINE
  5
22E
100
AcDbEntity
  8
0
100
AcDbLine
 62
7
  6
CONTINUOUS
 10
170.0060077903
 20
176.8463892437
 11
24.0060077903
 21
176.8463892437
  0
LINE
  5
22F
100
AcDbEntity
  8
0
100
AcDbLine
 62
7
  6
CONTINUOUS
 10
162.0281458769
 20
178.0200374214
 11
31.9838697038
 21
178.0200374214
  0
LINE
  5
230
100
AcDbEntity
  8
0
100
AcDbLine
 62
7
  6
CONTINUOUS
 10
47.5186720529
 20
194.0597272562
 11
51.2343381185
 21
192.8338010372
  0
LINE
  5
231
100
AcDbEntity
  8
0
100
AcDbLine
 62
7
  6
CONTINUOUS
 10
146.5560077903
 20
194.0697978214
 11
146.493343625
 21
194.0597272882
  0
LINE
  5
232
100
AcDbEntity
  8
0
100
AcDbLine
 62
7
  6
CONTINUOUS
 10
23.0060077903
 20
180.3463892437
 11
171.0060077903
 21
180.3463892437
  0
LINE
  5
233
100
AcDbEntity
  8
0
100
AcDbLine
 62
7
  6
CONTINUOUS
 10
75.5060077903
 20
181.3463892437
 11
70.5060077903
 21
181.3463892437
  0
LINE
  5
234
100
AcDbEntity
  8
0
100
AcDbLine
 62
7
  6
CONTINUOUS
 10
47.4560077903
 20
194.0697978214
 11
47.5186719557
 21
194.0597272882
  0
LINE
  5
235
100
AcDbEntity
  8
0
100
AcDbLine
 62
7
  6
CONTINUOUS
 10
151.18621354
 20
195.2927533722
 11
151.1863553706
 21
195.2880568846
  0
LINE
  5
236
100
AcDbEntity
  8
0
100
AcDbLine
 62
7
  6
CONTINUOUS
 10
151.1860322588
 20
195.3006683596
 11
151.18621354
 21
195.2927533722
  0
LINE
  5
237
100
AcDbEntity
  8
0
100
AcDbLine
 62
7
  6
CONTINUOUS
 10
151.4910077903
 20
195.2972338276
 11
151.4910077903
 21
195.0604588209
  0
LINE
  5
238
100
AcDbEntity
  8
0
100
AcDbLine
 62
7
  6
CONTINUOUS
 10
152.5210077903
 20
195.0604587778
 11
152.5210077903
 21
195.2972338276
  0
LINE
  5
239
100
AcDbEntity
  8
0
100
AcDbLine
 62
7
  6
CONTINUOUS
 10
152.8258020407
 20
195.2927533722
 11
152.8259833219
 21
195.3006683596
  0
LINE
  5
23A
100
AcDbEntity
  8
0
100
AcDbLine
 62
7
  6
CONTINUOUS
 10
152.8256602101
 20
195.2880568846
 11
152.8258020407
 21
195.2927533722
  0
LINE
  5
23B
100
AcDbEntity
  8
0
100
AcDbLine
 62
7
  6
CONTINUOUS
 10
162.0281458769
 20
178.0200374214
 11
162.4383444698
 21
180.3463892437
  0
LINE
  5
23C
100
AcDbEntity
  8
0
100
AcDbLine
 62
7
  6
CONTINUOUS
 10
163.4231522228
 20
180.3463892437
 11
163.0129536299
 21
178.0200374214
  0
LINE
  5
23D
100
AcDbEntity
  8
0
100
AcDbLine
 62
7
  6
CONTINUOUS
 10
30.9990619507
 20
178.0200374214
 11
31.9838697037
 21
178.193685599
  0
LINE
  5
23E
100
AcDbEntity
  8
0
100
AcDbLine
 62
7
  6
CONTINUOUS
 10
23.0060077903
 20
187.7275870902
 11
171.0060077903
 21
187.7275870902
  0
LINE
  5
23F
100
AcDbEntity
  8
0
100
AcDbLine
 62
7
  6
CONTINUOUS
 10
171.0060077903
 20
188.5936124939
 11
170.0060077903
 21
188.5936124939
  0
LINE
  5
240
100
AcDbEntity
  8
0
100
AcDbLine
 62
7
  6
CONTINUOUS
 10
24.0060077903
 20
188.5936124939
 11
23.0060077903
 21
188.5936124939
  0
LINE
  5
241
100
AcDbEntity
  8
0
100
AcDbLine
 62
7
  6
CONTINUOUS
 10
75.5060077903
 20
189.3463892437
 11
70.5060077903
 21
189.3463892437
  0
LINE
  5
242
100
AcDbEntity
  8
0
100
AcDbLine
 62
7
  6
CONTINUOUS
 10
170.0060077903
 20
189.4596378977
 11
24.0060077903
 21
189.4596378977
  0
LINE
  5
243
100
AcDbEntity
  8
0
100
AcDbLine
 62
7
  6
CONTINUOUS
 10
23.0060077903
 20
190.3463892437
 11
24.0060077903
 21
190.3463892437
  0
LINE
  5
244
100
AcDbEntity
  8
0
100
AcDbLine
 62
7
  6
CONTINUOUS
 10
170.0060077903
 20
190.3463892437
 11
171.0060077903
 21
190.3463892437
  0
LINE
  5
245
100
AcDbEntity
  8
0
100
AcDbLine
 62
7
  6
CONTINUOUS
 10
24.2925350054
 20
192.0784400512
 11
169.7194805753
 21
192.0784400512
  0
LINE
  5
246
100
AcDbEntity
  8
0
100
AcDbLine
 62
7
  6
CONTINUOUS
 10
169.0060077903
 20
192.3463892437
 11
25.0060077903
 21
192.3463892437
  0
LINE
  5
247
100
AcDbEntity
  8
0
100
AcDbLine
 62
7
  6
CONTINUOUS
 10
161.2343381185
 20
192.8338010372
 11
142.7776774621
 21
192.8338010372
  0
LINE
  5
248
100
AcDbEntity
  8
0
100
AcDbLine
 62
7
  6
CONTINUOUS
 10
51.2343381185
 20
192.8338010372
 11
32.7776774621
 21
192.8338010372
  0
LINE
  5
249
100
AcDbEntity
  8
0
100
AcDbLine
 62
7
  6
CONTINUOUS
 10
163.0129536299
 20
178.0200374214
 11
162.0281458769
 21
178.193685599
  0
LINE
  5
24A
100
AcDbEntity
  8
0
100
AcDbLine
 62
7
  6
CONTINUOUS
 10
152.5210077903
 20
195.0652596237
 11
152.2099736288
 21
195.0644054723
  0
LWPOLYLINE
  5
24B
100
AcDbEntity
  8
0
100
AcDbPolyline
 62
7
  6
CONTINUOUS
 90
4
 70
0
 10
42.5210077903
 20
195.0652596237
 10
42.2099736288
 20
195.0644054723
 10
41.8060259462
 20
195.0643996197
 10
41.4910077903
 20
195.0652591783
  0
LINE
  5
24C
100
AcDbEntity
  8
0
100
AcDbLine
 62
7
  6
CONTINUOUS
 10
36.493343625
 20
194.0597272882
 11
47.5186719557
 21
194.0597272882
  0
LINE
  5
24D
100
AcDbEntity
  8
0
100
AcDbLine
 62
7
  6
CONTINUOUS
 10
146.493343625
 20
194.0597272882
 11
157.5186719557
 21
194.0597272882
  0
LINE
  5
24E
100
AcDbEntity
  8
0
100
AcDbLine
 62
7
  6
CONTINUOUS
 10
157.455962517
 20
194.0697978214
 11
146.5560530636
 21
194.0697978214
  0
LINE
  5
24F
100
AcDbEntity
  8
0
100
AcDbLine
 62
7
  6
CONTINUOUS
 10
47.455962517
 20
194.0697978214
 11
36.5560530636
 21
194.0697978214
  0
LINE
  5
250
100
AcDbEntity
  8
0
100
AcDbLine
 62
7
  6
CONTINUOUS
 10
36.8963020527
 20
194.1919266797
 11
47.1157135279
 21
194.1919266797
  0
LINE
  5
251
100
AcDbEntity
  8
0
100
AcDbLine
 62
7
  6
CONTINUOUS
 10
146.8963020527
 20
194.1919266797
 11
157.1157135279
 21
194.1919266797
  0
LWPOLYLINE
  5
252
100
AcDbEntity
  8
0
100
AcDbPolyline
 62
7
  6
CONTINUOUS
 90
3
 70
0
 10
152.209819197
 20
195.0644054701
 10
151.8060259462
 20
195.0643996197
 10
151.4910077903
 20
195.0652591783
  0
LINE
  5
253
100
AcDbEntity
  8
0
100
AcDbLine
 62
7
  6
CONTINUOUS
 10
36.5560077903
 20
194.0697978214
 11
36.493343625
 21
194.0597272882
  0
LINE
  5
254
100
AcDbEntity
  8
0
100
AcDbLine
 62
7
  6
CONTINUOUS
 10
157.4560077903
 20
194.0697978214
 11
157.5186719557
 21
194.0597272882
  0
LINE
  5
255
100
AcDbEntity
  8
0
100
AcDbLine
 62
7
  6
CONTINUOUS
 10
170.0060077903
 20
180.3463892437
 11
170.0060077903
 21
190.3463892437
  0
LINE
  5
256
100
AcDbEntity
  8
0
100
AcDbLine
 62
7
  6
CONTINUOUS
 10
171.0060077903
 20
174.8463892437
 11
171.0060077903
 21
74.3463892437
  0
LINE
  5
257
100
AcDbEntity
  8
0
100
AcDbLine
 62
7
  6
CONTINUOUS
 10
171.0060077903
 20
180.3463892437
 11
171.0060077903
 21
190.3463892437
  0
LINE
  5
258
100
AcDbEntity
  8
0
100
AcDbLine
 62
7
  6
CONTINUOUS
 10
172.0060077903
 20
174.8463892437
 11
172.0060077903
 21
74.3463892437
  0
LINE
  5
259
100
AcDbEntity
  8
0
100
AcDbLine
 62
7
  6
CONTINUOUS
 10
157.5186720529
 20
194.0597272562
 11
161.2343381185
 21
192.8338010372
  0
LINE
  5
25A
100
AcDbEntity
  8
0
100
AcDbLine
 62
7
  6
CONTINUOUS
 10
162.2251007474
 20
177.8463913639
 11
162.0281458769
 21
178.0200374213
  0
LINE
  5
25B
100
AcDbEntity
  8
0
100
AcDbLine
 62
7
  6
CONTINUOUS
 10
170.0060077903
 20
190.3463892437
 11
169.7194805753
 21
192.0784400512
  0
ARC
  5
25C
100
AcDbEntity
  8
0
100
AcDbCircle
 62
7
  6
CONTINUOUS
 10
24.0060077903
 20
74.3463892437
 40
2.0
100
AcDbArc
 50
180.0
 51
270.0
  0
ARC
  5
25D
100
AcDbEntity
  8
0
100
AcDbCircle
 62
7
  6
CONTINUOUS
 10
42.0053438306
 20
183.3165178598
 40
12.0018156166
100
AcDbArc
 50
86.2585281983
 51
86.8909643937
  0
ARC
  5
25E
100
AcDbEntity
  8
0
100
AcDbCircle
 62
7
  6
CONTINUOUS
 10
42.00667175
 20
183.3165178598
 40
12.0018156167
100
AcDbArc
 50
93.1090356063
 51
93.7414718017
  0
ARC
  5
25F
100
AcDbEntity
  8
0
100
AcDbCircle
 62
7
  6
CONTINUOUS
 10
42.0060077903
 20
183.3463892437
 40
11.9889438651
100
AcDbArc
 50
94.5689945084
 51
115.2267375292
  0
ARC
  5
260
100
AcDbEntity
  8
0
100
AcDbCircle
 62
7
  6
CONTINUOUS
 10
42.0060077903
 20
183.3463892437
 40
11.9889438651
100
AcDbArc
 50
64.7732624708
 51
85.4310054916
  0
ARC
  5
261
100
AcDbEntity
  8
0
100
AcDbCircle
 62
7
  6
CONTINUOUS
 10
42.2219387121
 20
187.1477552796
 40
8.2059779584
100
AcDbArc
 50
97.445329429
 51
98.3670998648
  0
ARC
  5
262
100
AcDbEntity
  8
0
100
AcDbCircle
 62
7
  6
CONTINUOUS
 10
41.7963667431
 20
187.1930478767
 40
8.1602521908
100
AcDbArc
 50
81.6303175203
 51
82.5572531859
  0
ARC
  5
263
100
AcDbEntity
  8
0
100
AcDbCircle
 62
7
  6
CONTINUOUS
 10
42.1950913309
 20
187.3494226301
 40
8.0025320024
100
AcDbArc
 50
97.2412235567
 51
97.4418286809
  0
ARC
  5
264
100
AcDbEntity
  8
0
100
AcDbCircle
 62
7
  6
CONTINUOUS
 10
41.81692425
 20
187.3494226318
 40
8.0025320007
100
AcDbArc
 50
82.5581713191
 51
82.7587764434
  0
ARC
  5
265
100
AcDbEntity
  8
0
100
AcDbCircle
 62
7
  6
CONTINUOUS
 10
42.1782775837
 20
187.4819675551
 40
7.8689248975
100
AcDbArc
 50
96.9691813962
 51
97.2414219482
  0
ARC
  5
266
100
AcDbEntity
  8
0
100
AcDbCircle
 62
7
  6
CONTINUOUS
 10
41.8337379969
 20
187.4819675555
 40
7.8689248971
100
AcDbArc
 50
82.7585780517
 51
83.0308186037
  0
ARC
  5
267
100
AcDbEntity
  8
0
100
AcDbCircle
 62
7
  6
CONTINUOUS
 10
42.7415693557
 20
189.2758980759
 40
6.0253739833
100
AcDbArc
 50
90.8110725495
 51
92.0978068401
  0
ARC
  5
268
100
AcDbEntity
  8
0
100
AcDbCircle
 62
7
  6
CONTINUOUS
 10
41.2704462249
 20
189.2758980759
 40
6.0253739833
100
AcDbArc
 50
87.9021931599
 51
89.1889274505
  0
ARC
  5
269
100
AcDbEntity
  8
0
100
AcDbCircle
 62
7
  6
CONTINUOUS
 10
42.741359742
 20
189.3157816065
 40
5.9854849927
100
AcDbArc
 50
87.8966373557
 51
89.1899176891
  0
ARC
  5
26A
100
AcDbEntity
  8
0
100
AcDbCircle
 62
7
  6
CONTINUOUS
 10
41.2706558386
 20
189.3157816065
 40
5.9854849927
100
AcDbArc
 50
90.8100823109
 51
92.1033626443
  0
ARC
  5
26B
100
AcDbEntity
  8
0
100
AcDbCircle
 62
7
  6
CONTINUOUS
 10
41.827087551
 20
190.9542403909
 40
4.3855916804
100
AcDbArc
 50
98.4028194902
 51
100.5004078736
  0
ARC
  5
26C
100
AcDbEntity
  8
0
100
AcDbCircle
 62
7
  6
CONTINUOUS
 10
42.1929978438
 20
191.0027151434
 40
4.336458135
100
AcDbArc
 50
79.4877075815
 51
81.6090650547
  0
ARC
  5
26D
100
AcDbEntity
  8
0
100
AcDbCircle
 62
7
  6
CONTINUOUS
 10
25.0060077903
 20
190.3463892437
 40
2.0
100
AcDbArc
 50
90.0
 51
180.0
  0
ARC
  5
26E
100
AcDbEntity
  8
0
100
AcDbCircle
 62
7
  6
CONTINUOUS
 10
24.0060077903
 20
174.8463892437
 40
2.0
100
AcDbArc
 50
90.0
 51
180.0
  0
CIRCLE
  5
26F
100
AcDbEntity
  8
0
100
AcDbCircle
 62
7
  6
CONTINUOUS
 10
42.0060077903
 20
164.8463892437
 40
1.5358372021
  0
ARC
  5
270
100
AcDbEntity
  8
0
100
AcDbCircle
 62
7
  6
CONTINUOUS
 10
30.0142541977
 20
177.8463892437
 40
1.0
100
AcDbArc
 50
270.0
 51
10.0000000019
  0
CIRCLE
  5
271
100
AcDbEntity
  8
0
100
AcDbCircle
 62
7
  6
CONTINUOUS
 10
42.0060077903
 20
164.8463892437
 40
0.5359024649
  0
ARC
  5
272
100
AcDbEntity
  8
0
100
AcDbCircle
 62
7
  6
CONTINUOUS
 10
32.8560077903
 20
192.5963892437
 40
0.25
100
AcDbArc
 50
108.2595026829
 51
270.0
  0
CIRCLE
  5
273
100
AcDbEntity
  8
0
100
AcDbCircle
 62
7
  6
CONTINUOUS
 10
42.0060077903
 20
164.8463892437
 40
0.25
  0
ARC
  5
274
100
AcDbEntity
  8
0
100
AcDbCircle
 62
7
  6
CONTINUOUS
 10
36.9815385681
 20
194.0106515253
 40
0.2003146155
100
AcDbArc
 50
115.1831523664
 51
162.1034432365
  0
ARC
  5
275
100
AcDbEntity
  8
0
100
AcDbCircle
 62
7
  6
CONTINUOUS
 10
66.5640915941
 20
158.3989559046
 40
39.8449984077
100
AcDbArc
 50
150.2793953044
 51
150.4281656628
  0
ARC
  5
276
100
AcDbEntity
  8
0
100
AcDbCircle
 62
7
  6
CONTINUOUS
 10
51.1560077903
 20
192.5963892437
 40
0.25
100
AcDbArc
 50
270.0
 51
71.7404973171
  0
ARC
  5
277
100
AcDbEntity
  8
0
100
AcDbCircle
 62
7
  6
CONTINUOUS
 10
47.0304775998
 20
194.0106520527
 40
0.2003138883
100
AcDbArc
 50
17.8941929021
 51
64.8169354416
  0
ARC
  5
278
100
AcDbEntity
  8
0
100
AcDbCircle
 62
7
  6
CONTINUOUS
 10
42.0060832246
 20
328.446642973
 40
133.3871781703
100
AcDbArc
 50
269.7787514343
 51
270.2211837605
  0
ARC
  5
279
100
AcDbEntity
  8
0
100
AcDbCircle
 62
7
  6
CONTINUOUS
 10
127.4479349167
 20
158.3989621593
 40
39.8449858145
100
AcDbArc
 50
29.5718342718
 51
29.7206046767
  0
ARC
  5
27A
100
AcDbEntity
  8
0
100
AcDbCircle
 62
7
  6
CONTINUOUS
 10
142.8560077903
 20
192.5963892437
 40
0.25
100
AcDbArc
 50
108.2595026829
 51
270.0
  0
ARC
  5
27B
100
AcDbEntity
  8
0
100
AcDbCircle
 62
7
  6
CONTINUOUS
 10
146.9815385681
 20
194.0106515253
 40
0.2003146155
100
AcDbArc
 50
115.1831523664
 51
162.1034432364
  0
ARC
  5
27C
100
AcDbEntity
  8
0
100
AcDbCircle
 62
7
  6
CONTINUOUS
 10
170.0060077903
 20
74.3463892437
 40
2.0
100
AcDbArc
 50
270.0
 51
360.0
  0
ARC
  5
27D
100
AcDbEntity
  8
0
100
AcDbCircle
 62
7
  6
CONTINUOUS
 10
152.0053438306
 20
183.3165178598
 40
12.0018156166
100
AcDbArc
 50
86.2585281983
 51
86.8909643937
  0
ARC
  5
27E
100
AcDbEntity
  8
0
100
AcDbCircle
 62
7
  6
CONTINUOUS
 10
152.00667175
 20
183.3165178598
 40
12.0018156167
100
AcDbArc
 50
93.1090356063
 51
93.7414718017
  0
ARC
  5
27F
100
AcDbEntity
  8
0
100
AcDbCircle
 62
7
  6
CONTINUOUS
 10
152.0060077903
 20
183.3463892437
 40
11.9889438651
100
AcDbArc
 50
94.5689945084
 51
115.2267375292
  0
ARC
  5
280
100
AcDbEntity
  8
0
100
AcDbCircle
 62
7
  6
CONTINUOUS
 10
152.0060077903
 20
183.3463892437
 40
11.9889438651
100
AcDbArc
 50
64.7732624708
 51
85.4310054916
  0
ARC
  5
281
100
AcDbEntity
  8
0
100
AcDbCircle
 62
7
  6
CONTINUOUS
 10
152.2219387119
 20
187.1477552809
 40
8.205977957
100
AcDbArc
 50
97.4453294289
 51
98.3670998649
  0
ARC
  5
282
100
AcDbEntity
  8
0
100
AcDbCircle
 62
7
  6
CONTINUOUS
 10
151.7963667429
 20
187.1930478752
 40
8.1602521923
100
AcDbArc
 50
81.6303175204
 51
82.5572531858
  0
ARC
  5
283
100
AcDbEntity
  8
0
100
AcDbCircle
 62
7
  6
CONTINUOUS
 10
152.1950913325
 20
187.3494226179
 40
8.0025320148
100
AcDbArc
 50
97.2412235567
 51
97.4418286807
  0
ARC
  5
284
100
AcDbEntity
  8
0
100
AcDbCircle
 62
7
  6
CONTINUOUS
 10
151.8169242493
 20
187.3494226265
 40
8.002532006
100
AcDbArc
 50
82.5581713192
 51
82.7587764434
  0
ARC
  5
285
100
AcDbEntity
  8
0
100
AcDbCircle
 62
7
  6
CONTINUOUS
 10
151.8337379971
 20
187.4819675571
 40
7.8689248955
100
AcDbArc
 50
82.7585780517
 51
83.0308186037
  0
ARC
  5
286
100
AcDbEntity
  8
0
100
AcDbCircle
 62
7
  6
CONTINUOUS
 10
152.178277583
 20
187.4819675613
 40
7.8689248912
100
AcDbArc
 50
96.9691813962
 51
97.2414219484
  0
ARC
  5
287
100
AcDbEntity
  8
0
100
AcDbCircle
 62
7
  6
CONTINUOUS
 10
152.7415693557
 20
189.2758980759
 40
6.0253739833
100
AcDbArc
 50
90.8110725495
 51
92.0978068401
  0
ARC
  5
288
100
AcDbEntity
  8
0
100
AcDbCircle
 62
7
  6
CONTINUOUS
 10
151.2704462249
 20
189.2758980759
 40
6.0253739833
100
AcDbArc
 50
87.9021931599
 51
89.1889274505
  0
ARC
  5
289
100
AcDbEntity
  8
0
100
AcDbCircle
 62
7
  6
CONTINUOUS
 10
152.741359742
 20
189.3157816065
 40
5.9854849927
100
AcDbArc
 50
87.8966373557
 51
89.1899176891
  0
ARC
  5
28A
100
AcDbEntity
  8
0
100
AcDbCircle
 62
7
  6
CONTINUOUS
 10
151.2706558386
 20
189.3157816065
 40
5.9854849927
100
AcDbArc
 50
90.8100823109
 51
92.1033626443
  0
ARC
  5
28B
100
AcDbEntity
  8
0
100
AcDbCircle
 62
7
  6
CONTINUOUS
 10
151.827087551
 20
190.9542403907
 40
4.3855916806
100
AcDbArc
 50
98.4028194903
 51
100.5004078735
  0
ARC
  5
28C
100
AcDbEntity
  8
0
100
AcDbCircle
 62
7
  6
CONTINUOUS
 10
152.1929978438
 20
191.0027151434
 40
4.336458135
100
AcDbArc
 50
79.4877075815
 51
81.6090650547
  0
ARC
  5
28D
100
AcDbEntity
  8
0
100
AcDbCircle
 62
7
  6
CONTINUOUS
 10
169.0060077903
 20
190.3463892437
 40
2.0
100
AcDbArc
 50
0.0
 51
90.0
  0
ARC
  5
28E
100
AcDbEntity
  8
0
100
AcDbCircle
 62
7
  6
CONTINUOUS
 10
170.0060077903
 20
174.8463892437
 40
2.0
100
AcDbArc
 50
0.0
 51
90.0
  0
CIRCLE
  5
28F
100
AcDbEntity
  8
0
100
AcDbCircle
 62
7
  6
CONTINUOUS
 10
152.0060077903
 20
164.8463892437
 40
1.5358390455
  0
ARC
  5
290
100
AcDbEntity
  8
0
100
AcDbCircle
 62
7
  6
CONTINUOUS
 10
163.9977613829
 20
177.8463892437
 40
1.0
100
AcDbArc
 50
170.0
 51
270.0
  0
CIRCLE
  5
291
100
AcDbEntity
  8
0
100
AcDbCircle
 62
7
  6
CONTINUOUS
 10
152.0060077903
 20
164.8463892437
 40
0.5359024189
  0
ARC
  5
292
100
AcDbEntity
  8
0
100
AcDbCircle
 62
7
  6
CONTINUOUS
 10
161.1560077903
 20
192.5963892437
 40
0.25
100
AcDbArc
 50
270.0
 51
71.7404973171
  0
CIRCLE
  5
293
100
AcDbEntity
  8
0
100
AcDbCircle
 62
7
  6
CONTINUOUS
 10
152.0060077903
 20
164.8463892437
 40
0.25
  0
ARC
  5
294
100
AcDbEntity
  8
0
100
AcDbCircle
 62
7
  6
CONTINUOUS
 10
157.0304775998
 20
194.0106520527
 40
0.2003138883
100
AcDbArc
 50
17.8941929022
 51
64.8169354415
  0
ARC
  5
295
100
AcDbEntity
  8
0
100
AcDbCircle
 62
7
  6
CONTINUOUS
 10
152.0060832246
 20
328.446642973
 40
133.3871781703
100
AcDbArc
 50
269.7787514343
 51
270.2211837605
  0
SPLINE
  5
296
100
AcDbEntity
  8
0
100
AcDbSpline
 62
7
  6
CONTINUOUS
 70
0
 71
3
 72
9
 73
5
 74
0
 42
0.0000001
 43
0.0000001
 44
0.0000000001
 40
0.0
 40
0.0
 40
0.0
 40
0.0
 40
0.5000935571
 40
1.0
 40
1.0
 40
1.0
 40
1.0
 10
152.8935281087
 20
195.2993316735
 30
0.0
 10
152.9047893162
 20
195.2994317376
 30
0.0
 10
152.9273221163
 20
195.2992793542
 30
0.0
 10
152.9497913022
 20
195.2976469511
 30
0.0
 10
152.9610411577
 20
195.2972338276
 30
0.0
  0
SPLINE
  5
297
100
AcDbEntity
  8
0
100
AcDbSpline
 62
7
  6
CONTINUOUS
 70
0
 71
3
 72
9
 73
5
 74
0
 42
0.0000001
 43
0.0000001
 44
0.0000000001
 40
0.0
 40
0.0
 40
0.0
 40
0.0
 40
0.5004770583
 40
1.0
 40
1.0
 40
1.0
 40
1.0
 10
152.5210077903
 20
195.2972338276
 30
0.0
 10
152.5322920945
 20
195.2976472786
 30
0.0
 10
152.5548046373
 20
195.2992768645
 30
0.0
 10
152.577380471
 20
195.2994319019
 30
0.0
 10
152.5886503749
 20
195.2993317386
 30
0.0
  0
SPLINE
  5
298
100
AcDbEntity
  8
0
100
AcDbSpline
 62
7
  6
CONTINUOUS
 70
0
 71
3
 72
9
 73
5
 74
0
 42
0.0000001
 43
0.0000001
 44
0.0000000001
 40
0.0
 40
0.0
 40
0.0
 40
0.0
 40
0.5000935571
 40
1.0
 40
1.0
 40
1.0
 40
1.0
 10
42.8935281087
 20
195.2993316735
 30
0.0
 10
42.9047893162
 20
195.2994317376
 30
0.0
 10
42.9273221163
 20
195.2992793542
 30
0.0
 10
42.9497913022
 20
195.2976469511
 30
0.0
 10
42.9610411577
 20
195.2972338276
 30
0.0
  0
SPLINE
  5
299
100
AcDbEntity
  8
0
100
AcDbSpline
 62
7
  6
CONTINUOUS
 70
0
 71
3
 72
9
 73
5
 74
0
 42
0.0000001
 43
0.0000001
 44
0.0000000001
 40
0.0
 40
0.0
 40
0.0
 40
0.0
 40
0.5004770583
 40
1.0
 40
1.0
 40
1.0
 40
1.0
 10
42.5210077903
 20
195.2972338276
 30
0.0
 10
42.5322920945
 20
195.2976472786
 30
0.0
 10
42.5548046373
 20
195.2992768645
 30
0.0
 10
42.577380471
 20
195.2994319019
 30
0.0
 10
42.5886503749
 20
195.2993317386
 30
0.0
  0
SPLINE
  5
29A
100
AcDbEntity
  8
0
100
AcDbSpline
 62
7
  6
CONTINUOUS
 70
0
 71
3
 72
9
 73
5
 74
0
 42
0.0000001
 43
0.0000001
 44
0.0000000001
 40
0.0
 40
0.0
 40
0.0
 40
0.0
 40
0.4704094392
 40
1.0
 40
1.0
 40
1.0
 40
1.0
 10
25.0060077903
 20
192.3463892437
 30
0.0
 10
24.8849454381
 20
192.3463892437
 30
0.0
 10
24.6262452665
 20
192.2928066552
 30
0.0
 10
24.4024139906
 20
192.1590773276
 30
0.0
 10
24.2925350054
 20
192.0784400513
 30
0.0
  0
SPLINE
  5
29B
100
AcDbEntity
  8
0
100
AcDbSpline
 62
7
  6
CONTINUOUS
 70
0
 71
3
 72
9
 73
5
 74
0
 42
0.0000001
 43
0.0000001
 44
0.0000000001
 40
0.0
 40
0.0
 40
0.0
 40
0.0
 40
0.5295905608
 40
1.0
 40
1.0
 40
1.0
 40
1.0
 10
169.7194805753
 20
192.0784400513
 30
0.0
 10
169.60960159
 20
192.1590773276
 30
0.0
 10
169.3857703141
 20
192.2928066552
 30
0.0
 10
169.1270701425
 20
192.3463892437
 30
0.0
 10
169.0060077903
 20
192.3463892437
 30
0.0
  0
SPLINE
  5
29C
100
AcDbEntity
  8
0
100
AcDbSpline
 62
7
  6
CONTINUOUS
 70
0
 71
3
 72
10
 73
6
 74
0
 42
0.0000001
 43
0.0000001
 44
0.0000000001
 40
0.0
 40
0.0
 40
0.0
 40
0.0
 40
0.3537398202
 40
0.641005224
 40
1.0
 40
1.0
 40
1.0
 40
1.0
 10
24.0060077903
 20
176.8463892437
 30
0.0
 10
23.8823808461
 20
176.8463892437
 30
0.0
 10
23.7001819119
 20
176.6458821837
 30
0.0
 10
23.542430183
 20
176.3498534522
 30
0.0
 10
23.4519516437
 20
176.1387095784
 30
0.0
 10
23.4060078947
 20
176.021960893
 30
0.0
  0
SPLINE
  5
29D
100
AcDbEntity
  8
0
100
AcDbSpline
 62
7
  6
CONTINUOUS
 70
0
 71
3
 72
9
 73
5
 74
0
 42
0.0000001
 43
0.0000001
 44
0.0000000001
 40
0.0
 40
0.0
 40
0.0
 40
0.0
 40
0.2299534375
 40
1.0
 40
1.0
 40
1.0
 40
1.0
 10
23.4060078947
 20
176.021960893
 30
0.0
 10
23.3711482781
 20
175.933378344
 30
0.0
 10
23.2273783106
 20
175.5450774078
 30
0.0
 10
23.1026982664
 20
175.150151333
 30
0.0
 10
23.0060077903
 20
174.8463892437
 30
0.0
  0
SPLINE
  5
29E
100
AcDbEntity
  8
0
100
AcDbSpline
 62
7
  6
CONTINUOUS
 70
0
 71
3
 72
9
 73
5
 74
0
 42
0.0000001
 43
0.0000001
 44
0.0000000001
 40
0.0
 40
0.0
 40
0.0
 40
0.0
 40
0.2641809754
 40
1.0
 40
1.0
 40
1.0
 40
1.0
 10
171.0060077903
 20
174.8463892437
 30
0.0
 10
170.9728382838
 20
174.9505943216
 30
0.0
 10
170.8470714203
 20
175.3449050142
 30
0.0
 10
170.7175453438
 20
175.7385303387
 30
0.0
 10
170.6060068346
 20
176.0219630568
 30
0.0
  0
SPLINE
  5
29F
100
AcDbEntity
  8
0
100
AcDbSpline
 62
7
  6
CONTINUOUS
 70
0
 71
3
 72
10
 73
6
 74
0
 42
0.0000001
 43
0.0000001
 44
0.0000000001
 40
0.0
 40
0.0
 40
0.0
 40
0.0
 40
0.3589947278
 40
0.6462600819
 40
1.0
 40
1.0
 40
1.0
 40
1.0
 10
170.6060068346
 20
176.0219630568
 30
0.0
 10
170.5600631532
 20
176.1387114569
 30
0.0
 10
170.4695847448
 20
176.349854794
 30
0.0
 10
170.3118331942
 20
176.6458828402
 30
0.0
 10
170.1296344994
 20
176.8463892437
 30
0.0
 10
170.0060077903
 20
176.8463892437
 30
0.0
  0
SPLINE
  5
2A0
100
AcDbEntity
  8
0
100
AcDbSpline
 62
7
  6
CONTINUOUS
 70
0
 71
3
 72
11
 73
7
 74
0
 42
0.0000001
 43
0.0000001
 44
0.0000000001
 40
0.0
 40
0.0
 40
0.0
 40
0.0
 40
0.2230736194
 40
0.4608055243
 40
0.720083176
 40
1.0
 40
1.0
 40
1.0
 40
1.0
 10
163.9977613829
 20
176.8463892437
 30
0.0
 10
163.881367846
 20
176.8463892437
 30
0.0
 10
163.6400036495
 20
176.8808485961
 30
0.0
 10
163.2898004183
 20
177.0240217333
 30
0.0
 10
162.9458411662
 20
177.2409897024
 30
0.0
 10
162.7251304564
 20
177.4159093914
 30
0.0
 10
162.6129637893
 20
177.5094510198
 30
0.0
  0
SPLINE
  5
2A1
100
AcDbEntity
  8
0
100
AcDbSpline
 62
7
  6
CONTINUOUS
 70
0
 71
3
 72
9
 73
5
 74
0
 42
0.0000001
 43
0.0000001
 44
0.0000000001
 40
0.0
 40
0.0
 40
0.0
 40
0.0
 40
0.2471333689
 40
1.0
 40
1.0
 40
1.0
 40
1.0
 10
162.6129637893
 20
177.5094510198
 30
0.0
 10
162.5804587059
 20
177.5365587026
 30
0.0
 10
162.4497622692
 20
177.6472476973
 30
0.0
 10
162.3215932824
 20
177.7608670715
 30
0.0
 10
162.2250946749
 20
177.8463845843
 30
0.0
  0
SPLINE
  5
2A2
100
AcDbEntity
  8
0
100
AcDbSpline
 62
7
  6
CONTINUOUS
 70
0
 71
3
 72
10
 73
6
 74
0
 42
0.0000001
 43
0.0000001
 44
0.0000000001
 40
0.0
 40
0.0
 40
0.0
 40
0.0
 40
0.3537398202
 40
0.641005224
 40
1.0
 40
1.0
 40
1.0
 40
1.0
 10
170.0060077903
 20
72.3463892437
 30
0.0
 10
170.1296347346
 20
72.3463892437
 30
0.0
 10
170.3118336688
 20
72.5468963036
 30
0.0
 10
170.4695853976
 20
72.8429250352
 30
0.0
 10
170.5600639369
 20
73.054068909
 30
0.0
 10
170.606007686
 20
73.1708175944
 30
0.0
  0
SPLINE
  5
2A3
100
AcDbEntity
  8
0
100
AcDbSpline
 62
7
  6
CONTINUOUS
 70
0
 71
3
 72
9
 73
5
 74
0
 42
0.0000001
 43
0.0000001
 44
0.0000000001
 40
0.0
 40
0.0
 40
0.0
 40
0.0
 40
0.2299534375
 40
1.0
 40
1.0
 40
1.0
 40
1.0
 10
170.606007686
 20
73.1708175944
 30
0.0
 10
170.6408673025
 20
73.2594001434
 30
0.0
 10
170.7846372701
 20
73.6477010795
 30
0.0
 10
170.9093173142
 20
74.0426271543
 30
0.0
 10
171.0060077903
 20
74.3463892437
 30
0.0
  0
SPLINE
  5
2A4
100
AcDbEntity
  8
0
100
AcDbSpline
 62
7
  6
CONTINUOUS
 70
0
 71
3
 72
9
 73
5
 74
0
 42
0.0000001
 43
0.0000001
 44
0.0000000001
 40
0.0
 40
0.0
 40
0.0
 40
0.0
 40
0.2641809754
 40
1.0
 40
1.0
 40
1.0
 40
1.0
 10
23.0060077903
 20
74.3463892437
 30
0.0
 10
23.0391772968
 20
74.2421841657
 30
0.0
 10
23.1649441603
 20
73.8478734732
 30
0.0
 10
23.2944702368
 20
73.4542481487
 30
0.0
 10
23.406008746
 20
73.1708154306
 30
0.0
  0
SPLINE
  5
2A5
100
AcDbEntity
  8
0
100
AcDbSpline
 62
7
  6
CONTINUOUS
 70
0
 71
3
 72
10
 73
6
 74
0
 42
0.0000001
 43
0.0000001
 44
0.0000000001
 40
0.0
 40
0.0
 40
0.0
 40
0.0
 40
0.3589947278
 40
0.6462600819
 40
1.0
 40
1.0
 40
1.0
 40
1.0
 10
23.406008746
 20
73.1708154306
 30
0.0
 10
23.4519524274
 20
73.0540670305
 30
0.0
 10
23.5424308359
 20
72.8429236934
 30
0.0
 10
23.7001823864
 20
72.5468956472
 30
0.0
 10
23.8823810812
 20
72.3463892437
 30
0.0
 10
24.0060077903
 20
72.3463892437
 30
0.0
  0
SPLINE
  5
2A6
100
AcDbEntity
  8
0
100
AcDbSpline
 62
7
  6
CONTINUOUS
 70
0
 71
3
 72
9
 73
5
 74
0
 42
0.0000001
 43
0.0000001
 44
0.0000000001
 40
0.0
 40
0.0
 40
0.0
 40
0.0
 40
0.2519523611
 40
1.0
 40
1.0
 40
1.0
 40
1.0
 10
31.786920906
 20
177.8463845841
 30
0.0
 10
31.7546274693
 20
177.8177659909
 30
0.0
 10
31.6264541473
 20
177.7041857613
 30
0.0
 10
31.4974406759
 20
177.5915026644
 30
0.0
 10
31.3990527216
 20
177.5094517965
 30
0.0
  0
SPLINE
  5
2A7
100
AcDbEntity
  8
0
100
AcDbSpline
 62
7
  6
CONTINUOUS
 70
0
 71
3
 72
11
 73
7
 74
0
 42
0.0000001
 43
0.0000001
 44
0.0000000001
 40
0.0
 40
0.0
 40
0.0
 40
0.0
 40
0.2799168089
 40
0.5391944699
 40
0.7769263902
 40
1.0
 40
1.0
 40
1.0
 40
1.0
 10
31.3990527216
 20
177.5094517965
 30
0.0
 10
31.2868859888
 20
177.4159100834
 30
0.0
 10
31.0661751468
 20
177.2409902195
 30
0.0
 10
30.7222156881
 20
177.0240219766
 30
0.0
 10
30.3720122005
 20
176.8808486766
 30
0.0
 10
30.1306478194
 20
176.8463892437
 30
0.0
 10
30.0142541977
 20
176.8463892437
 30
0.0
  0
ENDSEC
  0
SECTION
  2
OBJECTS
  0
DICTIONARY
  5
C
100
AcDbDictionary
280
0
281
1
  3
ACAD_GROUP
350
D
  3
ACAD_MLINESTYLE
350
17
  3
ACAD_LAYOUT
350
1A
  3
ACAD_PLOTSETTINGS
350
19
  3
ACAD_PLOTSTYLENAME
350
E
  0
DICTIONARY
  5
D
102
{ACAD_REACTORS
330
C
102
}
100
AcDbDictionary
280
0
281
1
  0
ACDBDICTIONARYWDFLT
  5
E
102
{ACAD_REACTORS
330
C
102
}
100
AcDbDictionary
281
1
  3
Normal
350
F
100
AcDbDictionaryWithDefault
340
F
  0
DICTIONARY
  5
17
102
{ACAD_REACTORS
330
C
102
}
100
AcDbDictionary
280
0
281
1
  3
Standard
350
18
  0
DICTIONARY
  5
19
102
{ACAD_REACTORS
330
C
102
}
100
AcDbDictionary
281
1
  0
DICTIONARY
  5
1A
102
{ACAD_REACTORS
330
C
102
}
100
AcDbDictionary
281
1
  3
Model
350
2A8
  3
Layout1
350
2A9
  0
ACDBPLACEHOLDER
  5
F
102
{ACAD_REACTORS
330
E
102
}
  0
MLINESTYLE
  5
18
102
{ACAD_REACTORS
330
17
102
}
100
AcDbMlineStyle
  2
STANDARD
 70
0
  3

 62
256
 51
90.0
 52
90.0
 71
2
 49
0.5
 62
256
  6
BYLAYER
 49
-0.5
 62
256
  6
BYLAYER
  0
LAYOUT
  5
2A8
102
{ACAD_REACTORS
330
1A
102
}
100
AcDbPlotSettings
  1

  2
none_device
  4

  6

 40
0.0
 41
0.0
 42
0.0
 43
0.0
 44
210.0
 45
297.0
 46
0.0
 47
0.0
 48
0.0
 49
0.0
140
0.0
141
0.0
142
1.0
143
1.0
 70
1024
 72
1
 73
0
 74
0
  7

 75
0
147
1.0
148
0.0
149
0.0
100
AcDbLayout
  1
Model
 70
0
 71
0
 10
0.0
 20
0.0
 11
210.0
 21
297.0
 12
0.0
 22
0.0
 32
0.0
 14
0.0
 24
0.0
 34
0.0
 15
0.0
 25
0.0
 35
0.0
146
0.0
 13
0.0
 23
0.0
 33
0.0
 16
1.0
 26
0.0
 36
0.0
 17
0.0
 27
1.0
 37
0.0
 76
0
330
210
345
0
346
0
  0
LAYOUT
  5
2A9
102
{ACAD_REACTORS
330
1A
102
}
100
AcDbPlotSettings
  1

  2
none_device
  4

  6

 40
0.0
 41
0.0
 42
0.0
 43
0.0
 44
210.0
 45
297.0
 46
0.0
 47
0.0
 48
0.0
 49
0.0
140
0.0
141
0.0
142
1.0
143
1.0
 70
0
 72
1
 73
0
 74
0
  7

 75
0
147
1.0
148
0.0
149
0.0
100
AcDbLayout
  1
Layout1
 70
0
 71
1
 10
0.0
 20
0.0
 11
210.0
 21
297.0
 12
0.0
 22
0.0
 32
0.0
 14
0.0
 24
0.0
 34
0.0
 15
0.0
 25
0.0
 35
0.0
146
0.0
 13
0.0
 23
0.0
 33
0.0
 16
1.0
 26
0.0
 36
0.0
 17
0.0
 27
1.0
 37
0.0
 76
0
330
211
345
0
346
0
  0
ENDSEC
  0
EOF
