  0
SECTION
  2
HEADER
  9
$ACADVER
  1
AC1009
  9
$DWGCODEPAGE
  3
ansi_1250
  9
$INSBASE
 10
0.0
 20
0.0
 30
0.0
  9
$EXTMIN
 10
-1.08
 20
-4.016642
 30
0.0
  9
$EXTMAX
 10
7.718323
 20
4.016642
 30
0.0
  9
$LIMMIN
 10
0.0
 20
0.0
  9
$LIMMAX
 10
0.0
 20
0.0
  9
$ORTHOMODE
 70
     0
  9
$REGENMODE
 70
     1
  9
$FILLMODE
 70
     1
  9
$QTEXTMODE
 70
     0
  9
$MIRRTEXT
 70
     1
  9
$DRAGMODE
 70
     2
  9
$LTSCALE
 40
1.0
  9
$OSMODE
 70
     0
  9
$ATTMODE
 70
     1
  9
$TEXTSIZE
 40
0.2
  9
$TRACEWID
 40
0.05
  9
$TEXTSTYLE
  7
STANDARD
  9
$CLAYER
  8
0
  9
$CELTYPE
  6
CONTINUOUS
  9
$CECOLOR
 62
   256
  9
$DIMSCALE
 40
1.0
  9
$DIMASZ
 40
0.18
  9
$DIMEXO
 40
0.0625
  9
$DIMDLI
 40
0.38
  9
$DIMRND
 40
0.0
  9
$DIMDLE
 40
0.0
  9
$DIMEXE
 40
0.18
  9
$DIMTP
 40
0.0
  9
$DIMTM
 40
0.0
  9
$DIMTXT
 40
0.18
  9
$DIMCEN
 40
0.09
  9
$DIMTSZ
 40
0.0
  9
$DIMTOL
 70
     0
  9
$DIMLIM
 70
     0
  9
$DIMTIH
 70
     1
  9
$DIMTOH
 70
     1
  9
$DIMSE1
 70
     0
  9
$DIMSE2
 70
     0
  9
$DIMTAD
 70
     0
  9
$DIMZIN
 70
     0
  9
$DIMBLK
  1

  9
$DIMASO
 70
     1
  9
$DIMSHO
 70
     1
  9
$DIMPOST
  1

  9
$DIMAPOST
  1

  9
$DIMALT
 70
     0
  9
$DIMALTD
 70
     2
  9
$DIMALTF
 40
25.4
  9
$DIMLFAC
 40
1.0
  9
$DIMTOFL
 70
     0
  9
$DIMTVP
 40
0.0
  9
$DIMTIX
 70
     0
  9
$DIMSOXD
 70
     0
  9
$DIMSAH
 70
     0
  9
$DIMBLK1
  1

  9
$DIMBLK2
  1

  9
$DIMSTYLE
  2
STANDARD
  9
$DIMCLRD
 70
     0
  9
$DIMCLRE
 70
     0
  9
$DIMCLRT
 70
     0
  9
$DIMTFAC
 40
1.0
  9
$DIMGAP
 40
0.09
  9
$LUNITS
 70
     2
  9
$LUPREC
 70
     4
  9
$AXISMODE
 70
     0
  9
$AXISUNIT
 10
0.0
 20
0.0
  9
$SKETCHINC
 40
0.1
  9
$FILLETRAD
 40
0.0
  9
$AUNITS
 70
     0
  9
$AUPREC
 70
     0
  9
$MENU
  1
acad
  9
$ELEVATION
 40
0.0
  9
$PELEVATION
 40
0.0
  9
$THICKNESS
 40
0.0
  9
$LIMCHECK
 70
     0
  9
$BLIPMODE
 70
     1
  9
$CHAMFERA
 40
0.0
  9
$CHAMFERB
 40
0.0
  9
$SKPOLY
 70
     0
  9
$TDCREATE
 40
0.000000000
  9
$TDUPDATE
 40
0.000000000
  9
$TDINDWG
 40
0.0000000000
  9
$TDUSRTIMER
 40
0.0000000000
  9
$USRTIMER
 70
     1
  9
$ANGBASE
 50
0.0
  9
$ANGDIR
 70
     0
  9
$PDMODE
 70
     0
  9
$PDSIZE
 40
0.0
  9
$PLINEWID
 40
0.0
  9
$COORDS
 70
     0
  9
$SPLFRAME
 70
     0
  9
$SPLINETYPE
 70
     6
  9
$SPLINESEGS
 70
     8
  9
$ATTDIA
 70
     0
  9
$ATTREQ
 70
     1
  9
$HANDLING
 70
     1
  9
$HANDSEED
  5
2C7
  9
$SURFTAB1
 70
     6
  9
$SURFTAB2
 70
     6
  9
$SURFTYPE
 70
     6
  9
$SURFU
 70
     6
  9
$SURFV
 70
     6
  9
$UCSNAME
  2

  9
$UCSORG
 10
0.0
 20
0.0
 30
0.0
  9
$UCSXDIR
 10
1.0
 20
0.0
 30
0.0
  9
$UCSYDIR
 10
0.0
 20
1.0
 30
0.0
  9
$PUCSNAME
  2

  9
$PUCSORG
 10
0.0
 20
0.0
 30
0.0
  9
$PUCSXDIR
 10
1.0
 20
0.0
 30
0.0
  9
$PUCSYDIR
 10
0.0
 20
1.0
 30
0.0
  9
$USERI1
 70
     0
  9
$USERI2
 70
     0
  9
$USERI3
 70
     0
  9
$USERI4
 70
     0
  9
$USERI5
 70
     0
  9
$USERR1
 40
0.0
  9
$USERR2
 40
0.0
  9
$USERR3
 40
0.0
  9
$USERR4
 40
0.0
  9
$USERR5
 40
0.0
  9
$WORLDVIEW
 70
     1
  9
$SHADEDGE
 70
     3
  9
$SHADEDIF
 70
    70
  9
$TILEMODE
 70
     1
  9
$MAXACTVP
 70
    16
  9
$PINSBASE
 10
0.0
 20
0.0
 30
0.0
  9
$PLIMCHECK
 70
     0
  9
$PEXTMIN
 10
1.000000E+20
 20
1.000000E+20
 30
1.000000E+20
  9
$PEXTMAX
 10
-1.000000E+20
 20
-1.000000E+20
 30
-1.000000E+20
  9
$PLIMMIN
 10
0.0
 20
0.0
  9
$PLIMMAX
 10
12.0
 20
9.0
  9
$UNITMODE
 70
     0
  9
$VISRETAIN
 70
     0
  9
$PLINEGEN
 70
     1
  9
$PSLTSCALE
 70
     0
  9
$TREEDEPTH
 70
  3020
  0
ENDSEC
  0
SECTION
  2
TABLES
  0
TABLE
  2
VPORT
 70
     1
  0
VPORT
  2
*ACTIVE
 70
     0
 10
0.0
 20
0.0
 11
1.0
 21
1.0
 12
6.591288
 22
4.579184
 13
0.0
 23
0.0
 14
1.0
 24
1.0
 15
0.0
 25
0.0
 16
0.0
 26
0.0
 36
1.0
 17
0.0
 27
0.0
 37
0.0
 40
9.158369
 41
0.688564
 42
50.0
 43
0.0
 44
0.0
 50
0.0
 51
0.0
 71
     0
 72
   100
 73
     1
 74
     1
 75
     0
 76
     0
 77
     0
 78
     0
  0
ENDTAB
  0
TABLE
  2
LTYPE
 70
     5
  0
LTYPE
  2
CONTINUOUS
 70
    64
  3
Solid line
 72
    65
 73
     0
 40
0.0
  0
LTYPE
  2
CENTER
 70
    64
  3
Center ____ _ ____ _ ____ _ ____ _ ____ _ ____
 72
    65
 73
     4
 40
50.8
 49
31.75
 49
-6.35
 49
6.35
 49
-6.35
  0
LTYPE
  2
HIDDEN
 70
    64
  3
Hidden __ __ __ __ __ __ __ __ __ __ __ __ __ __
 72
    65
 73
     2
 40
9.525
 49
6.35
 49
-3.175
  0
LTYPE
  2
CENTER2
 70
    64
  3
Center (.5x) ___ _ ___ _ ___ _ ___ _ ___ _ ___
 72
    65
 73
     4
 40
28.575
 49
19.05
 49
-3.175
 49
3.175
 49
-3.175
  0
LTYPE
  2
HIDDEN2
 70
    64
  3
Hidden (.5x) _ _ _ _ _ _ _ _ _ _ _ _ _ _ _ _ _
 72
    65
 73
     2
 40
4.7625
 49
3.175
 49
-1.5875
  0
ENDTAB
  0
TABLE
  2
LAYER
 70
     1
  0
LAYER
  2
0
 70
     0
 62
     7
  6
CONTINUOUS
  0
ENDTAB
  0
TABLE
  2
STYLE
 70
     1
  0
STYLE
  2
STANDARD
 70
     0
 40
0.0
 41
1.0
 50
0.0
 71
     0
 42
0.0
  3
txt
  4

  0
ENDTAB
  0
TABLE
  2
VIEW
 70
     0
  0
ENDTAB
  0
TABLE
  2
UCS
 70
     0
  0
ENDTAB
  0
TABLE
  2
APPID
 70
     1
  0
APPID
  2
ACAD
 70
     0
  0
ENDTAB
  0
TABLE
  2
DIMSTYLE
 70
     1
  0
DIMSTYLE
  2
STANDARD
 70
     0
  3

  4

  5

  6

  7

 40
1.0
 41
0.18
 42
0.0625
 43
0.38
 44
0.18
 45
0.0
 46
0.0
 47
0.0
 48
0.0
 71
     0
 72
     0
 73
     1
 74
     1
 75
     0
 76
     0
 77
     0
 78
     0
140
0.18
141
0.09
142
0.0
143
25.4
144
1.0
145
0.0
146
1.0
147
0.09
170
     0
171
     2
172
     0
173
     0
174
     0
175
     0
176
     0
177
     0
178
     0
  0
ENDTAB
  0
ENDSEC
  0
SECTION
  2
BLOCKS
  0
ENDSEC
  0
SECTION
  2
ENTITIES
  0
LINE
  8
0
  6
CONTINUOUS
 62
     7
  5
187
 10
0.0
 20
0.561
 30
0.0
 11
0.0
 21
-0.561
 31
0.0
  0
LINE
  8
0
  6
CONTINUOUS
 62
     7
  5
188
 10
-0.314961
 20
0.338784
 30
0.0
 11
-0.314961
 21
-0.196943
 31
0.0
  0
LINE
  8
0
  6
CONTINUOUS
 62
     7
  5
189
 10
-0.301181
 20
-0.247529
 30
0.0
 11
-0.301608
 21
-0.246091
 31
0.0
  0
LINE
  8
0
  6
CONTINUOUS
 62
     7
  5
18A
 10
-0.301608
 20
-0.246091
 30
0.0
 11
-0.302033
 21
-0.244652
 31
0.0
  0
LINE
  8
0
  6
CONTINUOUS
 62
     7
  5
18B
 10
-0.302033
 20
-0.244652
 30
0.0
 11
-0.302455
 21
-0.243213
 31
0.0
  0
LINE
  8
0
  6
CONTINUOUS
 62
     7
  5
18C
 10
-0.302455
 20
-0.243213
 30
0.0
 11
-0.302876
 21
-0.241773
 31
0.0
  0
LINE
  8
0
  6
CONTINUOUS
 62
     7
  5
18D
 10
-0.302876
 20
-0.241773
 30
0.0
 11
-0.303295
 21
-0.240333
 31
0.0
  0
LINE
  8
0
  6
CONTINUOUS
 62
     7
  5
18E
 10
-0.303295
 20
-0.240333
 30
0.0
 11
-0.303712
 21
-0.238893
 31
0.0
  0
LINE
  8
0
  6
CONTINUOUS
 62
     7
  5
18F
 10
-0.303712
 20
-0.238893
 30
0.0
 11
-0.304128
 21
-0.237452
 31
0.0
  0
LINE
  8
0
  6
CONTINUOUS
 62
     7
  5
190
 10
-0.304128
 20
-0.237452
 30
0.0
 11
-0.304541
 21
-0.23601
 31
0.0
  0
LINE
  8
0
  6
CONTINUOUS
 62
     7
  5
191
 10
-0.304541
 20
-0.23601
 30
0.0
 11
-0.304952
 21
-0.234569
 31
0.0
  0
LINE
  8
0
  6
CONTINUOUS
 62
     7
  5
192
 10
-0.304952
 20
-0.234569
 30
0.0
 11
-0.305361
 21
-0.233127
 31
0.0
  0
LINE
  8
0
  6
CONTINUOUS
 62
     7
  5
193
 10
-0.305361
 20
-0.233127
 30
0.0
 11
-0.305769
 21
-0.231684
 31
0.0
  0
LINE
  8
0
  6
CONTINUOUS
 62
     7
  5
194
 10
-0.305769
 20
-0.231684
 30
0.0
 11
-0.306174
 21
-0.230241
 31
0.0
  0
LINE
  8
0
  6
CONTINUOUS
 62
     7
  5
195
 10
-0.306174
 20
-0.230241
 30
0.0
 11
-0.306577
 21
-0.228798
 31
0.0
  0
LINE
  8
0
  6
CONTINUOUS
 62
     7
  5
196
 10
-0.306577
 20
-0.228798
 30
0.0
 11
-0.306979
 21
-0.227354
 31
0.0
  0
LINE
  8
0
  6
CONTINUOUS
 62
     7
  5
197
 10
-0.306979
 20
-0.227354
 30
0.0
 11
-0.307378
 21
-0.22591
 31
0.0
  0
LINE
  8
0
  6
CONTINUOUS
 62
     7
  5
198
 10
-0.307378
 20
-0.22591
 30
0.0
 11
-0.307776
 21
-0.224465
 31
0.0
  0
LINE
  8
0
  6
CONTINUOUS
 62
     7
  5
199
 10
-0.307776
 20
-0.224465
 30
0.0
 11
-0.308172
 21
-0.22302
 31
0.0
  0
LINE
  8
0
  6
CONTINUOUS
 62
     7
  5
19A
 10
-0.308172
 20
-0.22302
 30
0.0
 11
-0.308565
 21
-0.221575
 31
0.0
  0
LINE
  8
0
  6
CONTINUOUS
 62
     7
  5
19B
 10
-0.308565
 20
-0.221575
 30
0.0
 11
-0.308957
 21
-0.220129
 31
0.0
  0
LINE
  8
0
  6
CONTINUOUS
 62
     7
  5
19C
 10
-0.308957
 20
-0.220129
 30
0.0
 11
-0.309347
 21
-0.218683
 31
0.0
  0
LINE
  8
0
  6
CONTINUOUS
 62
     7
  5
19D
 10
-0.309347
 20
-0.218683
 30
0.0
 11
-0.309735
 21
-0.217236
 31
0.0
  0
LINE
  8
0
  6
CONTINUOUS
 62
     7
  5
19E
 10
-0.309735
 20
-0.217236
 30
0.0
 11
-0.310121
 21
-0.215789
 31
0.0
  0
LINE
  8
0
  6
CONTINUOUS
 62
     7
  5
19F
 10
-0.310121
 20
-0.215789
 30
0.0
 11
-0.310505
 21
-0.214342
 31
0.0
  0
LINE
  8
0
  6
CONTINUOUS
 62
     7
  5
1A0
 10
-0.310505
 20
-0.214342
 30
0.0
 11
-0.310887
 21
-0.212894
 31
0.0
  0
LINE
  8
0
  6
CONTINUOUS
 62
     7
  5
1A1
 10
-0.310887
 20
-0.212894
 30
0.0
 11
-0.311267
 21
-0.211446
 31
0.0
  0
LINE
  8
0
  6
CONTINUOUS
 62
     7
  5
1A2
 10
-0.311267
 20
-0.211446
 30
0.0
 11
-0.311645
 21
-0.209997
 31
0.0
  0
LINE
  8
0
  6
CONTINUOUS
 62
     7
  5
1A3
 10
-0.311645
 20
-0.209997
 30
0.0
 11
-0.312021
 21
-0.208548
 31
0.0
  0
LINE
  8
0
  6
CONTINUOUS
 62
     7
  5
1A4
 10
-0.312021
 20
-0.208548
 30
0.0
 11
-0.312396
 21
-0.207099
 31
0.0
  0
LINE
  8
0
  6
CONTINUOUS
 62
     7
  5
1A5
 10
-0.312396
 20
-0.207099
 30
0.0
 11
-0.312768
 21
-0.205649
 31
0.0
  0
LINE
  8
0
  6
CONTINUOUS
 62
     7
  5
1A6
 10
-0.312768
 20
-0.205649
 30
0.0
 11
-0.313138
 21
-0.204199
 31
0.0
  0
LINE
  8
0
  6
CONTINUOUS
 62
     7
  5
1A7
 10
-0.313138
 20
-0.204199
 30
0.0
 11
-0.313507
 21
-0.202749
 31
0.0
  0
LINE
  8
0
  6
CONTINUOUS
 62
     7
  5
1A8
 10
-0.313507
 20
-0.202749
 30
0.0
 11
-0.313873
 21
-0.201298
 31
0.0
  0
LINE
  8
0
  6
CONTINUOUS
 62
     7
  5
1A9
 10
-0.313873
 20
-0.201298
 30
0.0
 11
-0.314238
 21
-0.199847
 31
0.0
  0
LINE
  8
0
  6
CONTINUOUS
 62
     7
  5
1AA
 10
-0.314238
 20
-0.199847
 30
0.0
 11
-0.3146
 21
-0.198395
 31
0.0
  0
LINE
  8
0
  6
CONTINUOUS
 62
     7
  5
1AB
 10
-0.3146
 20
-0.198395
 30
0.0
 11
-0.314961
 21
-0.196943
 31
0.0
  0
LINE
  8
0
  6
CONTINUOUS
 62
     7
  5
1AC
 10
-0.301181
 20
0.3927
 30
0.0
 11
-0.301181
 21
-0.247529
 31
0.0
  0
LINE
  8
0
  6
CONTINUOUS
 62
     7
  5
1AD
 10
-0.2992
 20
-0.247529
 30
0.0
 11
-0.301181
 21
-0.247529
 31
0.0
  0
LINE
  8
0
  6
CONTINUOUS
 62
     7
  5
1AE
 10
-0.283465
 20
0.502021
 30
0.0
 11
-0.283465
 21
-0.502021
 31
0.0
  0
LINE
  8
0
  6
CONTINUOUS
 62
     7
  5
1AF
 10
-0.275591
 20
0.561
 30
0.0
 11
-0.275591
 21
-0.561
 31
0.0
  0
LINE
  8
0
  6
CONTINUOUS
 62
     7
  5
1B0
 10
-0.2992
 20
0.515427
 30
0.0
 11
-0.2992
 21
0.3927
 31
0.0
  0
LINE
  8
0
  6
CONTINUOUS
 62
     7
  5
1B1
 10
-0.96288
 20
0.515427
 30
0.0
 11
-0.2992
 21
0.515427
 31
0.0
  0
LINE
  8
0
  6
CONTINUOUS
 62
     7
  5
1B2
 10
-1.048665
 20
0.280512
 30
0.0
 11
-1.047073
 21
0.28743
 31
0.0
  0
LINE
  8
0
  6
CONTINUOUS
 62
     7
  5
1B3
 10
-1.047073
 20
0.28743
 30
0.0
 11
-1.04543
 21
0.29434
 31
0.0
  0
LINE
  8
0
  6
CONTINUOUS
 62
     7
  5
1B4
 10
-1.04543
 20
0.29434
 30
0.0
 11
-1.043735
 21
0.30124
 31
0.0
  0
LINE
  8
0
  6
CONTINUOUS
 62
     7
  5
1B5
 10
-1.043735
 20
0.30124
 30
0.0
 11
-1.041989
 21
0.30813
 31
0.0
  0
LINE
  8
0
  6
CONTINUOUS
 62
     7
  5
1B6
 10
-1.041989
 20
0.30813
 30
0.0
 11
-1.040191
 21
0.315011
 31
0.0
  0
LINE
  8
0
  6
CONTINUOUS
 62
     7
  5
1B7
 10
-1.040191
 20
0.315011
 30
0.0
 11
-1.038343
 21
0.321881
 31
0.0
  0
LINE
  8
0
  6
CONTINUOUS
 62
     7
  5
1B8
 10
-1.038343
 20
0.321881
 30
0.0
 11
-1.036443
 21
0.328741
 31
0.0
  0
LINE
  8
0
  6
CONTINUOUS
 62
     7
  5
1B9
 10
-1.036443
 20
0.328741
 30
0.0
 11
-1.034492
 21
0.33559
 31
0.0
  0
LINE
  8
0
  6
CONTINUOUS
 62
     7
  5
1BA
 10
-1.034492
 20
0.33559
 30
0.0
 11
-1.032491
 21
0.342428
 31
0.0
  0
LINE
  8
0
  6
CONTINUOUS
 62
     7
  5
1BB
 10
-1.032491
 20
0.342428
 30
0.0
 11
-1.030438
 21
0.349255
 31
0.0
  0
LINE
  8
0
  6
CONTINUOUS
 62
     7
  5
1BC
 10
-1.030438
 20
0.349255
 30
0.0
 11
-1.028335
 21
0.35607
 31
0.0
  0
LINE
  8
0
  6
CONTINUOUS
 62
     7
  5
1BD
 10
-1.028335
 20
0.35607
 30
0.0
 11
-1.026181
 21
0.362874
 31
0.0
  0
LINE
  8
0
  6
CONTINUOUS
 62
     7
  5
1BE
 10
-1.026181
 20
0.362874
 30
0.0
 11
-1.023976
 21
0.369665
 31
0.0
  0
LINE
  8
0
  6
CONTINUOUS
 62
     7
  5
1BF
 10
-1.023976
 20
0.369665
 30
0.0
 11
-1.021721
 21
0.376444
 31
0.0
  0
LINE
  8
0
  6
CONTINUOUS
 62
     7
  5
1C0
 10
-1.021721
 20
0.376444
 30
0.0
 11
-1.019416
 21
0.38321
 31
0.0
  0
LINE
  8
0
  6
CONTINUOUS
 62
     7
  5
1C1
 10
-1.019416
 20
0.38321
 30
0.0
 11
-1.01706
 21
0.389962
 31
0.0
  0
LINE
  8
0
  6
CONTINUOUS
 62
     7
  5
1C2
 10
-1.01706
 20
0.389962
 30
0.0
 11
-1.014654
 21
0.396702
 31
0.0
  0
LINE
  8
0
  6
CONTINUOUS
 62
     7
  5
1C3
 10
-1.014654
 20
0.396702
 30
0.0
 11
-1.012197
 21
0.403428
 31
0.0
  0
LINE
  8
0
  6
CONTINUOUS
 62
     7
  5
1C4
 10
-1.012197
 20
0.403428
 30
0.0
 11
-1.009691
 21
0.410141
 31
0.0
  0
LINE
  8
0
  6
CONTINUOUS
 62
     7
  5
1C5
 10
-1.009691
 20
0.410141
 30
0.0
 11
-1.007135
 21
0.416839
 31
0.0
  0
LINE
  8
0
  6
CONTINUOUS
 62
     7
  5
1C6
 10
-1.007135
 20
0.416839
 30
0.0
 11
-1.004529
 21
0.423522
 31
0.0
  0
LINE
  8
0
  6
CONTINUOUS
 62
     7
  5
1C7
 10
-1.004529
 20
0.423522
 30
0.0
 11
-1.001873
 21
0.430191
 31
0.0
  0
LINE
  8
0
  6
CONTINUOUS
 62
     7
  5
1C8
 10
-1.001873
 20
0.430191
 30
0.0
 11
-0.999168
 21
0.436845
 31
0.0
  0
LINE
  8
0
  6
CONTINUOUS
 62
     7
  5
1C9
 10
-0.999168
 20
0.436845
 30
0.0
 11
-0.996413
 21
0.443484
 31
0.0
  0
LINE
  8
0
  6
CONTINUOUS
 62
     7
  5
1CA
 10
-0.996413
 20
0.443484
 30
0.0
 11
-0.993609
 21
0.450107
 31
0.0
  0
LINE
  8
0
  6
CONTINUOUS
 62
     7
  5
1CB
 10
-0.993609
 20
0.450107
 30
0.0
 11
-0.990756
 21
0.456715
 31
0.0
  0
LINE
  8
0
  6
CONTINUOUS
 62
     7
  5
1CC
 10
-0.990756
 20
0.456715
 30
0.0
 11
-0.987854
 21
0.463306
 31
0.0
  0
LINE
  8
0
  6
CONTINUOUS
 62
     7
  5
1CD
 10
-0.987854
 20
0.463306
 30
0.0
 11
-0.984902
 21
0.469882
 31
0.0
  0
LINE
  8
0
  6
CONTINUOUS
 62
     7
  5
1CE
 10
-0.984902
 20
0.469882
 30
0.0
 11
-0.981902
 21
0.47644
 31
0.0
  0
LINE
  8
0
  6
CONTINUOUS
 62
     7
  5
1CF
 10
-0.981902
 20
0.47644
 30
0.0
 11
-0.978853
 21
0.482982
 31
0.0
  0
LINE
  8
0
  6
CONTINUOUS
 62
     7
  5
1D0
 10
-0.978853
 20
0.482982
 30
0.0
 11
-0.975755
 21
0.489506
 31
0.0
  0
LINE
  8
0
  6
CONTINUOUS
 62
     7
  5
1D1
 10
-0.975755
 20
0.489506
 30
0.0
 11
-0.972609
 21
0.496013
 31
0.0
  0
LINE
  8
0
  6
CONTINUOUS
 62
     7
  5
1D2
 10
-0.972609
 20
0.496013
 30
0.0
 11
-0.969414
 21
0.502502
 31
0.0
  0
LINE
  8
0
  6
CONTINUOUS
 62
     7
  5
1D3
 10
-0.969414
 20
0.502502
 30
0.0
 11
-0.966171
 21
0.508974
 31
0.0
  0
LINE
  8
0
  6
CONTINUOUS
 62
     7
  5
1D4
 10
-0.966171
 20
0.508974
 30
0.0
 11
-0.96288
 21
0.515427
 31
0.0
  0
LINE
  8
0
  6
CONTINUOUS
 62
     7
  5
1D5
 10
-0.96288
 20
-0.375171
 30
0.0
 11
-0.971702
 21
-0.357609
 31
0.0
  0
LINE
  8
0
  6
CONTINUOUS
 62
     7
  5
1D6
 10
-0.971702
 20
-0.357609
 30
0.0
 11
-0.980169
 21
-0.339917
 31
0.0
  0
LINE
  8
0
  6
CONTINUOUS
 62
     7
  5
1D7
 10
-0.980169
 20
-0.339917
 30
0.0
 11
-0.988276
 21
-0.322099
 31
0.0
  0
LINE
  8
0
  6
CONTINUOUS
 62
     7
  5
1D8
 10
-0.988276
 20
-0.322099
 30
0.0
 11
-0.996022
 21
-0.304161
 31
0.0
  0
LINE
  8
0
  6
CONTINUOUS
 62
     7
  5
1D9
 10
-0.996022
 20
-0.304161
 30
0.0
 11
-1.003404
 21
-0.286108
 31
0.0
  0
LINE
  8
0
  6
CONTINUOUS
 62
     7
  5
1DA
 10
-1.003404
 20
-0.286108
 30
0.0
 11
-1.010421
 21
-0.267946
 31
0.0
  0
LINE
  8
0
  6
CONTINUOUS
 62
     7
  5
1DB
 10
-1.010421
 20
-0.267946
 30
0.0
 11
-1.017069
 21
-0.24968
 31
0.0
  0
LINE
  8
0
  6
CONTINUOUS
 62
     7
  5
1DC
 10
-1.017069
 20
-0.24968
 30
0.0
 11
-1.023347
 21
-0.231317
 31
0.0
  0
LINE
  8
0
  6
CONTINUOUS
 62
     7
  5
1DD
 10
-1.023347
 20
-0.231317
 30
0.0
 11
-1.029253
 21
-0.212861
 31
0.0
  0
LINE
  8
0
  6
CONTINUOUS
 62
     7
  5
1DE
 10
-1.029253
 20
-0.212861
 30
0.0
 11
-1.034785
 21
-0.194318
 31
0.0
  0
LINE
  8
0
  6
CONTINUOUS
 62
     7
  5
1DF
 10
-1.034785
 20
-0.194318
 30
0.0
 11
-1.039942
 21
-0.175695
 31
0.0
  0
LINE
  8
0
  6
CONTINUOUS
 62
     7
  5
1E0
 10
-1.039942
 20
-0.175695
 30
0.0
 11
-1.044721
 21
-0.156996
 31
0.0
  0
LINE
  8
0
  6
CONTINUOUS
 62
     7
  5
1E1
 10
-1.044721
 20
-0.156996
 30
0.0
 11
-1.049122
 21
-0.138228
 31
0.0
  0
LINE
  8
0
  6
CONTINUOUS
 62
     7
  5
1E2
 10
-1.049122
 20
-0.138228
 30
0.0
 11
-1.053142
 21
-0.119395
 31
0.0
  0
LINE
  8
0
  6
CONTINUOUS
 62
     7
  5
1E3
 10
-1.053142
 20
-0.119395
 30
0.0
 11
-1.056782
 21
-0.100505
 31
0.0
  0
LINE
  8
0
  6
CONTINUOUS
 62
     7
  5
1E4
 10
-1.056782
 20
-0.100505
 30
0.0
 11
-1.060039
 21
-0.081562
 31
0.0
  0
LINE
  8
0
  6
CONTINUOUS
 62
     7
  5
1E5
 10
-1.060039
 20
-0.081562
 30
0.0
 11
-1.062913
 21
-0.062573
 31
0.0
  0
LINE
  8
0
  6
CONTINUOUS
 62
     7
  5
1E6
 10
-1.062913
 20
-0.062573
 30
0.0
 11
-1.065403
 21
-0.043544
 31
0.0
  0
LINE
  8
0
  6
CONTINUOUS
 62
     7
  5
1E7
 10
-1.065403
 20
-0.043544
 30
0.0
 11
-1.067508
 21
-0.024479
 31
0.0
  0
LINE
  8
0
  6
CONTINUOUS
 62
     7
  5
1E8
 10
-1.067508
 20
-0.024479
 30
0.0
 11
-1.069227
 21
-0.005386
 31
0.0
  0
LINE
  8
0
  6
CONTINUOUS
 62
     7
  5
1E9
 10
-1.069227
 20
-0.005386
 30
0.0
 11
-1.07056
 21
0.013731
 31
0.0
  0
LINE
  8
0
  6
CONTINUOUS
 62
     7
  5
1EA
 10
-1.07056
 20
0.013731
 30
0.0
 11
-1.071506
 21
0.032865
 31
0.0
  0
LINE
  8
0
  6
CONTINUOUS
 62
     7
  5
1EB
 10
-1.071506
 20
0.032865
 30
0.0
 11
-1.072066
 21
0.05201
 31
0.0
  0
LINE
  8
0
  6
CONTINUOUS
 62
     7
  5
1EC
 10
-1.072066
 20
0.05201
 30
0.0
 11
-1.072239
 21
0.071161
 31
0.0
  0
LINE
  8
0
  6
CONTINUOUS
 62
     7
  5
1ED
 10
-1.072239
 20
0.071161
 30
0.0
 11
-1.072024
 21
0.090312
 31
0.0
  0
LINE
  8
0
  6
CONTINUOUS
 62
     7
  5
1EE
 10
-1.072024
 20
0.090312
 30
0.0
 11
-1.071423
 21
0.109456
 31
0.0
  0
LINE
  8
0
  6
CONTINUOUS
 62
     7
  5
1EF
 10
-1.071423
 20
0.109456
 30
0.0
 11
-1.070435
 21
0.128588
 31
0.0
  0
LINE
  8
0
  6
CONTINUOUS
 62
     7
  5
1F0
 10
-1.070435
 20
0.128588
 30
0.0
 11
-1.06906
 21
0.147703
 31
0.0
  0
LINE
  8
0
  6
CONTINUOUS
 62
     7
  5
1F1
 10
-1.06906
 20
0.147703
 30
0.0
 11
-1.067299
 21
0.166794
 31
0.0
  0
LINE
  8
0
  6
CONTINUOUS
 62
     7
  5
1F2
 10
-1.067299
 20
0.166794
 30
0.0
 11
-1.065153
 21
0.185855
 31
0.0
  0
LINE
  8
0
  6
CONTINUOUS
 62
     7
  5
1F3
 10
-1.065153
 20
0.185855
 30
0.0
 11
-1.062622
 21
0.20488
 31
0.0
  0
LINE
  8
0
  6
CONTINUOUS
 62
     7
  5
1F4
 10
-1.062622
 20
0.20488
 30
0.0
 11
-1.059706
 21
0.223865
 31
0.0
  0
LINE
  8
0
  6
CONTINUOUS
 62
     7
  5
1F5
 10
-1.059706
 20
0.223865
 30
0.0
 11
-1.056408
 21
0.242802
 31
0.0
  0
LINE
  8
0
  6
CONTINUOUS
 62
     7
  5
1F6
 10
-1.056408
 20
0.242802
 30
0.0
 11
-1.052727
 21
0.261686
 31
0.0
  0
LINE
  8
0
  6
CONTINUOUS
 62
     7
  5
1F7
 10
-1.052727
 20
0.261686
 30
0.0
 11
-1.048665
 21
0.280512
 31
0.0
  0
LINE
  8
0
  6
CONTINUOUS
 62
     7
  5
1F8
 10
-0.2992
 20
-0.375171
 30
0.0
 11
-0.96288
 21
-0.375171
 31
0.0
  0
LINE
  8
0
  6
CONTINUOUS
 62
     7
  5
1F9
 10
-0.2992
 20
-0.247529
 30
0.0
 11
-0.2992
 21
-0.375171
 31
0.0
  0
LINE
  8
0
  6
CONTINUOUS
 62
     7
  5
1FA
 10
-0.2992
 20
-0.375171
 30
0.0
 11
-0.2992
 21
-0.515427
 31
0.0
  0
LINE
  8
0
  6
CONTINUOUS
 62
     7
  5
1FB
 10
-0.96288
 20
-0.375171
 30
0.0
 11
-0.96288
 21
-0.515427
 31
0.0
  0
LINE
  8
0
  6
CONTINUOUS
 62
     7
  5
1FC
 10
-0.96288
 20
-0.515427
 30
0.0
 11
-0.2992
 21
-0.515427
 31
0.0
  0
LINE
  8
0
  6
CONTINUOUS
 62
     7
  5
1FD
 10
-1.048665
 20
-0.280512
 30
0.0
 11
-1.047073
 21
-0.28743
 31
0.0
  0
LINE
  8
0
  6
CONTINUOUS
 62
     7
  5
1FE
 10
-1.047073
 20
-0.28743
 30
0.0
 11
-1.04543
 21
-0.29434
 31
0.0
  0
LINE
  8
0
  6
CONTINUOUS
 62
     7
  5
1FF
 10
-1.04543
 20
-0.29434
 30
0.0
 11
-1.043735
 21
-0.30124
 31
0.0
  0
LINE
  8
0
  6
CONTINUOUS
 62
     7
  5
200
 10
-1.043735
 20
-0.30124
 30
0.0
 11
-1.041989
 21
-0.30813
 31
0.0
  0
LINE
  8
0
  6
CONTINUOUS
 62
     7
  5
201
 10
-1.041989
 20
-0.30813
 30
0.0
 11
-1.040191
 21
-0.315011
 31
0.0
  0
LINE
  8
0
  6
CONTINUOUS
 62
     7
  5
202
 10
-1.040191
 20
-0.315011
 30
0.0
 11
-1.038343
 21
-0.321881
 31
0.0
  0
LINE
  8
0
  6
CONTINUOUS
 62
     7
  5
203
 10
-1.038343
 20
-0.321881
 30
0.0
 11
-1.036443
 21
-0.328741
 31
0.0
  0
LINE
  8
0
  6
CONTINUOUS
 62
     7
  5
204
 10
-1.036443
 20
-0.328741
 30
0.0
 11
-1.034492
 21
-0.33559
 31
0.0
  0
LINE
  8
0
  6
CONTINUOUS
 62
     7
  5
205
 10
-1.034492
 20
-0.33559
 30
0.0
 11
-1.032491
 21
-0.342428
 31
0.0
  0
LINE
  8
0
  6
CONTINUOUS
 62
     7
  5
206
 10
-1.032491
 20
-0.342428
 30
0.0
 11
-1.030438
 21
-0.349255
 31
0.0
  0
LINE
  8
0
  6
CONTINUOUS
 62
     7
  5
207
 10
-1.030438
 20
-0.349255
 30
0.0
 11
-1.028335
 21
-0.35607
 31
0.0
  0
LINE
  8
0
  6
CONTINUOUS
 62
     7
  5
208
 10
-1.028335
 20
-0.35607
 30
0.0
 11
-1.026181
 21
-0.362874
 31
0.0
  0
LINE
  8
0
  6
CONTINUOUS
 62
     7
  5
209
 10
-1.026181
 20
-0.362874
 30
0.0
 11
-1.023976
 21
-0.369665
 31
0.0
  0
LINE
  8
0
  6
CONTINUOUS
 62
     7
  5
20A
 10
-1.023976
 20
-0.369665
 30
0.0
 11
-1.021721
 21
-0.376444
 31
0.0
  0
LINE
  8
0
  6
CONTINUOUS
 62
     7
  5
20B
 10
-1.021721
 20
-0.376444
 30
0.0
 11
-1.019416
 21
-0.38321
 31
0.0
  0
LINE
  8
0
  6
CONTINUOUS
 62
     7
  5
20C
 10
-1.019416
 20
-0.38321
 30
0.0
 11
-1.01706
 21
-0.389962
 31
0.0
  0
LINE
  8
0
  6
CONTINUOUS
 62
     7
  5
20D
 10
-1.01706
 20
-0.389962
 30
0.0
 11
-1.014654
 21
-0.396702
 31
0.0
  0
LINE
  8
0
  6
CONTINUOUS
 62
     7
  5
20E
 10
-1.014654
 20
-0.396702
 30
0.0
 11
-1.012197
 21
-0.403428
 31
0.0
  0
LINE
  8
0
  6
CONTINUOUS
 62
     7
  5
20F
 10
-1.012197
 20
-0.403428
 30
0.0
 11
-1.009691
 21
-0.410141
 31
0.0
  0
LINE
  8
0
  6
CONTINUOUS
 62
     7
  5
210
 10
-1.009691
 20
-0.410141
 30
0.0
 11
-1.007135
 21
-0.416839
 31
0.0
  0
LINE
  8
0
  6
CONTINUOUS
 62
     7
  5
211
 10
-1.007135
 20
-0.416839
 30
0.0
 11
-1.004529
 21
-0.423522
 31
0.0
  0
LINE
  8
0
  6
CONTINUOUS
 62
     7
  5
212
 10
-1.004529
 20
-0.423522
 30
0.0
 11
-1.001873
 21
-0.430191
 31
0.0
  0
LINE
  8
0
  6
CONTINUOUS
 62
     7
  5
213
 10
-1.001873
 20
-0.430191
 30
0.0
 11
-0.999168
 21
-0.436845
 31
0.0
  0
LINE
  8
0
  6
CONTINUOUS
 62
     7
  5
214
 10
-0.999168
 20
-0.436845
 30
0.0
 11
-0.996413
 21
-0.443484
 31
0.0
  0
LINE
  8
0
  6
CONTINUOUS
 62
     7
  5
215
 10
-0.996413
 20
-0.443484
 30
0.0
 11
-0.993609
 21
-0.450107
 31
0.0
  0
LINE
  8
0
  6
CONTINUOUS
 62
     7
  5
216
 10
-0.993609
 20
-0.450107
 30
0.0
 11
-0.990756
 21
-0.456715
 31
0.0
  0
LINE
  8
0
  6
CONTINUOUS
 62
     7
  5
217
 10
-0.990756
 20
-0.456715
 30
0.0
 11
-0.987854
 21
-0.463306
 31
0.0
  0
LINE
  8
0
  6
CONTINUOUS
 62
     7
  5
218
 10
-0.987854
 20
-0.463306
 30
0.0
 11
-0.984902
 21
-0.469882
 31
0.0
  0
LINE
  8
0
  6
CONTINUOUS
 62
     7
  5
219
 10
-0.984902
 20
-0.469882
 30
0.0
 11
-0.981902
 21
-0.47644
 31
0.0
  0
LINE
  8
0
  6
CONTINUOUS
 62
     7
  5
21A
 10
-0.981902
 20
-0.47644
 30
0.0
 11
-0.978853
 21
-0.482982
 31
0.0
  0
LINE
  8
0
  6
CONTINUOUS
 62
     7
  5
21B
 10
-0.978853
 20
-0.482982
 30
0.0
 11
-0.975755
 21
-0.489506
 31
0.0
  0
LINE
  8
0
  6
CONTINUOUS
 62
     7
  5
21C
 10
-0.975755
 20
-0.489506
 30
0.0
 11
-0.972609
 21
-0.496013
 31
0.0
  0
LINE
  8
0
  6
CONTINUOUS
 62
     7
  5
21D
 10
-0.972609
 20
-0.496013
 30
0.0
 11
-0.969414
 21
-0.502502
 31
0.0
  0
LINE
  8
0
  6
CONTINUOUS
 62
     7
  5
21E
 10
-0.969414
 20
-0.502502
 30
0.0
 11
-0.966171
 21
-0.508974
 31
0.0
  0
LINE
  8
0
  6
CONTINUOUS
 62
     7
  5
21F
 10
-0.966171
 20
-0.508974
 30
0.0
 11
-0.96288
 21
-0.515427
 31
0.0
  0
LINE
  8
0
  6
CONTINUOUS
 62
     7
  5
220
 10
-1.077559
 20
0.07874
 30
0.0
 11
-1.077747
 21
0.075631
 31
0.0
  0
LINE
  8
0
  6
CONTINUOUS
 62
     7
  5
221
 10
-1.077747
 20
0.075631
 30
0.0
 11
-1.077925
 21
0.072522
 31
0.0
  0
LINE
  8
0
  6
CONTINUOUS
 62
     7
  5
222
 10
-1.077925
 20
0.072522
 30
0.0
 11
-1.078092
 21
0.069412
 31
0.0
  0
LINE
  8
0
  6
CONTINUOUS
 62
     7
  5
223
 10
-1.078092
 20
0.069412
 30
0.0
 11
-1.07825
 21
0.066301
 31
0.0
  0
LINE
  8
0
  6
CONTINUOUS
 62
     7
  5
224
 10
-1.07825
 20
0.066301
 30
0.0
 11
-1.078397
 21
0.063191
 31
0.0
  0
LINE
  8
0
  6
CONTINUOUS
 62
     7
  5
225
 10
-1.078397
 20
0.063191
 30
0.0
 11
-1.078534
 21
0.06008
 31
0.0
  0
LINE
  8
0
  6
CONTINUOUS
 62
     7
  5
226
 10
-1.078534
 20
0.06008
 30
0.0
 11
-1.078661
 21
0.056968
 31
0.0
  0
LINE
  8
0
  6
CONTINUOUS
 62
     7
  5
227
 10
-1.078661
 20
0.056968
 30
0.0
 11
-1.078777
 21
0.053857
 31
0.0
  0
LINE
  8
0
  6
CONTINUOUS
 62
     7
  5
228
 10
-1.078777
 20
0.053857
 30
0.0
 11
-1.078884
 21
0.050745
 31
0.0
  0
LINE
  8
0
  6
CONTINUOUS
 62
     7
  5
229
 10
-1.078884
 20
0.050745
 30
0.0
 11
-1.07898
 21
0.047633
 31
0.0
  0
LINE
  8
0
  6
CONTINUOUS
 62
     7
  5
22A
 10
-1.07898
 20
0.047633
 30
0.0
 11
-1.079067
 21
0.04452
 31
0.0
  0
LINE
  8
0
  6
CONTINUOUS
 62
     7
  5
22B
 10
-1.079067
 20
0.04452
 30
0.0
 11
-1.079143
 21
0.041408
 31
0.0
  0
LINE
  8
0
  6
CONTINUOUS
 62
     7
  5
22C
 10
-1.079143
 20
0.041408
 30
0.0
 11
-1.079208
 21
0.038295
 31
0.0
  0
LINE
  8
0
  6
CONTINUOUS
 62
     7
  5
22D
 10
-1.079208
 20
0.038295
 30
0.0
 11
-1.079264
 21
0.035182
 31
0.0
  0
LINE
  8
0
  6
CONTINUOUS
 62
     7
  5
22E
 10
-1.079264
 20
0.035182
 30
0.0
 11
-1.07931
 21
0.032069
 31
0.0
  0
LINE
  8
0
  6
CONTINUOUS
 62
     7
  5
22F
 10
-1.07931
 20
0.032069
 30
0.0
 11
-1.079345
 21
0.028956
 31
0.0
  0
LINE
  8
0
  6
CONTINUOUS
 62
     7
  5
230
 10
-1.079345
 20
0.028956
 30
0.0
 11
-1.07937
 21
0.025843
 31
0.0
  0
LINE
  8
0
  6
CONTINUOUS
 62
     7
  5
231
 10
-1.07937
 20
0.025843
 30
0.0
 11
-1.079385
 21
0.022729
 31
0.0
  0
LINE
  8
0
  6
CONTINUOUS
 62
     7
  5
232
 10
-1.079385
 20
0.022729
 30
0.0
 11
-1.07939
 21
0.019616
 31
0.0
  0
LINE
  8
0
  6
CONTINUOUS
 62
     7
  5
233
 10
-1.07939
 20
0.019616
 30
0.0
 11
-1.079385
 21
0.016503
 31
0.0
  0
LINE
  8
0
  6
CONTINUOUS
 62
     7
  5
234
 10
-1.079385
 20
0.016503
 30
0.0
 11
-1.079369
 21
0.013389
 31
0.0
  0
LINE
  8
0
  6
CONTINUOUS
 62
     7
  5
235
 10
-1.079369
 20
0.013389
 30
0.0
 11
-1.079344
 21
0.010276
 31
0.0
  0
LINE
  8
0
  6
CONTINUOUS
 62
     7
  5
236
 10
-1.079344
 20
0.010276
 30
0.0
 11
-1.079308
 21
0.007163
 31
0.0
  0
LINE
  8
0
  6
CONTINUOUS
 62
     7
  5
237
 10
-1.079308
 20
0.007163
 30
0.0
 11
-1.079262
 21
0.00405
 31
0.0
  0
LINE
  8
0
  6
CONTINUOUS
 62
     7
  5
238
 10
-1.079262
 20
0.00405
 30
0.0
 11
-1.079206
 21
0.000937
 31
0.0
  0
LINE
  8
0
  6
CONTINUOUS
 62
     7
  5
239
 10
-1.079206
 20
0.000937
 30
0.0
 11
-1.079139
 21
-0.002176
 31
0.0
  0
LINE
  8
0
  6
CONTINUOUS
 62
     7
  5
23A
 10
-1.079139
 20
-0.002176
 30
0.0
 11
-1.079063
 21
-0.005288
 31
0.0
  0
LINE
  8
0
  6
CONTINUOUS
 62
     7
  5
23B
 10
-1.079063
 20
-0.005288
 30
0.0
 11
-1.078976
 21
-0.008401
 31
0.0
  0
LINE
  8
0
  6
CONTINUOUS
 62
     7
  5
23C
 10
-1.078976
 20
-0.008401
 30
0.0
 11
-1.078879
 21
-0.011513
 31
0.0
  0
LINE
  8
0
  6
CONTINUOUS
 62
     7
  5
23D
 10
-1.078879
 20
-0.011513
 30
0.0
 11
-1.078772
 21
-0.014625
 31
0.0
  0
LINE
  8
0
  6
CONTINUOUS
 62
     7
  5
23E
 10
-1.078772
 20
-0.014625
 30
0.0
 11
-1.078655
 21
-0.017736
 31
0.0
  0
LINE
  8
0
  6
CONTINUOUS
 62
     7
  5
23F
 10
-1.078655
 20
-0.017736
 30
0.0
 11
-1.078528
 21
-0.020848
 31
0.0
  0
LINE
  8
0
  6
CONTINUOUS
 62
     7
  5
240
 10
-1.078528
 20
-0.020848
 30
0.0
 11
-1.07839
 21
-0.023959
 31
0.0
  0
LINE
  8
0
  6
CONTINUOUS
 62
     7
  5
241
 10
-1.07839
 20
-0.023959
 30
0.0
 11
-1.078243
 21
-0.027069
 31
0.0
  0
LINE
  8
0
  6
CONTINUOUS
 62
     7
  5
242
 10
-1.078243
 20
-0.027069
 30
0.0
 11
-1.078085
 21
-0.03018
 31
0.0
  0
LINE
  8
0
  6
CONTINUOUS
 62
     7
  5
243
 10
-1.078085
 20
-0.03018
 30
0.0
 11
-1.078148
 21
-0.031217
 31
0.0
  0
LINE
  8
0
  6
CONTINUOUS
 62
     7
  5
244
 10
-1.078148
 20
-0.031217
 30
0.0
 11
-1.078207
 21
-0.032254
 31
0.0
  0
LINE
  8
0
  6
CONTINUOUS
 62
     7
  5
245
 10
-1.078207
 20
-0.032254
 30
0.0
 11
-1.078263
 21
-0.033291
 31
0.0
  0
LINE
  8
0
  6
CONTINUOUS
 62
     7
  5
246
 10
-1.078263
 20
-0.033291
 30
0.0
 11
-1.078315
 21
-0.034328
 31
0.0
  0
LINE
  8
0
  6
CONTINUOUS
 62
     7
  5
247
 10
-1.078315
 20
-0.034328
 30
0.0
 11
-1.078364
 21
-0.035365
 31
0.0
  0
LINE
  8
0
  6
CONTINUOUS
 62
     7
  5
248
 10
-1.078364
 20
-0.035365
 30
0.0
 11
-1.07841
 21
-0.036402
 31
0.0
  0
LINE
  8
0
  6
CONTINUOUS
 62
     7
  5
249
 10
-1.07841
 20
-0.036402
 30
0.0
 11
-1.078452
 21
-0.03744
 31
0.0
  0
LINE
  8
0
  6
CONTINUOUS
 62
     7
  5
24A
 10
-1.078452
 20
-0.03744
 30
0.0
 11
-1.078491
 21
-0.038477
 31
0.0
  0
LINE
  8
0
  6
CONTINUOUS
 62
     7
  5
24B
 10
-1.078491
 20
-0.038477
 30
0.0
 11
-1.078527
 21
-0.039514
 31
0.0
  0
LINE
  8
0
  6
CONTINUOUS
 62
     7
  5
24C
 10
-1.078527
 20
-0.039514
 30
0.0
 11
-1.078559
 21
-0.040552
 31
0.0
  0
LINE
  8
0
  6
CONTINUOUS
 62
     7
  5
24D
 10
-1.078559
 20
-0.040552
 30
0.0
 11
-1.078588
 21
-0.041589
 31
0.0
  0
LINE
  8
0
  6
CONTINUOUS
 62
     7
  5
24E
 10
-1.078588
 20
-0.041589
 30
0.0
 11
-1.078613
 21
-0.042626
 31
0.0
  0
LINE
  8
0
  6
CONTINUOUS
 62
     7
  5
24F
 10
-1.078613
 20
-0.042626
 30
0.0
 11
-1.078635
 21
-0.043664
 31
0.0
  0
LINE
  8
0
  6
CONTINUOUS
 62
     7
  5
250
 10
-1.078635
 20
-0.043664
 30
0.0
 11
-1.078653
 21
-0.044701
 31
0.0
  0
LINE
  8
0
  6
CONTINUOUS
 62
     7
  5
251
 10
-1.078653
 20
-0.044701
 30
0.0
 11
-1.078669
 21
-0.045739
 31
0.0
  0
LINE
  8
0
  6
CONTINUOUS
 62
     7
  5
252
 10
-1.078669
 20
-0.045739
 30
0.0
 11
-1.07868
 21
-0.046776
 31
0.0
  0
LINE
  8
0
  6
CONTINUOUS
 62
     7
  5
253
 10
-1.07868
 20
-0.046776
 30
0.0
 11
-1.078689
 21
-0.047814
 31
0.0
  0
LINE
  8
0
  6
CONTINUOUS
 62
     7
  5
254
 10
-1.078689
 20
-0.047814
 30
0.0
 11
-1.078694
 21
-0.048851
 31
0.0
  0
LINE
  8
0
  6
CONTINUOUS
 62
     7
  5
255
 10
-1.078694
 20
-0.048851
 30
0.0
 11
-1.078695
 21
-0.049888
 31
0.0
  0
LINE
  8
0
  6
CONTINUOUS
 62
     7
  5
256
 10
-1.078695
 20
-0.049888
 30
0.0
 11
-1.078694
 21
-0.050926
 31
0.0
  0
LINE
  8
0
  6
CONTINUOUS
 62
     7
  5
257
 10
-1.078694
 20
-0.050926
 30
0.0
 11
-1.078688
 21
-0.051963
 31
0.0
  0
LINE
  8
0
  6
CONTINUOUS
 62
     7
  5
258
 10
-1.078688
 20
-0.051963
 30
0.0
 11
-1.07868
 21
-0.053001
 31
0.0
  0
LINE
  8
0
  6
CONTINUOUS
 62
     7
  5
259
 10
-1.07868
 20
-0.053001
 30
0.0
 11
-1.078668
 21
-0.054038
 31
0.0
  0
LINE
  8
0
  6
CONTINUOUS
 62
     7
  5
25A
 10
-1.078668
 20
-0.054038
 30
0.0
 11
-1.078653
 21
-0.055076
 31
0.0
  0
LINE
  8
0
  6
CONTINUOUS
 62
     7
  5
25B
 10
-1.078653
 20
-0.055076
 30
0.0
 11
-1.078634
 21
-0.056113
 31
0.0
  0
LINE
  8
0
  6
CONTINUOUS
 62
     7
  5
25C
 10
-1.078634
 20
-0.056113
 30
0.0
 11
-1.078612
 21
-0.057151
 31
0.0
  0
LINE
  8
0
  6
CONTINUOUS
 62
     7
  5
25D
 10
-1.078612
 20
-0.057151
 30
0.0
 11
-1.078586
 21
-0.058188
 31
0.0
  0
LINE
  8
0
  6
CONTINUOUS
 62
     7
  5
25E
 10
-1.078586
 20
-0.058188
 30
0.0
 11
-1.078557
 21
-0.059225
 31
0.0
  0
LINE
  8
0
  6
CONTINUOUS
 62
     7
  5
25F
 10
-1.078557
 20
-0.059225
 30
0.0
 11
-1.078525
 21
-0.060263
 31
0.0
  0
LINE
  8
0
  6
CONTINUOUS
 62
     7
  5
260
 10
-1.078525
 20
-0.060263
 30
0.0
 11
-1.078489
 21
-0.0613
 31
0.0
  0
LINE
  8
0
  6
CONTINUOUS
 62
     7
  5
261
 10
-1.078489
 20
-0.0613
 30
0.0
 11
-1.07845
 21
-0.062337
 31
0.0
  0
LINE
  8
0
  6
CONTINUOUS
 62
     7
  5
262
 10
-1.07845
 20
-0.062337
 30
0.0
 11
-1.078408
 21
-0.063375
 31
0.0
  0
LINE
  8
0
  6
CONTINUOUS
 62
     7
  5
263
 10
-1.078408
 20
-0.063375
 30
0.0
 11
-1.078362
 21
-0.064412
 31
0.0
  0
LINE
  8
0
  6
CONTINUOUS
 62
     7
  5
264
 10
-1.078362
 20
-0.064412
 30
0.0
 11
-1.078313
 21
-0.065449
 31
0.0
  0
LINE
  8
0
  6
CONTINUOUS
 62
     7
  5
265
 10
-1.078313
 20
-0.065449
 30
0.0
 11
-1.07826
 21
-0.066486
 31
0.0
  0
LINE
  8
0
  6
CONTINUOUS
 62
     7
  5
266
 10
-1.078531
 20
-0.060155
 30
0.0
 11
-1.078602
 21
-0.058442
 31
0.0
  0
LINE
  8
0
  6
CONTINUOUS
 62
     7
  5
267
 10
-1.078602
 20
-0.058442
 30
0.0
 11
-1.07867
 21
-0.056729
 31
0.0
  0
LINE
  8
0
  6
CONTINUOUS
 62
     7
  5
268
 10
-1.07867
 20
-0.056729
 30
0.0
 11
-1.078735
 21
-0.055017
 31
0.0
  0
LINE
  8
0
  6
CONTINUOUS
 62
     7
  5
269
 10
-1.078735
 20
-0.055017
 30
0.0
 11
-1.078797
 21
-0.053304
 31
0.0
  0
LINE
  8
0
  6
CONTINUOUS
 62
     7
  5
26A
 10
-1.078797
 20
-0.053304
 30
0.0
 11
-1.078856
 21
-0.051591
 31
0.0
  0
LINE
  8
0
  6
CONTINUOUS
 62
     7
  5
26B
 10
-1.078856
 20
-0.051591
 30
0.0
 11
-1.078912
 21
-0.049878
 31
0.0
  0
LINE
  8
0
  6
CONTINUOUS
 62
     7
  5
26C
 10
-1.078912
 20
-0.049878
 30
0.0
 11
-1.078965
 21
-0.048165
 31
0.0
  0
LINE
  8
0
  6
CONTINUOUS
 62
     7
  5
26D
 10
-1.078965
 20
-0.048165
 30
0.0
 11
-1.079014
 21
-0.046452
 31
0.0
  0
LINE
  8
0
  6
CONTINUOUS
 62
     7
  5
26E
 10
-1.079014
 20
-0.046452
 30
0.0
 11
-1.079061
 21
-0.044739
 31
0.0
  0
LINE
  8
0
  6
CONTINUOUS
 62
     7
  5
26F
 10
-1.079061
 20
-0.044739
 30
0.0
 11
-1.079104
 21
-0.043026
 31
0.0
  0
LINE
  8
0
  6
CONTINUOUS
 62
     7
  5
270
 10
-1.079104
 20
-0.043026
 30
0.0
 11
-1.079145
 21
-0.041312
 31
0.0
  0
LINE
  8
0
  6
CONTINUOUS
 62
     7
  5
271
 10
-1.079145
 20
-0.041312
 30
0.0
 11
-1.079182
 21
-0.039599
 31
0.0
  0
LINE
  8
0
  6
CONTINUOUS
 62
     7
  5
272
 10
-1.079182
 20
-0.039599
 30
0.0
 11
-1.079216
 21
-0.037886
 31
0.0
  0
LINE
  8
0
  6
CONTINUOUS
 62
     7
  5
273
 10
-1.079216
 20
-0.037886
 30
0.0
 11
-1.079248
 21
-0.036172
 31
0.0
  0
LINE
  8
0
  6
CONTINUOUS
 62
     7
  5
274
 10
-1.079248
 20
-0.036172
 30
0.0
 11
-1.079276
 21
-0.034459
 31
0.0
  0
LINE
  8
0
  6
CONTINUOUS
 62
     7
  5
275
 10
-1.079276
 20
-0.034459
 30
0.0
 11
-1.079301
 21
-0.032745
 31
0.0
  0
LINE
  8
0
  6
CONTINUOUS
 62
     7
  5
276
 10
-1.079301
 20
-0.032745
 30
0.0
 11
-1.079323
 21
-0.031032
 31
0.0
  0
LINE
  8
0
  6
CONTINUOUS
 62
     7
  5
277
 10
-1.079323
 20
-0.031032
 30
0.0
 11
-1.079342
 21
-0.029318
 31
0.0
  0
LINE
  8
0
  6
CONTINUOUS
 62
     7
  5
278
 10
-1.079342
 20
-0.029318
 30
0.0
 11
-1.079357
 21
-0.027605
 31
0.0
  0
LINE
  8
0
  6
CONTINUOUS
 62
     7
  5
279
 10
-1.079357
 20
-0.027605
 30
0.0
 11
-1.07937
 21
-0.025891
 31
0.0
  0
LINE
  8
0
  6
CONTINUOUS
 62
     7
  5
27A
 10
-1.07937
 20
-0.025891
 30
0.0
 11
-1.07938
 21
-0.024178
 31
0.0
  0
LINE
  8
0
  6
CONTINUOUS
 62
     7
  5
27B
 10
-1.07938
 20
-0.024178
 30
0.0
 11
-1.079386
 21
-0.022464
 31
0.0
  0
LINE
  8
0
  6
CONTINUOUS
 62
     7
  5
27C
 10
-1.079386
 20
-0.022464
 30
0.0
 11
-1.07939
 21
-0.02075
 31
0.0
  0
LINE
  8
0
  6
CONTINUOUS
 62
     7
  5
27D
 10
-1.07939
 20
-0.02075
 30
0.0
 11
-1.07939
 21
-0.019037
 31
0.0
  0
LINE
  8
0
  6
CONTINUOUS
 62
     7
  5
27E
 10
-1.07939
 20
-0.019037
 30
0.0
 11
-1.079387
 21
-0.017323
 31
0.0
  0
LINE
  8
0
  6
CONTINUOUS
 62
     7
  5
27F
 10
-1.079387
 20
-0.017323
 30
0.0
 11
-1.079382
 21
-0.01561
 31
0.0
  0
LINE
  8
0
  6
CONTINUOUS
 62
     7
  5
280
 10
-1.079382
 20
-0.01561
 30
0.0
 11
-1.079373
 21
-0.013896
 31
0.0
  0
LINE
  8
0
  6
CONTINUOUS
 62
     7
  5
281
 10
-1.079373
 20
-0.013896
 30
0.0
 11
-1.079361
 21
-0.012182
 31
0.0
  0
LINE
  8
0
  6
CONTINUOUS
 62
     7
  5
282
 10
-1.079361
 20
-0.012182
 30
0.0
 11
-1.079346
 21
-0.010469
 31
0.0
  0
LINE
  8
0
  6
CONTINUOUS
 62
     7
  5
283
 10
-1.079346
 20
-0.010469
 30
0.0
 11
-1.079328
 21
-0.008755
 31
0.0
  0
LINE
  8
0
  6
CONTINUOUS
 62
     7
  5
284
 10
-1.079328
 20
-0.008755
 30
0.0
 11
-1.079306
 21
-0.007042
 31
0.0
  0
LINE
  8
0
  6
CONTINUOUS
 62
     7
  5
285
 10
-1.079306
 20
-0.007042
 30
0.0
 11
-1.079282
 21
-0.005328
 31
0.0
  0
LINE
  8
0
  6
CONTINUOUS
 62
     7
  5
286
 10
-1.079282
 20
-0.005328
 30
0.0
 11
-1.079255
 21
-0.003615
 31
0.0
  0
LINE
  8
0
  6
CONTINUOUS
 62
     7
  5
287
 10
-1.079255
 20
-0.003615
 30
0.0
 11
-1.079224
 21
-0.001901
 31
0.0
  0
LINE
  8
0
  6
CONTINUOUS
 62
     7
  5
288
 10
-1.079224
 20
-0.001901
 30
0.0
 11
-1.079191
 21
-0.000188
 31
0.0
  0
LINE
  8
0
  6
CONTINUOUS
 62
     7
  5
289
 10
0.28701
 20
0.267462
 30
0.0
 11
0.28701
 21
0.214912
 31
0.0
  0
LINE
  8
0
  6
CONTINUOUS
 62
     7
  5
28A
 10
0.28701
 20
0.340539
 30
0.0
 11
0.28701
 21
0.267462
 31
0.0
  0
LINE
  8
0
  6
CONTINUOUS
 62
     7
  5
28B
 10
0.28701
 20
0.355673
 30
0.0
 11
0.28701
 21
0.340539
 31
0.0
  0
LINE
  8
0
  6
CONTINUOUS
 62
     7
  5
28C
 10
0.5315
 20
0.214912
 30
0.0
 11
0.28701
 21
0.214912
 31
0.0
  0
LINE
  8
0
  6
CONTINUOUS
 62
     7
  5
28D
 10
0.5315
 20
0.214912
 30
0.0
 11
0.5315
 21
0.267462
 31
0.0
  0
LINE
  8
0
  6
CONTINUOUS
 62
     7
  5
28E
 10
0.5315
 20
0.340539
 30
0.0
 11
0.5315
 21
0.355673
 31
0.0
  0
LINE
  8
0
  6
CONTINUOUS
 62
     7
  5
28F
 10
0.5315
 20
0.267462
 30
0.0
 11
0.5315
 21
0.340539
 31
0.0
  0
LINE
  8
0
  6
CONTINUOUS
 62
     7
  5
290
 10
0.28701
 20
-0.340539
 30
0.0
 11
0.28701
 21
-0.355673
 31
0.0
  0
LINE
  8
0
  6
CONTINUOUS
 62
     7
  5
291
 10
0.28701
 20
-0.267462
 30
0.0
 11
0.28701
 21
-0.340539
 31
0.0
  0
LINE
  8
0
  6
CONTINUOUS
 62
     7
  5
292
 10
0.28701
 20
-0.214912
 30
0.0
 11
0.28701
 21
-0.267462
 31
0.0
  0
LINE
  8
0
  6
CONTINUOUS
 62
     7
  5
293
 10
0.5315
 20
-0.355673
 30
0.0
 11
0.5315
 21
-0.340539
 31
0.0
  0
LINE
  8
0
  6
CONTINUOUS
 62
     7
  5
294
 10
0.28701
 20
-0.214912
 30
0.0
 11
0.5315
 21
-0.214912
 31
0.0
  0
LINE
  8
0
  6
CONTINUOUS
 62
     7
  5
295
 10
0.5315
 20
-0.267462
 30
0.0
 11
0.5315
 21
-0.214912
 31
0.0
  0
LINE
  8
0
  6
CONTINUOUS
 62
     7
  5
296
 10
0.5315
 20
-0.340539
 30
0.0
 11
0.5315
 21
-0.267462
 31
0.0
  0
LINE
  8
0
  6
CONTINUOUS
 62
     7
  5
297
 10
0.7441
 20
-0.125
 30
0.0
 11
0.6191
 21
-0.125
 31
0.0
  0
LINE
  8
0
  6
CONTINUOUS
 62
     7
  5
298
 10
0.6191
 20
0.125
 30
0.0
 11
0.7441
 21
0.125
 31
0.0
  0
LINE
  8
0
  6
CONTINUOUS
 62
     7
  5
299
 10
0.6191
 20
-0.125
 30
0.0
 11
0.6191
 21
0.125
 31
0.0
  0
LINE
  8
0
  6
CONTINUOUS
 62
     7
  5
29A
 10
0.7441
 20
-0.125
 30
0.0
 11
0.7441
 21
-0.374016
 31
0.0
  0
LINE
  8
0
  6
CONTINUOUS
 62
     7
  5
29B
 10
0.7441
 20
0.374016
 30
0.0
 11
0.7441
 21
0.27049
 31
0.0
  0
LINE
  8
0
  6
CONTINUOUS
 62
     7
  5
29C
 10
0.7441
 20
0.27049
 30
0.0
 11
0.7441
 21
0.205709
 31
0.0
  0
LINE
  8
0
  6
CONTINUOUS
 62
     7
  5
29D
 10
0.7441
 20
0.205709
 30
0.0
 11
0.7441
 21
0.187008
 31
0.0
  0
LINE
  8
0
  6
CONTINUOUS
 62
     7
  5
29E
 10
0.7441
 20
0.187008
 30
0.0
 11
0.7441
 21
0.125
 31
0.0
  0
LINE
  8
0
  6
CONTINUOUS
 62
     7
  5
29F
 10
0.7441
 20
0.125
 30
0.0
 11
0.7441
 21
-0.125
 31
0.0
  0
LINE
  8
0
  6
CONTINUOUS
 62
     7
  5
2A0
 10
0.7441
 20
0.187008
 30
0.0
 11
0.669297
 21
0.187008
 31
0.0
  0
LINE
  8
0
  6
CONTINUOUS
 62
     7
  5
2A1
 10
0.04252
 20
0.356309
 30
0.0
 11
0.04252
 21
0.433071
 31
0.0
  0
LINE
  8
0
  6
CONTINUOUS
 62
     7
  5
2A2
 10
0.04252
 20
0.257741
 30
0.0
 11
0.024803
 21
0.257741
 31
0.0
  0
LINE
  8
0
  6
CONTINUOUS
 62
     7
  5
2A3
 10
0.04252
 20
0.257741
 30
0.0
 11
0.04252
 21
0.356309
 31
0.0
  0
LINE
  8
0
  6
CONTINUOUS
 62
     7
  5
2A4
 10
0.024803
 20
-0.257741
 30
0.0
 11
0.04252
 21
-0.257741
 31
0.0
  0
LINE
  8
0
  6
CONTINUOUS
 62
     7
  5
2A5
 10
0.04252
 20
-0.257741
 30
0.0
 11
0.04252
 21
0.257741
 31
0.0
  0
LINE
  8
0
  6
CONTINUOUS
 62
     7
  5
2A6
 10
0.04252
 20
-0.356309
 30
0.0
 11
0.04252
 21
-0.257741
 31
0.0
  0
LINE
  8
0
  6
CONTINUOUS
 62
     7
  5
2A7
 10
0.04252
 20
-0.433071
 30
0.0
 11
0.04252
 21
-0.356309
 31
0.0
  0
LINE
  8
0
  6
CONTINUOUS
 62
     7
  5
2A8
 10
0.669297
 20
0.187008
 30
0.0
 11
0.669297
 21
0.205709
 31
0.0
  0
LINE
  8
0
  6
CONTINUOUS
 62
     7
  5
2A9
 10
0.669297
 20
0.205709
 30
0.0
 11
0.669297
 21
0.27049
 31
0.0
  0
LINE
  8
0
  6
CONTINUOUS
 62
     7
  5
2AA
 10
0.669297
 20
0.205709
 30
0.0
 11
0.7441
 21
0.205709
 31
0.0
  0
LINE
  8
0
  6
CONTINUOUS
 62
     7
  5
2AB
 10
0.669297
 20
0.27049
 30
0.0
 11
0.7441
 21
0.27049
 31
0.0
  0
LINE
  8
0
  6
CONTINUOUS
 62
     7
  5
2AC
 10
0.5315
 20
0.355673
 30
0.0
 11
0.5315
 21
0.413386
 31
0.0
  0
LINE
  8
0
  6
CONTINUOUS
 62
     7
  5
2AD
 10
0.5315
 20
-0.214912
 30
0.0
 11
0.5315
 21
0.214912
 31
0.0
  0
LINE
  8
0
  6
CONTINUOUS
 62
     7
  5
2AE
 10
0.5315
 20
-0.413386
 30
0.0
 11
0.5315
 21
-0.355673
 31
0.0
  0
LINE
  8
0
  6
CONTINUOUS
 62
     7
  5
2AF
 10
0.024803
 20
-0.531496
 30
0.0
 11
0.024803
 21
0.531496
 31
0.0
  0
ARC
  8
0
  6
CONTINUOUS
 62
     7
  5
2B0
 10
1.122991
 20
0.0
 30
0.0
 40
1.477322
 50
164.584387
 51
166.742782
  0
LINE
  8
0
  6
CONTINUOUS
 62
     7
  5
2B1
 10
-0.283465
 20
0.3927
 30
0.0
 11
-0.301181
 21
0.3927
 31
0.0
  0
LINE
  8
0
  6
CONTINUOUS
 62
     7
  5
2B2
 10
-0.2992
 20
-0.3927
 30
0.0
 11
-0.283465
 21
-0.3927
 31
0.0
  0
ARC
  8
0
  6
CONTINUOUS
 62
     7
  5
2B3
 10
3.701681
 20
0.0
 30
0.0
 40
4.016642
 50
171.971312
 51
172.8201
  0
ARC
  8
0
  6
CONTINUOUS
 62
     7
  5
2B4
 10
3.701681
 20
0.0
 30
0.0
 40
4.016642
 50
187.1799
 51
188.028688
  0
LINE
  8
0
  6
CONTINUOUS
 62
     7
  5
2B5
 10
0.0
 20
0.561
 30
0.0
 11
-0.275591
 21
0.561
 31
0.0
  0
LINE
  8
0
  6
CONTINUOUS
 62
     7
  5
2B6
 10
-0.275591
 20
-0.561
 30
0.0
 11
0.0
 21
-0.561
 31
0.0
  0
ARC
  8
0
  6
CONTINUOUS
 62
     7
  5
2B7
 10
0.191246
 20
0.0
 30
0.0
 40
1.271246
 50
167.252263
 51
176.448864
  0
ARC
  8
0
  6
CONTINUOUS
 62
     7
  5
2B8
 10
0.191246
 20
0.0
 30
0.0
 40
1.271246
 50
182.997938
 51
192.747737
  0
LINE
  8
0
  6
CONTINUOUS
 62
     7
  5
2B9
 10
0.5315
 20
0.355673
 30
0.0
 11
0.28701
 21
0.355673
 31
0.0
  0
LINE
  8
0
  6
CONTINUOUS
 62
     7
  5
2BA
 10
0.28701
 20
-0.355673
 30
0.0
 11
0.5315
 21
-0.355673
 31
0.0
  0
LINE
  8
0
  6
CONTINUOUS
 62
     7
  5
2BB
 10
0.7441
 20
0.374016
 30
0.0
 11
0.5315
 21
0.374016
 31
0.0
  0
LINE
  8
0
  6
CONTINUOUS
 62
     7
  5
2BC
 10
0.5315
 20
-0.374016
 30
0.0
 11
0.7441
 21
-0.374016
 31
0.0
  0
LINE
  8
0
  6
CONTINUOUS
 62
     7
  5
2BD
 10
0.04252
 20
0.433071
 30
0.0
 11
0.024803
 21
0.433071
 31
0.0
  0
LINE
  8
0
  6
CONTINUOUS
 62
     7
  5
2BE
 10
0.04252
 20
0.356309
 30
0.0
 11
0.024803
 21
0.356309
 31
0.0
  0
LINE
  8
0
  6
CONTINUOUS
 62
     7
  5
2BF
 10
0.024803
 20
-0.356309
 30
0.0
 11
0.04252
 21
-0.356309
 31
0.0
  0
LINE
  8
0
  6
CONTINUOUS
 62
     7
  5
2C0
 10
0.024803
 20
-0.433071
 30
0.0
 11
0.04252
 21
-0.433071
 31
0.0
  0
LINE
  8
0
  6
CONTINUOUS
 62
     7
  5
2C1
 10
0.04252
 20
-0.413386
 30
0.0
 11
0.5315
 21
-0.413386
 31
0.0
  0
LINE
  8
0
  6
CONTINUOUS
 62
     7
  5
2C2
 10
0.5315
 20
0.413386
 30
0.0
 11
0.04252
 21
0.413386
 31
0.0
  0
LINE
  8
0
  6
CONTINUOUS
 62
     7
  5
2C3
 10
0.0
 20
-0.531496
 30
0.0
 11
0.024803
 21
-0.531496
 31
0.0
  0
LINE
  8
0
  6
CONTINUOUS
 62
     7
  5
2C4
 10
0.024803
 20
0.531496
 30
0.0
 11
0.0
 21
0.531496
 31
0.0
  0
ENDSEC
  0
EOF
