999
DXF file: C:\Users\sesa63760\Dev\_Creo\CAD\MCADID0004058_3D-CAD\drw0001_6.dxf
999
Pro/ENGINEER 2019471 by Parametric Technology Corporation
  0
SECTION
  2
HEADER
  9
$ACADVER
  1
AC1024
  9
$DWGCODEPAGE
  3
ANSI_1252
  9
$EXTMAX
 10
148.5273965033
 20
210.0601750547
 30
0.0
  9
$EXTMIN
 10
0.0
 20
0.0
 30
0.0
  9
$LIMMIN
 10
0.0
 20
0.0
  9
$LIMMAX
 10
148.5273965033
 20
210.0601750547
  9
$VIEWCTR
 10
74.2636982517
 20
105.0300875274
  9
$VIEWSIZE
 40
210.0601750547
  9
$CLAYER
  8
0
  9
$LTSCALE
 40
13.692811411
  9
$CELTYPE
  6
BYLAYER
  9
$DIMSCALE
 40
1.0
  9
$DIMASZ
 40
1.7681832917
  9
$DIMEXO
 40
1.0
  9
$DIMDLI
 40
9.4604878839
  9
$DIMEXE
 40
1.0
  9
$DIMCEN
 40
2.2406418673
  9
$DIMLFAC
 40
1.0
  9
$DIMBLK
  1
_FILLED
  9
$DIMALT
 70
0
  9
$DIMALTF
 40
0.0393700787
  9
$DIMTXT
 40
2.4754566084
  9
$DIMTOL
 70
1
  9
$DIMLIM
 70
0
  9
$DIMTFAC
 40
1.0
  9
$DIMTP
 40
0.01
  9
$DIMTM
 40
0.01
  9
$DIMGAP
 40
0.625
  9
$DIMDSEP
 70
46
  9
$AUNITS
 70
0
  9
$PDMODE
 70
3
  9
$PDSIZE
 40
0.3125
  9
$HANDSEED
  5
297
  9
$TILEMODE
 70
1
  9
$MEASUREMENT
 70
1
  9
$INSUNITS
 70
4
  0
ENDSEC
  0
SECTION
  2
CLASSES
  0
CLASS
  1
ACDBDICTIONARYWDFLT
  2
AcDbDictionaryWithDefault
  3
AutoCAD 2000
 90
0
 91
1
280
0
281
0
  0
CLASS
  1
ACDBPLACEHOLDER
  2
AcDbPlaceHolder
  3
AutoCAD 2000
 90
0
 91
1
280
0
281
0
  0
CLASS
  1
LAYOUT
  2
AcDbLayout
  3
AutoCAD 2000
 90
0
 91
0
280
0
281
0
  0
ENDSEC
  0
SECTION
  2
TABLES
  0
TABLE
  2
VPORT
  5
8
100
AcDbSymbolTable
 70
2
  0
VPORT
  5
1F4
100
AcDbSymbolTableRecord
100
AcDbViewportTableRecord
  2
*ACTIVE
 70
0
 10
0.0
 20
0.0
 11
1.0
 21
1.0
 12
74.2636982517
 22
105.0300875274
 13
0.0
 23
0.0
 14
1.0
 24
1.0
 15
0.0
 25
0.0
 16
0.0
 26
0.0
 36
1.0
 17
0.0
 27
0.0
 37
0.0
 40
210.0601750547
 41
0.7070707071
 42
50.0
 43
0.0
 44
0.0
 50
0.0
 51
0.0
 71
0
 72
100
 73
1
 74
1
 75
0
 76
0
 77
0
 78
0
  0
ENDTAB
  0
TABLE
  2
LTYPE
  5
5
100
AcDbSymbolTable
 70
6
  0
LTYPE
  5
14
100
AcDbSymbolTableRecord
100
AcDbLinetypeTableRecord
  2
BYBLOCK
 70
0
  3

 72
65
 73
0
 40
0.0
  0
LTYPE
  5
15
100
AcDbSymbolTableRecord
100
AcDbLinetypeTableRecord
  2
BYLAYER
 70
0
  3

 72
65
 73
0
 40
0.0
  0
LTYPE
  5
16
100
AcDbSymbolTableRecord
100
AcDbLinetypeTableRecord
  2
CONTINUOUS
 70
64
  3
Solid line
 72
65
 73
0
 40
0.0
  0
LTYPE
  5
1F5
100
AcDbSymbolTableRecord
100
AcDbLinetypeTableRecord
  2
CENTER
 70
64
  3
____ _ ____ _ ____ _ ____ _ ____ _ ____ _ ____
 72
65
 73
4
 40
0.6
 49
0.375
 74
0
 49
-0.075
 74
0
 49
0.075
 74
0
 49
-0.075
 74
0
  0
LTYPE
  5
1F6
100
AcDbSymbolTableRecord
100
AcDbLinetypeTableRecord
  2
HIDDEN
 70
64
  3
- - - - - - - - - - - - - - - - - - - -
 72
65
 73
2
 40
0.2
 49
0.1
 74
0
 49
-0.1
 74
0
  0
LTYPE
  5
1F7
100
AcDbSymbolTableRecord
100
AcDbLinetypeTableRecord
  2
PHANTOM
 70
64
  3
_____ _ _ _____ _ _ _____ _ _ _____
 72
65
 73
6
 40
0.8
 49
0.45
 74
0
 49
-0.05
 74
0
 49
0.1
 74
0
 49
-0.05
 74
0
 49
0.1
 74
0
 49
-0.05
 74
0
  0
LTYPE
  5
1F8
100
AcDbSymbolTableRecord
100
AcDbLinetypeTableRecord
  2
DOT
 70
64
  3
. . . . . . . . . . . . . . . . . . . .
 72
65
 73
2
 40
0.2
 49
0.1
 74
0
 49
-0.1
 74
0
  0
LTYPE
  5
1F9
100
AcDbSymbolTableRecord
100
AcDbLinetypeTableRecord
  2
DASHED
 70
64
  3
- - - - - - - - - - - - - - - - - - - -
 72
65
 73
2
 40
0.2
 49
0.1
 74
0
 49
-0.1
 74
0
  0
ENDTAB
  0
TABLE
  2
LAYER
  5
2
100
AcDbSymbolTable
 70
36
  0
LAYER
  5
10
100
AcDbSymbolTableRecord
100
AcDbLayerTableRecord
  2
0
 70
0
 62
7
  6
CONTINUOUS
370
-3
390
F
  0
LAYER
  5
1FA
100
AcDbSymbolTableRecord
100
AcDbLayerTableRecord
  2
DEFAULT_1
 70
0
 62
7
  6
CENTER
370
-3
390
F
  0
LAYER
  5
1FB
100
AcDbSymbolTableRecord
100
AcDbLayerTableRecord
  2
DEFAULT_2
 70
0
 62
7
  6
HIDDEN
370
-3
390
F
  0
LAYER
  5
1FC
100
AcDbSymbolTableRecord
100
AcDbLayerTableRecord
  2
DEFAULT_3
 70
0
 62
7
  6
PHANTOM
370
-3
390
F
  0
LAYER
  5
1FD
100
AcDbSymbolTableRecord
100
AcDbLayerTableRecord
  2
00_COMPONENTS
 70
0
 62
7
  6
CONTINUOUS
370
-3
390
F
  0
LAYER
  5
1FE
100
AcDbSymbolTableRecord
100
AcDbLayerTableRecord
  2
01_1_DEFAULT_DATUMS
 70
0
 62
7
  6
CONTINUOUS
370
-3
390
F
  0
LAYER
  5
1FF
100
AcDbSymbolTableRecord
100
AcDbLayerTableRecord
  2
01_PLANES
 70
0
 62
7
  6
CONTINUOUS
370
-3
390
F
  0
LAYER
  5
200
100
AcDbSymbolTableRecord
100
AcDbLayerTableRecord
  2
02_COORD_SYS
 70
0
 62
7
  6
CONTINUOUS
370
-3
390
F
  0
LAYER
  5
201
100
AcDbSymbolTableRecord
100
AcDbLayerTableRecord
  2
03_AXES
 70
0
 62
7
  6
CONTINUOUS
370
-3
390
F
  0
LAYER
  5
202
100
AcDbSymbolTableRecord
100
AcDbLayerTableRecord
  2
04_POINTS
 70
0
 62
7
  6
CONTINUOUS
370
-3
390
F
  0
LAYER
  5
203
100
AcDbSymbolTableRecord
100
AcDbLayerTableRecord
  2
05_CURVES
 70
0
 62
7
  6
CONTINUOUS
370
-3
390
F
  0
LAYER
  5
204
100
AcDbSymbolTableRecord
100
AcDbLayerTableRecord
  2
06_SURFS
 70
0
 62
7
  6
CONTINUOUS
370
-3
390
F
  0
LAYER
  5
205
100
AcDbSymbolTableRecord
100
AcDbLayerTableRecord
  2
07_COSMETICS
 70
0
 62
7
  6
CONTINUOUS
370
-3
390
F
  0
LAYER
  5
206
100
AcDbSymbolTableRecord
100
AcDbLayerTableRecord
  2
10_NOTES
 70
0
 62
7
  6
CONTINUOUS
370
-3
390
F
  0
LAYER
  5
207
100
AcDbSymbolTableRecord
100
AcDbLayerTableRecord
  2
11_NOTES_PUB
 70
0
 62
7
  6
CONTINUOUS
370
-3
390
F
  0
LAYER
  5
208
100
AcDbSymbolTableRecord
100
AcDbLayerTableRecord
  2
13_REF_GTOL
 70
0
 62
7
  6
CONTINUOUS
370
-3
390
F
  0
LAYER
  5
209
100
AcDbSymbolTableRecord
100
AcDbLayerTableRecord
  2
16_MISC
 70
0
 62
7
  6
CONTINUOUS
370
-3
390
F
  0
LAYER
  5
20A
100
AcDbSymbolTableRecord
100
AcDbLayerTableRecord
  2
17_NO_PRINT
 70
0
 62
7
  6
CONTINUOUS
370
-3
390
F
  0
LAYER
  5
20B
100
AcDbSymbolTableRecord
100
AcDbLayerTableRecord
  2
18_DATUM_CAMS_JOINTS
 70
0
 62
7
  6
CONTINUOUS
370
-3
390
F
  0
LAYER
  5
20C
100
AcDbSymbolTableRecord
100
AcDbLayerTableRecord
  2
19_DATUM_FUNCTIONAL
 70
0
 62
7
  6
CONTINUOUS
370
-3
390
F
  0
LAYER
  5
20D
100
AcDbSymbolTableRecord
100
AcDbLayerTableRecord
  2
20_DATUM_KINEMATIC_SCHEME
 70
0
 62
7
  6
CONTINUOUS
370
-3
390
F
  0
ENDTAB
  0
TABLE
  2
STYLE
  5
3
100
AcDbSymbolTable
 70
1
  0
STYLE
  5
11
100
AcDbSymbolTableRecord
100
AcDbTextStyleTableRecord
  2
STANDARD
 70
0
 40
0.0
 41
1.0
 50
0.0
 71
0
 42
0.2
  3
ARIAL.TTF
  4

  0
STYLE
  5
20E
100
AcDbSymbolTableRecord
100
AcDbTextStyleTableRecord
  2
TEXTSTYLE_1
 70
0
 40
0.0
 41
0.8
 50
0.0
 71
0
 42
0.2
  3
gdt
  4

  0
ENDTAB
  0
TABLE
  2
VIEW
  5
6
100
AcDbSymbolTable
 70
0
  0
ENDTAB
  0
TABLE
  2
UCS
  5
7
100
AcDbSymbolTable
 70
0
  0
ENDTAB
  0
TABLE
  2
APPID
  5
9
100
AcDbSymbolTable
 70
1
  0
APPID
  5
20F
100
AcDbSymbolTableRecord
100
AcDbRegAppTableRecord
  2
ACAD
 70
0
  0
ENDTAB
  0
TABLE
  2
BLOCK_RECORD
  5
1
100
AcDbSymbolTable
 70
0
  0
BLOCK_RECORD
  5
210
100
AcDbSymbolTableRecord
100
AcDbBlockTableRecord
  2
*Model_Space
  0
BLOCK_RECORD
  5
211
100
AcDbSymbolTableRecord
100
AcDbBlockTableRecord
  2
*Paper_Space
  0
BLOCK_RECORD
  5
212
100
AcDbSymbolTableRecord
100
AcDbBlockTableRecord
  2
_FILLED
  0
ENDTAB
  0
TABLE
  2
DIMSTYLE
  5
A
100
AcDbSymbolTable
 70
1
100
AcDbDimStyleTable
 71
0
  0
DIMSTYLE
105
213
100
AcDbSymbolTableRecord
100
AcDbDimStyleTableRecord
  2
STANDARD
 70
0
  3

  4

 40
1.0
 41
1.7681832917
 42
1.0
 43
0.38
 44
1.0
 45
0.0
 46
0.0
 47
0.01
 48
0.01
140
2.4754566084
141
0.09
142
0.0
143
25.4
144
1.0
145
0.0
146
1.0
147
0.625
 71
1
 72
0
 73
0
 74
0
 75
0
 76
0
 77
1
 78
8
 79
2
170
0
171
1
172
0
173
0
174
0
175
0
176
0
177
0
178
0
270
2
179
2
271
2
272
2
273
2
274
2
275
0
280
0
281
0
282
0
283
1
284
8
285
0
286
0
287
3
288
0
340
11
278
46
341
212
342
212
343
212
344
212
  0
ENDTAB
  0
ENDSEC
  0
SECTION
  2
BLOCKS
  0
BLOCK
  5
20
100
AcDbEntity
  8
0
100
AcDbBlockBegin
  2
*Model_Space
 70
0
 10
0.0
 20
0.0
 30
0.0
  3
*Model_Space
  1

  0
ENDBLK
  5
21
100
AcDbEntity
  8
0
100
AcDbBlockEnd
  0
BLOCK
  5
1C
100
AcDbEntity
  8
0
100
AcDbBlockBegin
  2
*Paper_Space
 70
0
 10
0.0
 20
0.0
 30
0.0
  3
*Paper_Space
  1

  0
ENDBLK
  5
1D
100
AcDbEntity
  8
0
100
AcDbBlockEnd
  0
BLOCK
  5
214
100
AcDbEntity
  8
0
100
AcDbBlockBegin
  2
_FILLED
 70
64
 10
0.0
 20
0.0
  3
_FILLED
  1

  0
SOLID
  5
215
100
AcDbEntity
  8
0
  6
BYBLOCK
 62
0
100
AcDbTrace
 10
0.0
 20
0.0
 11
-1.0
 21
0.25
 12
-1.0
 22
-0.25
 13
-1.0
 23
-0.25
  0
ENDBLK
  5
216
100
AcDbEntity
  8
0
  6
BYBLOCK
 62
0
100
AcDbBlockEnd
  0
ENDSEC
  0
SECTION
  2
ENTITIES
  0
LINE
  5
217
100
AcDbEntity
  8
0
100
AcDbLine
 62
7
  6
BYLAYER
 10
16.7992562385
 20
87.6800875274
 11
16.7992562385
 21
123.6800875274
  0
LINE
  5
218
100
AcDbEntity
  8
0
100
AcDbLine
 62
7
  6
BYLAYER
 10
18.7992562385
 20
85.6800875274
 11
18.7992562385
 21
125.6800875274
  0
LINE
  5
219
100
AcDbEntity
  8
0
100
AcDbLine
 62
7
  6
BYLAYER
 10
54.7992562385
 20
125.6800875274
 11
54.7992562385
 21
85.6800875274
  0
LINE
  5
21A
100
AcDbEntity
  8
0
100
AcDbLine
 62
7
  6
BYLAYER
 10
56.7992562385
 20
84.3800875274
 11
67.2992562385
 21
84.3800875274
  0
LINE
  5
21B
100
AcDbEntity
  8
0
100
AcDbLine
 62
7
  6
BYLAYER
 10
115.7992562385
 20
84.3800875274
 11
126.7992562385
 21
84.3800875274
  0
LINE
  5
21C
100
AcDbEntity
  8
0
100
AcDbLine
 62
7
  6
BYLAYER
 10
56.7992562385
 20
84.3800875274
 11
56.7992562385
 21
124.2800875266
  0
LINE
  5
21D
100
AcDbEntity
  8
0
100
AcDbLine
 62
7
  6
BYLAYER
 10
57.2992562385
 20
84.3800875274
 11
57.2992562385
 21
124.284449734
  0
LINE
  5
21E
100
AcDbEntity
  8
0
100
AcDbLine
 62
7
  6
BYLAYER
 10
57.7992562359
 20
124.7844667204
 11
57.7992562359
 21
125.2800875274
  0
LINE
  5
21F
100
AcDbEntity
  8
0
100
AcDbLine
 62
7
  6
BYLAYER
 10
116.7992562385
 20
84.8800875274
 11
66.2992562385
 21
84.8800875274
  0
LINE
  5
220
100
AcDbEntity
  8
0
100
AcDbLine
 62
7
  6
BYLAYER
 10
126.7992562385
 20
84.8800875274
 11
134.2992562385
 21
84.8800875274
  0
LINE
  5
221
100
AcDbEntity
  8
0
100
AcDbLine
 62
7
  6
BYLAYER
 10
18.7992562385
 20
85.6800875274
 11
54.7992562385
 21
85.6800875274
  0
LINE
  5
222
100
AcDbEntity
  8
0
100
AcDbLine
 62
7
  6
BYLAYER
 10
56.7992562385
 20
87.6800875274
 11
16.7992562385
 21
87.6800875274
  0
LINE
  5
223
100
AcDbEntity
  8
0
100
AcDbLine
 62
7
  6
BYLAYER
 10
66.2992562385
 20
84.8800875274
 11
66.2992562385
 21
84.3800875274
  0
LINE
  5
224
100
AcDbEntity
  8
0
100
AcDbLine
 62
7
  6
BYLAYER
 10
66.7992562385
 20
99.2800875274
 11
66.7992562385
 21
108.8800875274
  0
LINE
  5
225
100
AcDbEntity
  8
0
100
AcDbLine
 62
7
  6
BYLAYER
 10
67.2992562385
 20
84.3800875274
 11
67.2992562385
 21
84.8800875274
  0
LINE
  5
226
100
AcDbEntity
  8
0
100
AcDbLine
 62
7
  6
BYLAYER
 10
67.0639922952
 20
102.9888137306
 11
66.9992562385
 21
99.2800875274
  0
LINE
  5
227
100
AcDbEntity
  8
0
100
AcDbLine
 62
7
  6
BYLAYER
 10
67.5812603706
 20
103.9756711863
 11
67.563915687
 21
103.4800875274
  0
LINE
  5
228
100
AcDbEntity
  8
0
100
AcDbLine
 62
7
  6
BYLAYER
 10
78.0492562385
 20
99.2800875274
 11
66.7992562385
 21
99.2800875274
  0
LINE
  5
229
100
AcDbEntity
  8
0
100
AcDbLine
 62
7
  6
BYLAYER
 10
76.1959362928
 20
102.9908027004
 11
76.1665922992
 21
103.4810728789
  0
LINE
  5
22A
100
AcDbEntity
  8
0
100
AcDbLine
 62
7
  6
BYLAYER
 10
73.05310485
 20
103.975724282
 11
73.3615220364
 21
123.3244457294
  0
LINE
  5
22B
100
AcDbEntity
  8
0
100
AcDbLine
 62
7
  6
BYLAYER
 10
67.0639922952
 20
102.9888137306
 11
76.1284508324
 21
102.9888144406
  0
LINE
  5
22C
100
AcDbEntity
  8
0
100
AcDbLine
 62
7
  6
BYLAYER
 10
76.1284508168
 20
103.4800875274
 11
67.5639161428
 21
103.4800875274
  0
LINE
  5
22D
100
AcDbEntity
  8
0
100
AcDbLine
 62
7
  6
BYLAYER
 10
76.6036468027
 20
103.9713613241
 11
74.0289797744
 21
103.9713613241
  0
LINE
  5
22E
100
AcDbEntity
  8
0
100
AcDbLine
 62
7
  6
BYLAYER
 10
73.05310485
 20
103.975724282
 11
67.5812687514
 21
103.9756180918
  0
LINE
  5
22F
100
AcDbEntity
  8
0
100
AcDbLine
 62
7
  6
BYLAYER
 10
76.1284497627
 20
102.9888137306
 11
76.1284497627
 21
103.4800875274
  0
LINE
  5
230
100
AcDbEntity
  8
0
100
AcDbLine
 62
7
  6
BYLAYER
 10
78.0492562385
 20
100.1795278269
 11
78.0492562385
 21
99.2800875274
  0
LINE
  5
231
100
AcDbEntity
  8
0
100
AcDbLine
 62
7
  6
BYLAYER
 10
77.768614672
 20
123.3149923302
 11
77.5363907021
 21
103.9713028017
  0
LINE
  5
232
100
AcDbEntity
  8
0
100
AcDbLine
 62
7
  6
BYLAYER
 10
56.7992562385
 20
108.8800875274
 11
66.7992562385
 21
108.8800875274
  0
LINE
  5
233
100
AcDbEntity
  8
0
100
AcDbLine
 62
7
  6
BYLAYER
 10
116.2992562385
 20
108.8800875274
 11
134.2992562385
 21
108.8800875274
  0
LINE
  5
234
100
AcDbEntity
  8
0
100
AcDbLine
 62
7
  6
BYLAYER
 10
66.2992562385
 20
109.3800875274
 11
57.2992562385
 21
109.3800875274
  0
LINE
  5
235
100
AcDbEntity
  8
0
100
AcDbLine
 62
7
  6
BYLAYER
 10
134.2992562385
 20
109.7370057667
 11
134.1992562385
 21
109.7370057667
  0
LINE
  5
236
100
AcDbEntity
  8
0
100
AcDbLine
 62
7
  6
BYLAYER
 10
78.4384376196
 20
100.2985125157
 11
78.6899179359
 21
99.4759574647
  0
LINE
  5
237
100
AcDbEntity
  8
0
100
AcDbLine
 62
7
  6
BYLAYER
 10
78.0492562385
 20
100.1795278268
 11
120.8027383086
 21
113.2505790349
  0
LINE
  5
238
100
AcDbEntity
  8
0
100
AcDbLine
 62
7
  6
BYLAYER
 10
78.0492562385
 20
99.2800875274
 11
120.9992562385
 21
112.411220296
  0
LINE
  5
239
100
AcDbEntity
  8
0
100
AcDbLine
 62
7
  6
BYLAYER
 10
134.2992562385
 20
114.3300875274
 11
134.1992562385
 21
114.3300875274
  0
LINE
  5
23A
100
AcDbEntity
  8
0
100
AcDbLine
 62
7
  6
BYLAYER
 10
120.8304637342
 20
114.8389675935
 11
120.9992562385
 21
114.9485827275
  0
LINE
  5
23B
100
AcDbEntity
  8
0
100
AcDbLine
 62
7
  6
BYLAYER
 10
120.8992562385
 20
118.7800875274
 11
120.9992562385
 21
118.7800875274
  0
LINE
  5
23C
100
AcDbEntity
  8
0
100
AcDbLine
 62
7
  6
BYLAYER
 10
120.9992562385
 20
118.8800875274
 11
132.1992562385
 21
118.8800875274
  0
LINE
  5
23D
100
AcDbEntity
  8
0
100
AcDbLine
 62
7
  6
BYLAYER
 10
76.0870733159
 20
125.2799609338
 11
76.1055692964
 21
125.2800875274
  0
LINE
  5
23E
100
AcDbEntity
  8
0
100
AcDbLine
 62
7
  6
BYLAYER
 10
115.889246538
 20
124.2282871734
 11
115.9992563299
 21
124.2284382742
  0
LINE
  5
23F
100
AcDbEntity
  8
0
100
AcDbLine
 62
7
  6
BYLAYER
 10
16.7992562385
 20
122.8800875274
 11
56.7992562385
 21
122.8800875274
  0
LINE
  5
240
100
AcDbEntity
  8
0
100
AcDbLine
 62
7
  6
BYLAYER
 10
114.3927253564
 20
123.3149923402
 11
77.768614672
 21
123.3149923302
  0
LINE
  5
241
100
AcDbEntity
  8
0
100
AcDbLine
 62
7
  6
BYLAYER
 10
74.3376762895
 20
123.3149923402
 11
76.834346427
 21
123.3149923402
  0
LINE
  5
242
100
AcDbEntity
  8
0
100
AcDbLine
 62
7
  6
BYLAYER
 10
57.7992524243
 20
124.7844507951
 11
73.7777510948
 21
124.7844826457
  0
LINE
  5
243
100
AcDbEntity
  8
0
100
AcDbLine
 62
7
  6
BYLAYER
 10
57.7992562378
 20
125.2800875274
 11
115.9992562383
 21
125.2800875274
  0
LINE
  5
244
100
AcDbEntity
  8
0
100
AcDbLine
 62
7
  6
BYLAYER
 10
54.7992562385
 20
125.6800875274
 11
18.7992562385
 21
125.6800875274
  0
LINE
  5
245
100
AcDbEntity
  8
0
100
AcDbLine
 62
7
  6
BYLAYER
 10
120.7994855954
 20
123.2129934765
 11
122.7994695712
 21
123.2029203198
  0
LINE
  5
246
100
AcDbEntity
  8
0
100
AcDbLine
 62
7
  6
BYLAYER
 10
115.8721777979
 20
114.7570281871
 11
115.5031205324
 21
123.3970049349
  0
LINE
  5
247
100
AcDbEntity
  8
0
100
AcDbLine
 62
7
  6
BYLAYER
 10
115.9787025171
 20
114.1372303845
 11
115.9992562385
 21
111.7820071882
  0
LINE
  5
248
100
AcDbEntity
  8
0
100
AcDbLine
 62
7
  6
BYLAYER
 10
115.7992562385
 20
84.8800875274
 11
115.7992562385
 21
84.3800875274
  0
LINE
  5
249
100
AcDbEntity
  8
0
100
AcDbLine
 62
7
  6
BYLAYER
 10
115.999256238
 20
125.2800875274
 11
115.999256238
 21
124.2282871734
  0
LINE
  5
24A
100
AcDbEntity
  8
0
100
AcDbLine
 62
7
  6
BYLAYER
 10
116.2992562385
 20
108.8800875274
 11
116.2992562385
 21
110.9742860931
  0
LINE
  5
24B
100
AcDbEntity
  8
0
100
AcDbLine
 62
7
  6
BYLAYER
 10
116.7992562385
 20
84.3800875274
 11
116.7992562385
 21
84.8800875274
  0
LINE
  5
24C
100
AcDbEntity
  8
0
100
AcDbLine
 62
7
  6
BYLAYER
 10
116.2248796075
 20
110.951546875
 11
115.9733992912
 21
111.7741019261
  0
LINE
  5
24D
100
AcDbEntity
  8
0
100
AcDbLine
 62
7
  6
BYLAYER
 10
120.8027383086
 20
113.2505790351
 11
120.7994855953
 21
123.2129934773
  0
LINE
  5
24E
100
AcDbEntity
  8
0
100
AcDbLine
 62
7
  6
BYLAYER
 10
120.9992562385
 20
118.8800875274
 11
120.9992562385
 21
112.411220296
  0
LINE
  5
24F
100
AcDbEntity
  8
0
100
AcDbLine
 62
7
  6
BYLAYER
 10
121.0992562385
 20
108.8800875274
 11
121.0992562385
 21
118.8800875274
  0
LINE
  5
250
100
AcDbEntity
  8
0
100
AcDbLine
 62
7
  6
BYLAYER
 10
120.8027383086
 20
113.2505790351
 11
120.8992562385
 21
118.7800875274
  0
LINE
  5
251
100
AcDbEntity
  8
0
100
AcDbLine
 62
7
  6
BYLAYER
 10
120.5636621198
 20
113.1774861087
 11
120.8151424361
 21
112.3549310577
  0
LINE
  5
252
100
AcDbEntity
  8
0
100
AcDbLine
 62
7
  6
BYLAYER
 10
120.9992562385
 20
112.6077978498
 11
120.8027383088
 21
113.2505790349
  0
LINE
  5
253
100
AcDbEntity
  8
0
100
AcDbLine
 62
7
  6
BYLAYER
 10
122.5992562385
 20
118.8800875274
 11
122.5992562385
 21
108.8800875274
  0
LINE
  5
254
100
AcDbEntity
  8
0
100
AcDbLine
 62
7
  6
BYLAYER
 10
122.7993718814
 20
118.8800875274
 11
122.7994695712
 21
123.2029203205
  0
LINE
  5
255
100
AcDbEntity
  8
0
100
AcDbLine
 62
7
  6
BYLAYER
 10
126.2992562385
 20
108.8800875274
 11
126.2992562385
 21
84.3800875274
  0
LINE
  5
256
100
AcDbEntity
  8
0
100
AcDbLine
 62
7
  6
BYLAYER
 10
126.6968164882
 20
108.8800875274
 11
126.6968164882
 21
118.8800875274
  0
LINE
  5
257
100
AcDbEntity
  8
0
100
AcDbLine
 62
7
  6
BYLAYER
 10
126.7992562385
 20
84.3800875274
 11
126.7992562385
 21
108.8800875274
  0
LINE
  5
258
100
AcDbEntity
  8
0
100
AcDbLine
 62
7
  6
BYLAYER
 10
132.1474718078
 20
121.7468155748
 11
132.1975109979
 21
118.880072298
  0
LINE
  5
259
100
AcDbEntity
  8
0
100
AcDbLine
 62
7
  6
BYLAYER
 10
130.9992562385
 20
84.8800875274
 11
130.9992562385
 21
108.8800875274
  0
LINE
  5
25A
100
AcDbEntity
  8
0
100
AcDbLine
 62
7
  6
BYLAYER
 10
132.1992562385
 20
110.8800875274
 11
132.1992562385
 21
118.8800875274
  0
LINE
  5
25B
100
AcDbEntity
  8
0
100
AcDbLine
 62
7
  6
BYLAYER
 10
133.7992562385
 20
108.8800875274
 11
133.7992562385
 21
84.8800875274
  0
LINE
  5
25C
100
AcDbEntity
  8
0
100
AcDbLine
 62
7
  6
BYLAYER
 10
134.1992562385
 20
108.8800875274
 11
134.1992562385
 21
114.3300875274
  0
LINE
  5
25D
100
AcDbEntity
  8
0
100
AcDbLine
 62
7
  6
BYLAYER
 10
134.2992562385
 20
84.8800875274
 11
134.2992562385
 21
114.3300738138
  0
ARC
  5
25E
100
AcDbEntity
  8
0
100
AcDbCircle
 62
7
  6
BYLAYER
 10
2246.9091488915
 20
414.4544290193
 40
2152.2984152382
100
AcDbArc
 50
187.7741800368
 51
188.0841623083
  0
ARC
  5
25F
100
AcDbEntity
  8
0
100
AcDbCircle
 62
7
  6
BYLAYER
 10
203.0161398569
 20
116.8062778236
 40
87.1680534804
100
AcDbArc
 50
181.3471010159
 51
181.7563775251
  0
ARC
  5
260
100
AcDbEntity
  8
0
100
AcDbCircle
 62
7
  6
BYLAYER
 10
184.7541431833
 20
116.1819979485
 40
68.8955324929
100
AcDbArc
 50
181.7029363135
 51
183.6616683331
  0
ARC
  5
261
100
AcDbEntity
  8
0
100
AcDbCircle
 62
7
  6
BYLAYER
 10
115.9992562385
 20
58.6700875274
 40
66.61
100
AcDbArc
 50
77.3506673296
 51
90.0000000002
  0
ARC
  5
262
100
AcDbEntity
  8
0
100
AcDbCircle
 62
7
  6
BYLAYER
 10
115.9969773486
 20
59.6177751613
 40
64.6106631531
100
AcDbArc
 50
75.5778437283
 51
89.9979790332
  0
ARC
  5
263
100
AcDbEntity
  8
0
100
AcDbCircle
 62
7
  6
BYLAYER
 10
115.6259004069
 20
115.2268376553
 40
11.8534238042
100
AcDbArc
 50
17.9509128437
 51
18.3261173767
  0
ARC
  5
264
100
AcDbEntity
  8
0
100
AcDbCircle
 62
7
  6
BYLAYER
 10
122.5226494793
 20
124.4292846465
 40
8.2058806454
100
AcDbArc
 50
186.1431757301
 51
187.80441543
  0
ARC
  5
265
100
AcDbEntity
  8
0
100
AcDbCircle
 62
7
  6
BYLAYER
 10
76.3035736151
 20
123.2750701662
 40
2.942465877
100
AcDbArc
 50
149.1377792933
 51
179.0385124985
  0
ARC
  5
266
100
AcDbEntity
  8
0
100
AcDbCircle
 62
7
  6
BYLAYER
 10
134.1992562385
 20
116.3300875274
 40
2.0
100
AcDbArc
 50
180.0
 51
270.0
  0
ARC
  5
267
100
AcDbEntity
  8
0
100
AcDbCircle
 62
7
  6
BYLAYER
 10
54.7992562385
 20
87.6800875274
 40
2.0
100
AcDbArc
 50
270.0
 51
360.0
  0
ARC
  5
268
100
AcDbEntity
  8
0
100
AcDbCircle
 62
7
  6
BYLAYER
 10
18.7992562385
 20
87.6800875274
 40
2.0
100
AcDbArc
 50
180.0
 51
270.0
  0
ARC
  5
269
100
AcDbEntity
  8
0
100
AcDbCircle
 62
7
  6
BYLAYER
 10
18.7992562385
 20
123.6800875274
 40
2.0
100
AcDbArc
 50
89.9999999999
 51
180.0
  0
ARC
  5
26A
100
AcDbEntity
  8
0
100
AcDbCircle
 62
7
  6
BYLAYER
 10
54.7992562385
 20
123.6800875274
 40
2.0
100
AcDbArc
 50
0.0
 51
90.0000000001
  0
ARC
  5
26B
100
AcDbEntity
  8
0
100
AcDbCircle
 62
7
  6
BYLAYER
 10
130.1477764175
 20
121.711910762
 40
2.0
100
AcDbArc
 50
1.0
 51
77.3506673233
  0
ARC
  5
26C
100
AcDbEntity
  8
0
100
AcDbCircle
 62
7
  6
BYLAYER
 10
134.1992562385
 20
110.8800875274
 40
2.0
100
AcDbArc
 50
180.0
 51
270.0
  0
ARC
  5
26D
100
AcDbEntity
  8
0
100
AcDbCircle
 62
7
  6
BYLAYER
 10
76.1284385559
 20
104.1357671263
 40
1.1469526857
100
AcDbArc
 50
270.0006132686
 51
273.3743001662
  0
ARC
  5
26E
100
AcDbEntity
  8
0
100
AcDbCircle
 62
7
  6
BYLAYER
 10
57.7992562385
 20
124.2800875274
 40
1.0
100
AcDbArc
 50
90.0
 51
180.0000000435
  0
ARC
  5
26F
100
AcDbEntity
  8
0
100
AcDbCircle
 62
7
  6
BYLAYER
 10
76.1285460644
 20
104.2105762063
 40
0.730494253
100
AcDbArc
 50
269.9923314082
 51
272.9850689581
  0
ARC
  5
270
100
AcDbEntity
  8
0
100
AcDbCircle
 62
7
  6
BYLAYER
 10
57.7992921771
 20
124.2844148569
 40
0.5000359398
100
AcDbArc
 50
90.0045550063
 51
179.9960036701
  0
ARC
  5
271
100
AcDbEntity
  8
0
100
AcDbCircle
 62
7
  6
BYLAYER
 10
57.2992562385
 20
108.8800875274
 40
0.5
100
AcDbArc
 50
90.0
 51
180.0
  0
ARC
  5
272
100
AcDbEntity
  8
0
100
AcDbCircle
 62
7
  6
BYLAYER
 10
66.2992562385
 20
108.8800875274
 40
0.5
100
AcDbArc
 50
0.0
 51
90.0
  0
ARC
  5
273
100
AcDbEntity
  8
0
100
AcDbCircle
 62
7
  6
BYLAYER
 10
67.5639161428
 20
102.9800875274
 40
0.5
100
AcDbArc
 50
89.9999987877
 51
179.0
  0
SPLINE
  5
274
100
AcDbEntity
  8
0
100
AcDbSpline
 62
7
  6
BYLAYER
 70
0
 71
3
 72
17
 73
13
 74
0
 42
0.0000001
 43
0.0000001
 44
0.0000000001
 40
0.0
 40
0.0
 40
0.0
 40
0.0
 40
0.0682703171
 40
0.1353274023
 40
0.2008269337
 40
0.2650065582
 40
0.3905334592
 40
0.5139697141
 40
0.6362263732
 40
0.75779274
 40
0.878977694
 40
1.0
 40
1.0
 40
1.0
 40
1.0
 10
120.7994855954
 20
123.2129934765
 30
0.0
 10
120.5450499239
 20
123.2142698331
 30
0.0
 10
120.0376770171
 20
123.1393279847
 30
0.0
 10
119.3469706662
 20
122.8336980699
 30
0.0
 10
118.7508217995
 20
122.3993833439
 30
0.0
 10
118.081626215
 20
121.7193365454
 30
0.0
 10
117.4233251579
 20
120.7446008786
 30
0.0
 10
116.8475668221
 20
119.4823086675
 30
0.0
 10
116.4348831309
 20
118.1742580447
 30
0.0
 10
116.1592500784
 20
116.840056374
 30
0.0
 10
116.0040651105
 20
115.4916520845
 30
0.0
 10
115.9747845853
 20
114.5882553494
 30
0.0
 10
115.9787025171
 20
114.1372303845
 30
0.0
  0
SPLINE
  5
275
100
AcDbEntity
  8
0
100
AcDbSpline
 62
7
  6
BYLAYER
 70
0
 71
3
 72
11
 73
7
 74
0
 42
0.0000001
 43
0.0000001
 44
0.0000000001
 40
0.0
 40
0.0
 40
0.0
 40
0.0
 40
0.2499776537
 40
0.5000005716
 40
0.7500164817
 40
1.0
 40
1.0
 40
1.0
 40
1.0
 10
115.8721777971
 20
114.7570281871
 30
0.0
 10
115.8550080456
 20
115.4835749173
 30
0.0
 10
115.8786749434
 20
116.9379344216
 30
0.0
 10
115.9782550317
 20
119.1159576102
 30
0.0
 10
116.0636831984
 20
121.2949381328
 30
0.0
 10
116.0719835165
 20
122.749038892
 30
0.0
 10
116.0591328057
 20
123.4756918994
 30
0.0
  0
SPLINE
  5
276
100
AcDbEntity
  8
0
100
AcDbSpline
 62
7
  6
BYLAYER
 70
0
 71
3
 72
9
 73
5
 74
0
 42
0.0000001
 43
0.0000001
 44
0.0000000001
 40
0.0
 40
0.0
 40
0.0
 40
0.0
 40
0.5093530568
 40
1.0
 40
1.0
 40
1.0
 40
1.0
 10
116.0591693819
 20
123.4761394181
 30
0.0
 10
115.9699705388
 20
123.4402279752
 30
0.0
 10
115.7865046088
 20
123.3879870779
 30
0.0
 10
115.5949705782
 20
123.3851142927
 30
0.0
 10
115.5031179689
 20
123.3970518847
 30
0.0
  0
SPLINE
  5
277
100
AcDbEntity
  8
0
100
AcDbSpline
 62
7
  6
BYLAYER
 70
0
 71
3
 72
13
 73
9
 74
0
 42
0.0000001
 43
0.0000001
 44
0.0000000001
 40
0.0
 40
0.0
 40
0.0
 40
0.0
 40
0.2899700936
 40
0.559235723
 40
0.6819032744
 40
0.7954512136
 40
0.9007179069
 40
1.0
 40
1.0
 40
1.0
 40
1.0
 10
134.1992562385
 20
109.7370057663
 30
0.0
 10
133.9600543845
 20
109.7370057663
 30
0.0
 10
133.4970329915
 20
109.7907252469
 30
0.0
 10
132.9640046493
 20
109.9945832008
 30
0.0
 10
132.6198198675
 20
110.2333372614
 30
0.0
 10
132.42034171
 20
110.4349258416
 30
0.0
 10
132.2787812135
 20
110.6585588095
 30
0.0
 10
132.2263421419
 20
110.8213943852
 30
0.0
 10
132.2122755676
 20
110.9020770394
 30
0.0
  0
SPLINE
  5
278
100
AcDbEntity
  8
0
100
AcDbSpline
 62
7
  6
BYLAYER
 70
0
 71
3
 72
11
 73
7
 74
0
 42
0.0000001
 43
0.0000001
 44
0.0000000001
 40
0.0
 40
0.0
 40
0.0
 40
0.0
 40
0.2232138924
 40
0.457115403
 40
0.7126346456
 40
1.0
 40
1.0
 40
1.0
 40
1.0
 10
114.374088488
 20
125.2800875274
 30
0.0
 10
114.5186116128
 20
125.2800874049
 30
0.0
 10
114.816303076
 20
125.236155014
 30
0.0
 10
115.2393997423
 20
125.036987309
 30
0.0
 10
115.6204407386
 20
124.6988646498
 30
0.0
 10
115.8111571904
 20
124.3971657715
 30
0.0
 10
115.889246538
 20
124.2282871734
 30
0.0
  0
SPLINE
  5
279
100
AcDbEntity
  8
0
100
AcDbSpline
 62
7
  6
BYLAYER
 70
0
 71
3
 72
9
 73
5
 74
0
 42
0.0000001
 43
0.0000001
 44
0.0000000001
 40
0.0
 40
0.0
 40
0.0
 40
0.0
 40
0.4974998217
 40
1.0
 40
1.0
 40
1.0
 40
1.0
 10
116.0591328057
 20
123.4756918994
 30
0.0
 10
116.0569245919
 20
123.6043204126
 30
0.0
 10
116.0272558202
 20
123.8631907324
 30
0.0
 10
115.9437828536
 20
124.1103451392
 30
0.0
 10
115.889246538
 20
124.2282871734
 30
0.0
  0
SPLINE
  5
27A
100
AcDbEntity
  8
0
100
AcDbSpline
 62
7
  6
BYLAYER
 70
0
 71
3
 72
13
 73
9
 74
0
 42
0.0000001
 43
0.0000001
 44
0.0000000001
 40
0.0
 40
0.0
 40
0.0
 40
0.0
 40
0.2416170354
 40
0.3707152702
 40
0.5019181598
 40
0.6328082485
 40
0.7610510986
 40
1.0
 40
1.0
 40
1.0
 40
1.0
 10
115.5031028408
 20
123.397051215
 30
0.0
 10
115.4891357527
 20
123.6380360192
 30
0.0
 10
115.3997310043
 20
124.0084653308
 30
0.0
 10
115.150025951
 20
124.4458467163
 30
0.0
 10
114.8944768766
 20
124.745110957
 30
0.0
 10
114.5838841663
 20
124.9854040035
 30
0.0
 10
114.1380193955
 20
125.2113148953
 30
0.0
 10
113.7665173457
 20
125.2800862763
 30
0.0
 10
113.5277937441
 20
125.2800875273
 30
0.0
  0
SPLINE
  5
27B
100
AcDbEntity
  8
0
100
AcDbSpline
 62
7
  6
BYLAYER
 70
0
 71
3
 72
9
 73
5
 74
0
 42
0.0000001
 43
0.0000001
 44
0.0000000001
 40
0.0
 40
0.0
 40
0.0
 40
0.0
 40
0.2756362752
 40
1.0
 40
1.0
 40
1.0
 40
1.0
 10
77.149726674
 20
103.4800751196
 30
0.0
 10
77.1259064619
 20
103.5027746091
 30
0.0
 10
77.0393731315
 20
103.5850070581
 30
0.0
 10
76.9525257843
 20
103.6669130577
 30
0.0
 10
76.8891407462
 20
103.7257305171
 30
0.0
  0
SPLINE
  5
27C
100
AcDbEntity
  8
0
100
AcDbSpline
 62
7
  6
BYLAYER
 70
0
 71
3
 72
11
 73
7
 74
0
 42
0.0000001
 43
0.0000001
 44
0.0000000001
 40
0.0
 40
0.0
 40
0.0
 40
0.0
 40
0.2485068196
 40
0.5108990002
 40
0.7665662953
 40
1.0
 40
1.0
 40
1.0
 40
1.0
 10
76.6036255029
 20
103.9713611978
 30
0.0
 10
76.6026583307
 20
103.9119743957
 30
0.0
 10
76.5801013645
 20
103.7892509899
 30
0.0
 10
76.4846344416
 20
103.6279663191
 30
0.0
 10
76.3384354027
 20
103.5158497362
 30
0.0
 10
76.2222449248
 20
103.4848517445
 30
0.0
 10
76.1665799797
 20
103.4810870004
 30
0.0
  0
SPLINE
  5
27D
100
AcDbEntity
  8
0
100
AcDbSpline
 62
7
  6
BYLAYER
 70
0
 71
3
 72
9
 73
5
 74
0
 42
0.0000001
 43
0.0000001
 44
0.0000000001
 40
0.0
 40
0.0
 40
0.0
 40
0.0
 40
0.5044856777
 40
1.0
 40
1.0
 40
1.0
 40
1.0
 10
76.1665809886
 20
103.4810870687
 30
0.0
 10
76.2950924596
 20
103.4878120221
 30
0.0
 10
76.5436733344
 20
103.5672652429
 30
0.0
 10
76.7724872003
 20
103.677017367
 30
0.0
 10
76.8891245878
 20
103.7257245164
 30
0.0
  0
SPLINE
  5
27E
100
AcDbEntity
  8
0
100
AcDbSpline
 62
7
  6
BYLAYER
 70
0
 71
3
 72
11
 73
7
 74
0
 42
0.0000001
 43
0.0000001
 44
0.0000000001
 40
0.0
 40
0.0
 40
0.0
 40
0.0
 40
0.2411524194
 40
0.4893384057
 40
0.743038424
 40
1.0
 40
1.0
 40
1.0
 40
1.0
 10
76.8891245878
 20
103.7257245164
 30
0.0
 10
76.9406350707
 20
103.7468175624
 30
0.0
 10
77.0448697711
 20
103.7903267303
 30
0.0
 10
77.2047361244
 20
103.8524903603
 30
0.0
 10
77.3693807837
 20
103.9122585266
 30
0.0
 10
77.4803411819
 20
103.9520330055
 30
0.0
 10
77.5364299438
 20
103.9713160061
 30
0.0
  0
SPLINE
  5
27F
100
AcDbEntity
  8
0
100
AcDbSpline
 62
7
  6
BYLAYER
 70
0
 71
3
 72
9
 73
5
 74
0
 42
0.0000001
 43
0.0000001
 44
0.0000000001
 40
0.0
 40
0.0
 40
0.0
 40
0.0
 40
0.393600636
 40
1.0
 40
1.0
 40
1.0
 40
1.0
 10
76.6036536391
 20
103.9713664756
 30
0.0
 10
76.7260325727
 20
103.9693289504
 30
0.0
 10
77.0370188694
 20
103.9694158597
 30
0.0
 10
77.3479745322
 20
103.9702386423
 30
0.0
 10
77.5365399346
 20
103.9713675324
 30
0.0
  0
SPLINE
  5
280
100
AcDbEntity
  8
0
100
AcDbSpline
 62
7
  6
BYLAYER
 70
0
 71
3
 72
10
 73
6
 74
0
 42
0.0000001
 43
0.0000001
 44
0.0000000001
 40
0.0
 40
0.0
 40
0.0
 40
0.0
 40
0.1538447784
 40
0.3928713131
 40
1.0
 40
1.0
 40
1.0
 40
1.0
 10
76.8344517468
 20
123.3149873969
 30
0.0
 10
76.8823354594
 20
123.3166033177
 30
0.0
 10
77.0046875375
 20
123.3182838026
 30
0.0
 10
77.316104581
 20
123.3193726992
 30
0.0
 10
77.5796225065
 20
123.3172659643
 30
0.0
 10
77.7686833558
 20
123.3149938475
 30
0.0
  0
SPLINE
  5
281
100
AcDbEntity
  8
0
100
AcDbSpline
 62
7
  6
BYLAYER
 70
0
 71
3
 72
13
 73
9
 74
0
 42
0.0000001
 43
0.0000001
 44
0.0000000001
 40
0.0
 40
0.0
 40
0.0
 40
0.0
 40
0.3053470751
 40
0.5676336918
 40
0.6841731381
 40
0.7934083389
 40
0.8978325781
 40
1.0
 40
1.0
 40
1.0
 40
1.0
 10
114.363890401
 20
123.551146008
 30
0.0
 10
114.336139131
 20
123.8094161445
 30
0.0
 10
114.2102460007
 20
124.2858463459
 30
0.0
 10
113.8776800614
 20
124.779036591
 30
0.0
 10
113.5564667823
 20
125.045703724
 30
0.0
 10
113.3085376543
 20
125.1815870896
 30
0.0
 10
113.0504706039
 20
125.262275592
 30
0.0
 10
112.8742141719
 20
125.2800844631
 30
0.0
 10
112.7873010001
 20
125.2800875274
 30
0.0
  0
SPLINE
  5
282
100
AcDbEntity
  8
0
100
AcDbSpline
 62
7
  6
BYLAYER
 70
0
 71
3
 72
15
 73
11
 74
0
 42
0.0000001
 43
0.0000001
 44
0.0000000001
 40
0.0
 40
0.0
 40
0.0
 40
0.0
 40
0.0611527955
 40
0.1350581105
 40
0.2295690956
 40
0.3468463502
 40
0.4863464683
 40
0.6450320573
 40
0.8185076421
 40
1.0
 40
1.0
 40
1.0
 40
1.0
 10
78.461895452
 20
125.2800875287
 30
0.0
 10
78.4169654007
 20
125.2798509729
 30
0.0
 10
78.3172499323
 20
125.2498228702
 30
0.0
 10
78.1902520017
 20
125.1340407052
 30
0.0
 10
78.0754466148
 20
124.956783227
 30
0.0
 10
77.9731723855
 20
124.718836654
 30
0.0
 10
77.8875344077
 20
124.4252761349
 30
0.0
 10
77.8217989661
 20
124.0845892858
 30
0.0
 10
77.7801349897
 20
123.7091669294
 30
0.0
 10
77.7694545688
 20
123.4483363229
 30
0.0
 10
77.7686346091
 20
123.3149913179
 30
0.0
  0
SPLINE
  5
283
100
AcDbEntity
  8
0
100
AcDbSpline
 62
7
  6
BYLAYER
 70
0
 71
3
 72
9
 73
5
 74
0
 42
0.0000001
 43
0.0000001
 44
0.0000000001
 40
0.0
 40
0.0
 40
0.0
 40
0.0
 40
0.2049452176
 40
1.0
 40
1.0
 40
1.0
 40
1.0
 10
115.5032556955
 20
123.3970602658
 30
0.0
 10
115.4256425504
 20
123.4090829046
 30
0.0
 10
115.0465378471
 20
123.4651403914
 30
0.0
 10
114.6663939652
 20
123.5138997153
 30
0.0
 10
114.3639999752
 20
123.5511503972
 30
0.0
  0
SPLINE
  5
284
100
AcDbEntity
  8
0
100
AcDbSpline
 62
7
  6
BYLAYER
 70
0
 71
3
 72
11
 73
7
 74
0
 42
0.0000001
 43
0.0000001
 44
0.0000000001
 40
0.0
 40
0.0
 40
0.0
 40
0.0
 40
0.2433661631
 40
0.489792349
 40
0.7416838962
 40
1.0
 40
1.0
 40
1.0
 40
1.0
 10
77.5364406899
 20
103.9712690388
 30
0.0
 10
77.508025275
 20
103.9292112129
 30
0.0
 10
77.4475938042
 20
103.84680843
 30
0.0
 10
77.3561134615
 20
103.7220731001
 30
0.0
 10
77.2577658485
 20
103.5985831002
 30
0.0
 10
77.1869323341
 20
103.5190654467
 30
0.0
 10
77.1497615692
 20
103.4800670414
 30
0.0
  0
SPLINE
  5
285
100
AcDbEntity
  8
0
100
AcDbSpline
 62
7
  6
BYLAYER
 70
0
 71
3
 72
11
 73
7
 74
0
 42
0.0000001
 43
0.0000001
 44
0.0000000001
 40
0.0
 40
0.0
 40
0.0
 40
0.0
 40
0.2500978021
 40
0.4998934089
 40
0.7501617132
 40
1.0
 40
1.0
 40
1.0
 40
1.0
 10
77.149740065
 20
103.4800875316
 30
0.0
 10
77.0861866175
 20
103.4143814445
 30
0.0
 10
76.9523433473
 20
103.2891452072
 30
0.0
 10
76.7231616731
 20
103.1357377208
 30
0.0
 10
76.4689867652
 20
103.029303316
 30
0.0
 10
76.2872031379
 20
102.9941556969
 30
0.0
 10
76.1959465973
 20
102.990802879
 30
0.0
  0
SPLINE
  5
286
100
AcDbEntity
  8
0
100
AcDbSpline
 62
7
  6
BYLAYER
 70
0
 71
3
 72
21
 73
17
 74
0
 42
0.0000001
 43
0.0000001
 44
0.0000000001
 40
0.0
 40
0.0
 40
0.0
 40
0.0
 40
0.0012878779
 40
0.0049437744
 40
0.0109824853
 40
0.019386775
 40
0.0432070648
 40
0.0762282795
 40
0.118202676
 40
0.1686518703
 40
0.2270478369
 40
0.2928622266
 40
0.4442888307
 40
0.6172633777
 40
0.8053133381
 40
1.0
 40
1.0
 40
1.0
 40
1.0
 10
56.7992562385
 20
124.2800874335
 30
0.0
 10
56.7992562385
 20
124.280302117
 30
0.0
 10
56.8005020724
 20
124.2802747345
 30
0.0
 10
56.8019183462
 20
124.280625648
 30
0.0
 10
56.8051555831
 20
124.2807298677
 30
0.0
 10
56.8113903639
 20
124.2810941368
 30
0.0
 10
56.8223618618
 20
124.2814021703
 30
0.0
 10
56.8387815305
 20
124.2818117382
 30
0.0
 10
56.8597077508
 20
124.2821790311
 30
0.0
 10
56.8848396602
 20
124.2825414624
 30
0.0
 10
56.913954858
 20
124.2828787398
 30
0.0
 10
56.9598993753
 20
124.2833168255
 30
0.0
 10
57.0249456333
 20
124.2837671333
 30
0.0
 10
57.1103679368
 20
124.2841573575
 30
0.0
 10
57.2030023353
 20
124.2843957021
 30
0.0
 10
57.2668028337
 20
124.2844507012
 30
0.0
 10
57.2992562385
 20
124.2844507012
 30
0.0
  0
SPLINE
  5
287
100
AcDbEntity
  8
0
100
AcDbSpline
 62
7
  6
BYLAYER
 70
0
 71
3
 72
17
 73
13
 74
0
 42
0.0000001
 43
0.0000001
 44
0.0000000001
 40
0.0
 40
0.0
 40
0.0
 40
0.0
 40
0.1571590283
 40
0.2334875863
 40
0.3073888958
 40
0.3781195272
 40
0.4460525989
 40
0.5118697616
 40
0.5745794467
 40
0.6897637667
 40
0.7981339949
 40
1.0
 40
1.0
 40
1.0
 40
1.0
 10
73.0531086307
 20
103.9756711863
 30
0.0
 10
73.0523044441
 20
103.9387464544
 30
0.0
 10
73.0572298025
 20
103.8834191614
 30
0.0
 10
73.0762986438
 20
103.813694398
 30
0.0
 10
73.0917879169
 20
103.7641443322
 30
0.0
 10
73.1091303437
 20
103.7171785352
 30
0.0
 10
73.1329657659
 20
103.675182347
 30
0.0
 10
73.1613992052
 20
103.638691519
 30
0.0
 10
73.1990948213
 20
103.595654165
 30
0.0
 10
73.2468198677
 20
103.5474714655
 30
0.0
 10
73.3340701747
 20
103.4971365339
 30
0.0
 10
73.4076848014
 20
103.4800875274
 30
0.0
 10
73.4551247466
 20
103.4800875274
 30
0.0
  0
SPLINE
  5
288
100
AcDbEntity
  8
0
100
AcDbSpline
 62
7
  6
BYLAYER
 70
0
 71
3
 72
11
 73
7
 74
0
 42
0.0000001
 43
0.0000001
 44
0.0000000001
 40
0.0
 40
0.0
 40
0.0
 40
0.0
 40
0.2630846262
 40
0.5163328037
 40
0.7608467571
 40
1.0
 40
1.0
 40
1.0
 40
1.0
 10
74.0289779825
 20
103.9713613241
 30
0.0
 10
74.0274930229
 20
103.8985636001
 30
0.0
 10
73.986798851
 20
103.7542685806
 30
0.0
 10
73.8414117811
 20
103.594115478
 30
0.0
 10
73.656114277
 20
103.5003109986
 30
0.0
 10
73.5213142223
 20
103.4800875274
 30
0.0
 10
73.4551247466
 20
103.4800875274
 30
0.0
  0
LINE
  5
289
100
AcDbEntity
  8
0
100
AcDbLine
 62
7
  6
BYLAYER
 10
76.6036246664
 20
103.971361647
 11
76.8343465907
 21
123.3149922759
  0
LINE
  5
28A
100
AcDbEntity
  8
0
100
AcDbLine
 62
7
  6
BYLAYER
 10
74.338112606
 20
123.3149842176
 11
74.0285531613
 21
103.971429943
  0
SPLINE
  5
28B
100
AcDbEntity
  8
0
100
AcDbSpline
 62
7
  6
BYLAYER
 70
0
 71
3
 72
11
 73
7
 74
0
 42
0.0000001
 43
0.0000001
 44
0.0000000001
 40
0.0
 40
0.0
 40
0.0
 40
0.0
 40
0.3396569365
 40
0.6408521056
 40
0.8695726447
 40
1.0
 40
1.0
 40
1.0
 40
1.0
 10
73.0531059371
 20
103.9757834957
 30
0.0
 10
73.1635401592
 20
103.9743310157
 30
0.0
 10
73.3719057116
 20
103.971956238
 30
0.0
 10
73.6546594015
 20
103.9696647747
 30
0.0
 10
73.8693597109
 20
103.969566157
 30
0.0
 10
73.9861714387
 20
103.9698783835
 30
0.0
 10
74.0285531613
 20
103.971429943
 30
0.0
  0
SPLINE
  5
28C
100
AcDbEntity
  8
0
100
AcDbSpline
 62
7
  6
BYLAYER
 70
0
 71
3
 72
11
 73
7
 74
0
 42
0.0000001
 43
0.0000001
 44
0.0000000001
 40
0.0
 40
0.0
 40
0.0
 40
0.0
 40
0.3312583549
 40
0.6423438531
 40
0.875746578
 40
1.0
 40
1.0
 40
1.0
 40
1.0
 10
73.361510664
 20
123.3237180635
 30
0.0
 10
73.4692937752
 20
123.3219996092
 30
0.0
 10
73.6782998585
 20
123.3189833487
 30
0.0
 10
73.9632681503
 20
123.3156035718
 30
0.0
 10
74.1808726615
 20
123.3143252811
 30
0.0
 10
74.2972771548
 20
123.3140449634
 30
0.0
 10
74.3377001398
 20
123.3149915594
 30
0.0
  0
SPLINE
  5
28D
100
AcDbEntity
  8
0
100
AcDbSpline
 62
7
  6
BYLAYER
 70
0
 71
3
 72
12
 73
8
 74
0
 42
0.0000001
 43
0.0000001
 44
0.0000000001
 40
0.0
 40
0.0
 40
0.0
 40
0.0
 40
0.2797466276
 40
0.5409584231
 40
0.777792217
 40
0.8900757233
 40
1.0
 40
1.0
 40
1.0
 40
1.0
 10
76.8343464262
 20
123.3149923402
 30
0.0
 10
76.838024446
 20
123.5769387469
 30
0.0
 10
76.9263024704
 20
124.0865448026
 30
0.0
 10
77.2849045744
 20
124.7368921475
 30
0.0
 10
77.742434554
 20
125.1092767453
 30
0.0
 10
78.1500978383
 20
125.2555195052
 30
0.0
 10
78.3589528703
 20
125.2800875274
 30
0.0
 10
78.4618928336
 20
125.2800875274
 30
0.0
  0
SPLINE
  5
28E
100
AcDbEntity
  8
0
100
AcDbSpline
 62
7
  6
BYLAYER
 70
0
 71
3
 72
9
 73
5
 74
0
 42
0.0000001
 43
0.0000001
 44
0.0000000001
 40
0.0
 40
0.0
 40
0.0
 40
0.0
 40
0.5005858518
 40
1.0
 40
1.0
 40
1.0
 40
1.0
 10
74.6205416525
 20
124.2888051164
 30
0.0
 10
74.5317725404
 20
124.1430081495
 30
0.0
 10
74.3926670182
 20
123.8268533063
 30
0.0
 10
74.3403512868
 20
123.4852665888
 30
0.0
 10
74.3377015992
 20
123.3149919546
 30
0.0
  0
SPLINE
  5
28F
100
AcDbEntity
  8
0
100
AcDbSpline
 62
7
  6
BYLAYER
 70
0
 71
3
 72
11
 73
7
 74
0
 42
0.0000001
 43
0.0000001
 44
0.0000000001
 40
0.0
 40
0.0
 40
0.0
 40
0.0
 40
0.3348429893
 40
0.6489074265
 40
0.8815587833
 40
1.0
 40
1.0
 40
1.0
 40
1.0
 10
73.7777245813
 20
124.784458172
 30
0.0
 10
73.8714503253
 20
124.728555239
 30
0.0
 10
74.0532329892
 20
124.6204688736
 30
0.0
 10
74.3004946746
 20
124.4741257629
 30
0.0
 10
74.4877000109
 20
124.3648337733
 30
0.0
 10
74.5866236503
 20
124.3072808091
 30
0.0
 10
74.620524715
 20
124.2888189077
 30
0.0
  0
SPLINE
  5
290
100
AcDbEntity
  8
0
100
AcDbSpline
 62
7
  6
BYLAYER
 70
0
 71
3
 72
11
 73
7
 74
0
 42
0.0000001
 43
0.0000001
 44
0.0000000001
 40
0.0
 40
0.0
 40
0.0
 40
0.0
 40
0.3045384806
 40
0.5661267239
 40
0.7918700888
 40
1.0
 40
1.0
 40
1.0
 40
1.0
 10
74.6205269827
 20
124.2888140649
 30
0.0
 10
74.7179787984
 20
124.4487393289
 30
0.0
 10
74.9253014913
 20
124.7320762614
 30
0.0
 10
75.2998452563
 20
125.0512259846
 30
0.0
 10
75.691331056
 20
125.2358698273
 30
0.0
 10
75.9590029544
 20
125.2781973023
 30
0.0
 10
76.0869815416
 20
125.2799588561
 30
0.0
  0
SPLINE
  5
291
100
AcDbEntity
  8
0
100
AcDbSpline
 62
7
  6
BYLAYER
 70
0
 71
3
 72
10
 73
6
 74
0
 42
0.0000001
 43
0.0000001
 44
0.0000000001
 40
0.0
 40
0.0
 40
0.0
 40
0.0
 40
0.2336303886
 40
0.4846262827
 40
1.0
 40
1.0
 40
1.0
 40
1.0
 10
73.7777446337
 20
124.7844522613
 30
0.0
 10
73.9409374666
 20
124.8756778638
 30
0.0
 10
74.3005877479
 20
125.0276060725
 30
0.0
 10
75.0769492101
 20
125.2274214543
 30
0.0
 10
75.6933628988
 20
125.2800140854
 30
0.0
 10
76.1057845336
 20
125.2800875741
 30
0.0
  0
SPLINE
  5
292
100
AcDbEntity
  8
0
100
AcDbSpline
 62
7
  6
BYLAYER
 70
0
 71
3
 72
9
 73
5
 74
0
 42
0.0000001
 43
0.0000001
 44
0.0000000001
 40
0.0
 40
0.0
 40
0.0
 40
0.0
 40
0.4992753258
 40
1.0
 40
1.0
 40
1.0
 40
1.0
 10
67.066263752
 20
103.1185012035
 30
0.0
 10
67.067943272
 20
103.2150146336
 30
0.0
 10
67.1144252786
 20
103.4085170843
 30
0.0
 10
67.2179373332
 20
103.5742010923
 30
0.0
 10
67.2768287128
 20
103.6510362631
 30
0.0
  0
SPLINE
  5
293
100
AcDbEntity
  8
0
100
AcDbSpline
 62
7
  6
BYLAYER
 70
0
 71
3
 72
8
 73
4
 74
0
 42
0.0000001
 43
0.0000001
 44
0.0000000001
 40
0.0
 40
0.0
 40
0.0
 40
0.0
 40
1.0
 40
1.0
 40
1.0
 40
1.0
 10
67.2768287128
 20
103.6510362631
 30
0.0
 10
67.3670671085
 20
103.7687696663
 30
0.0
 10
67.4743200775
 20
103.8728265384
 30
0.0
 10
67.5812687514
 20
103.9756180918
 30
0.0
  0
SPLINE
  5
294
100
AcDbEntity
  8
0
100
AcDbSpline
 62
7
  6
BYLAYER
 70
0
 71
3
 72
15
 73
11
 74
0
 42
0.0000001
 43
0.0000001
 44
0.0000000001
 40
0.0
 40
0.0
 40
0.0
 40
0.0
 40
0.0669981093
 40
0.1335179378
 40
0.2639060049
 40
0.3910835749
 40
0.5156685982
 40
0.6384037079
 40
0.7598409822
 40
1.0
 40
1.0
 40
1.0
 40
1.0
 10
122.7994695712
 20
123.2029203198
 30
0.0
 10
122.9391941727
 20
123.2022147951
 30
0.0
 10
123.2180545018
 20
123.17750668
 30
0.0
 10
123.7536106144
 20
123.0428802595
 30
0.0
 10
124.366763465
 20
122.7397695695
 30
0.0
 10
124.9911722966
 20
122.2374696923
 30
0.0
 10
125.5126513515
 20
121.6523972227
 30
0.0
 10
125.9493297094
 20
121.0174534048
 30
0.0
 10
126.4377736252
 20
120.132071174
 30
0.0
 10
126.7206598118
 20
119.4293076399
 30
0.0
 10
126.8781452319
 20
118.9538528524
 30
0.0
  0
ENDSEC
  0
SECTION
  2
OBJECTS
  0
DICTIONARY
  5
C
100
AcDbDictionary
280
0
281
1
  3
ACAD_GROUP
350
D
  3
ACAD_MLINESTYLE
350
17
  3
ACAD_LAYOUT
350
1A
  3
ACAD_PLOTSETTINGS
350
19
  3
ACAD_PLOTSTYLENAME
350
E
  0
DICTIONARY
  5
D
102
{ACAD_REACTORS
330
C
102
}
100
AcDbDictionary
280
0
281
1
  0
ACDBDICTIONARYWDFLT
  5
E
102
{ACAD_REACTORS
330
C
102
}
100
AcDbDictionary
281
1
  3
Normal
350
F
100
AcDbDictionaryWithDefault
340
F
  0
DICTIONARY
  5
17
102
{ACAD_REACTORS
330
C
102
}
100
AcDbDictionary
280
0
281
1
  3
Standard
350
18
  0
DICTIONARY
  5
19
102
{ACAD_REACTORS
330
C
102
}
100
AcDbDictionary
281
1
  0
DICTIONARY
  5
1A
102
{ACAD_REACTORS
330
C
102
}
100
AcDbDictionary
281
1
  3
Model
350
295
  3
Layout1
350
296
  0
ACDBPLACEHOLDER
  5
F
102
{ACAD_REACTORS
330
E
102
}
  0
MLINESTYLE
  5
18
102
{ACAD_REACTORS
330
17
102
}
100
AcDbMlineStyle
  2
STANDARD
 70
0
  3

 62
256
 51
90.0
 52
90.0
 71
2
 49
0.5
 62
256
  6
BYLAYER
 49
-0.5
 62
256
  6
BYLAYER
  0
LAYOUT
  5
295
102
{ACAD_REACTORS
330
1A
102
}
100
AcDbPlotSettings
  1

  2
none_device
  4

  6

 40
0.0
 41
0.0
 42
0.0
 43
0.0
 44
210.0
 45
297.0
 46
0.0
 47
0.0
 48
0.0
 49
0.0
140
0.0
141
0.0
142
1.0
143
1.0
 70
1024
 72
1
 73
0
 74
0
  7

 75
0
147
1.0
148
0.0
149
0.0
100
AcDbLayout
  1
Model
 70
0
 71
0
 10
0.0
 20
0.0
 11
210.0
 21
297.0
 12
0.0
 22
0.0
 32
0.0
 14
0.0
 24
0.0
 34
0.0
 15
0.0
 25
0.0
 35
0.0
146
0.0
 13
0.0
 23
0.0
 33
0.0
 16
1.0
 26
0.0
 36
0.0
 17
0.0
 27
1.0
 37
0.0
 76
0
330
210
345
0
346
0
  0
LAYOUT
  5
296
102
{ACAD_REACTORS
330
1A
102
}
100
AcDbPlotSettings
  1

  2
none_device
  4

  6

 40
0.0
 41
0.0
 42
0.0
 43
0.0
 44
210.0
 45
297.0
 46
0.0
 47
0.0
 48
0.0
 49
0.0
140
0.0
141
0.0
142
1.0
143
1.0
 70
0
 72
1
 73
0
 74
0
  7

 75
0
147
1.0
148
0.0
149
0.0
100
AcDbLayout
  1
Layout1
 70
0
 71
1
 10
0.0
 20
0.0
 11
210.0
 21
297.0
 12
0.0
 22
0.0
 32
0.0
 14
0.0
 24
0.0
 34
0.0
 15
0.0
 25
0.0
 35
0.0
146
0.0
 13
0.0
 23
0.0
 33
0.0
 16
1.0
 26
0.0
 36
0.0
 17
0.0
 27
1.0
 37
0.0
 76
0
330
211
345
0
346
0
  0
ENDSEC
  0
EOF
