999
DXF file: C:\Users\sesa63760\Dev\_Creo\CAD\MCADPP0003178_3D-CAD\drw0001_5.dxf
999
Pro/ENGINEER 2019471 by Parametric Technology Corporation
  0
SECTION
  2
HEADER
  9
$ACADVER
  1
AC1024
  9
$DWGCODEPAGE
  3
ANSI_1252
  9
$EXTMAX
 10
273.7359749565
 20
387.1408788671
 30
0.0
  9
$EXTMIN
 10
0.0
 20
0.0
 30
0.0
  9
$LIMMIN
 10
0.0
 20
0.0
  9
$LIMMAX
 10
273.7359749565
 20
387.1408788671
  9
$VIEWCTR
 10
136.8679874783
 20
193.5704394336
  9
$VIEWSIZE
 40
387.1408788671
  9
$CLAYER
  8
0
  9
$LTSCALE
 40
25.2358498817
  9
$CELTYPE
  6
BYLAYER
  9
$DIMSCALE
 40
1.0
  9
$DIMASZ
 40
3.2587616066
  9
$DIMEXO
 40
1.0
  9
$DIMDLI
 40
17.4356781001
  9
$DIMEXE
 40
1.0
  9
$DIMCEN
 40
4.1295027079
  9
$DIMLFAC
 40
1.0
  9
$DIMBLK
  1
_FILLED
  9
$DIMALT
 70
0
  9
$DIMALTF
 40
0.0393700787
  9
$DIMTXT
 40
4.5622662493
  9
$DIMTOL
 70
1
  9
$DIMLIM
 70
0
  9
$DIMTFAC
 40
1.0
  9
$DIMTP
 40
0.01
  9
$DIMTM
 40
0.01
  9
$DIMGAP
 40
0.625
  9
$DIMDSEP
 70
46
  9
$AUNITS
 70
0
  9
$PDMODE
 70
3
  9
$PDSIZE
 40
0.3125
  9
$HANDSEED
  5
4E1
  9
$TILEMODE
 70
1
  9
$MEASUREMENT
 70
1
  9
$INSUNITS
 70
4
  0
ENDSEC
  0
SECTION
  2
CLASSES
  0
CLASS
  1
ACDBDICTIONARYWDFLT
  2
AcDbDictionaryWithDefault
  3
AutoCAD 2000
 90
0
 91
1
280
0
281
0
  0
CLASS
  1
ACDBPLACEHOLDER
  2
AcDbPlaceHolder
  3
AutoCAD 2000
 90
0
 91
1
280
0
281
0
  0
CLASS
  1
LAYOUT
  2
AcDbLayout
  3
AutoCAD 2000
 90
0
 91
0
280
0
281
0
  0
ENDSEC
  0
SECTION
  2
TABLES
  0
TABLE
  2
VPORT
  5
8
100
AcDbSymbolTable
 70
2
  0
VPORT
  5
1F4
100
AcDbSymbolTableRecord
100
AcDbViewportTableRecord
  2
*ACTIVE
 70
0
 10
0.0
 20
0.0
 11
1.0
 21
1.0
 12
136.8679874783
 22
193.5704394336
 13
0.0
 23
0.0
 14
1.0
 24
1.0
 15
0.0
 25
0.0
 16
0.0
 26
0.0
 36
1.0
 17
0.0
 27
0.0
 37
0.0
 40
387.1408788671
 41
0.7070707071
 42
50.0
 43
0.0
 44
0.0
 50
0.0
 51
0.0
 71
0
 72
100
 73
1
 74
1
 75
0
 76
0
 77
0
 78
0
  0
ENDTAB
  0
TABLE
  2
LTYPE
  5
5
100
AcDbSymbolTable
 70
6
  0
LTYPE
  5
14
100
AcDbSymbolTableRecord
100
AcDbLinetypeTableRecord
  2
BYBLOCK
 70
0
  3

 72
65
 73
0
 40
0.0
  0
LTYPE
  5
15
100
AcDbSymbolTableRecord
100
AcDbLinetypeTableRecord
  2
BYLAYER
 70
0
  3

 72
65
 73
0
 40
0.0
  0
LTYPE
  5
16
100
AcDbSymbolTableRecord
100
AcDbLinetypeTableRecord
  2
CONTINUOUS
 70
64
  3
Solid line
 72
65
 73
0
 40
0.0
  0
LTYPE
  5
1F5
100
AcDbSymbolTableRecord
100
AcDbLinetypeTableRecord
  2
CENTER
 70
64
  3
____ _ ____ _ ____ _ ____ _ ____ _ ____ _ ____
 72
65
 73
4
 40
0.6
 49
0.375
 74
0
 49
-0.075
 74
0
 49
0.075
 74
0
 49
-0.075
 74
0
  0
LTYPE
  5
1F6
100
AcDbSymbolTableRecord
100
AcDbLinetypeTableRecord
  2
HIDDEN
 70
64
  3
- - - - - - - - - - - - - - - - - - - -
 72
65
 73
2
 40
0.2
 49
0.1
 74
0
 49
-0.1
 74
0
  0
LTYPE
  5
1F7
100
AcDbSymbolTableRecord
100
AcDbLinetypeTableRecord
  2
PHANTOM
 70
64
  3
_____ _ _ _____ _ _ _____ _ _ _____
 72
65
 73
6
 40
0.8
 49
0.45
 74
0
 49
-0.05
 74
0
 49
0.1
 74
0
 49
-0.05
 74
0
 49
0.1
 74
0
 49
-0.05
 74
0
  0
LTYPE
  5
1F8
100
AcDbSymbolTableRecord
100
AcDbLinetypeTableRecord
  2
DOT
 70
64
  3
. . . . . . . . . . . . . . . . . . . .
 72
65
 73
2
 40
0.2
 49
0.1
 74
0
 49
-0.1
 74
0
  0
LTYPE
  5
1F9
100
AcDbSymbolTableRecord
100
AcDbLinetypeTableRecord
  2
DASHED
 70
64
  3
- - - - - - - - - - - - - - - - - - - -
 72
65
 73
2
 40
0.2
 49
0.1
 74
0
 49
-0.1
 74
0
  0
ENDTAB
  0
TABLE
  2
LAYER
  5
2
100
AcDbSymbolTable
 70
36
  0
LAYER
  5
10
100
AcDbSymbolTableRecord
100
AcDbLayerTableRecord
  2
0
 70
0
 62
7
  6
CONTINUOUS
370
-3
390
F
  0
LAYER
  5
1FA
100
AcDbSymbolTableRecord
100
AcDbLayerTableRecord
  2
DEFAULT_1
 70
0
 62
7
  6
CENTER
370
-3
390
F
  0
LAYER
  5
1FB
100
AcDbSymbolTableRecord
100
AcDbLayerTableRecord
  2
DEFAULT_2
 70
0
 62
8
  6
HIDDEN
370
-3
390
F
  0
LAYER
  5
1FC
100
AcDbSymbolTableRecord
100
AcDbLayerTableRecord
  2
DEFAULT_3
 70
0
 62
7
  6
PHANTOM
370
-3
390
F
  0
LAYER
  5
1FD
100
AcDbSymbolTableRecord
100
AcDbLayerTableRecord
  2
00_COMPONENTS
 70
0
 62
7
  6
CONTINUOUS
370
-3
390
F
  0
LAYER
  5
1FE
100
AcDbSymbolTableRecord
100
AcDbLayerTableRecord
  2
01_1_DEFAULT_DATUMS
 70
0
 62
7
  6
CONTINUOUS
370
-3
390
F
  0
LAYER
  5
1FF
100
AcDbSymbolTableRecord
100
AcDbLayerTableRecord
  2
01_PLANES
 70
0
 62
7
  6
CONTINUOUS
370
-3
390
F
  0
LAYER
  5
200
100
AcDbSymbolTableRecord
100
AcDbLayerTableRecord
  2
02_COORD_SYS
 70
0
 62
7
  6
CONTINUOUS
370
-3
390
F
  0
LAYER
  5
201
100
AcDbSymbolTableRecord
100
AcDbLayerTableRecord
  2
03_AXES
 70
0
 62
7
  6
CONTINUOUS
370
-3
390
F
  0
LAYER
  5
202
100
AcDbSymbolTableRecord
100
AcDbLayerTableRecord
  2
04_POINTS
 70
0
 62
7
  6
CONTINUOUS
370
-3
390
F
  0
LAYER
  5
203
100
AcDbSymbolTableRecord
100
AcDbLayerTableRecord
  2
05_CURVES
 70
0
 62
7
  6
CONTINUOUS
370
-3
390
F
  0
LAYER
  5
204
100
AcDbSymbolTableRecord
100
AcDbLayerTableRecord
  2
06_SURFS
 70
0
 62
7
  6
CONTINUOUS
370
-3
390
F
  0
LAYER
  5
205
100
AcDbSymbolTableRecord
100
AcDbLayerTableRecord
  2
07_COSMETICS
 70
0
 62
7
  6
CONTINUOUS
370
-3
390
F
  0
LAYER
  5
206
100
AcDbSymbolTableRecord
100
AcDbLayerTableRecord
  2
10_NOTES
 70
0
 62
7
  6
CONTINUOUS
370
-3
390
F
  0
LAYER
  5
207
100
AcDbSymbolTableRecord
100
AcDbLayerTableRecord
  2
11_NOTES_PUB
 70
0
 62
7
  6
CONTINUOUS
370
-3
390
F
  0
LAYER
  5
208
100
AcDbSymbolTableRecord
100
AcDbLayerTableRecord
  2
13_REF_GTOL
 70
0
 62
7
  6
CONTINUOUS
370
-3
390
F
  0
LAYER
  5
209
100
AcDbSymbolTableRecord
100
AcDbLayerTableRecord
  2
16_MISC
 70
0
 62
7
  6
CONTINUOUS
370
-3
390
F
  0
LAYER
  5
20A
100
AcDbSymbolTableRecord
100
AcDbLayerTableRecord
  2
17_NO_PRINT
 70
0
 62
7
  6
CONTINUOUS
370
-3
390
F
  0
LAYER
  5
20B
100
AcDbSymbolTableRecord
100
AcDbLayerTableRecord
  2
18_DATUM_CAMS_JOINTS
 70
0
 62
7
  6
CONTINUOUS
370
-3
390
F
  0
LAYER
  5
20C
100
AcDbSymbolTableRecord
100
AcDbLayerTableRecord
  2
19_DATUM_FUNCTIONAL
 70
0
 62
7
  6
CONTINUOUS
370
-3
390
F
  0
LAYER
  5
20D
100
AcDbSymbolTableRecord
100
AcDbLayerTableRecord
  2
20_DATUM_KINEMATIC_SCHEME
 70
0
 62
7
  6
CONTINUOUS
370
-3
390
F
  0
ENDTAB
  0
TABLE
  2
STYLE
  5
3
100
AcDbSymbolTable
 70
1
  0
STYLE
  5
11
100
AcDbSymbolTableRecord
100
AcDbTextStyleTableRecord
  2
STANDARD
 70
0
 40
0.0
 41
0.8
 50
0.0
 71
0
 42
0.2
  3
txt
  4

  0
STYLE
  5
20E
100
AcDbSymbolTableRecord
100
AcDbTextStyleTableRecord
  2
TEXTSTYLE_1
 70
0
 40
0.0
 41
0.8
 50
0.0
 71
0
 42
0.2
  3
gdt
  4

  0
ENDTAB
  0
TABLE
  2
VIEW
  5
6
100
AcDbSymbolTable
 70
0
  0
ENDTAB
  0
TABLE
  2
UCS
  5
7
100
AcDbSymbolTable
 70
0
  0
ENDTAB
  0
TABLE
  2
APPID
  5
9
100
AcDbSymbolTable
 70
1
  0
APPID
  5
20F
100
AcDbSymbolTableRecord
100
AcDbRegAppTableRecord
  2
ACAD
 70
0
  0
ENDTAB
  0
TABLE
  2
BLOCK_RECORD
  5
1
100
AcDbSymbolTable
 70
0
  0
BLOCK_RECORD
  5
210
100
AcDbSymbolTableRecord
100
AcDbBlockTableRecord
  2
*Model_Space
  0
BLOCK_RECORD
  5
211
100
AcDbSymbolTableRecord
100
AcDbBlockTableRecord
  2
*Paper_Space
  0
BLOCK_RECORD
  5
212
100
AcDbSymbolTableRecord
100
AcDbBlockTableRecord
  2
_FILLED
  0
ENDTAB
  0
TABLE
  2
DIMSTYLE
  5
A
100
AcDbSymbolTable
 70
1
100
AcDbDimStyleTable
 71
0
  0
DIMSTYLE
105
213
100
AcDbSymbolTableRecord
100
AcDbDimStyleTableRecord
  2
STANDARD
 70
0
  3

  4

 40
1.0
 41
3.2587616066
 42
1.0
 43
0.38
 44
1.0
 45
0.0
 46
0.0
 47
0.01
 48
0.01
140
4.5622662493
141
0.09
142
0.0
143
25.4
144
1.0
145
0.0
146
1.0
147
0.625
 71
1
 72
0
 73
0
 74
0
 75
0
 76
0
 77
1
 78
8
 79
2
170
0
171
1
172
0
173
0
174
0
175
0
176
0
177
0
178
0
270
2
179
2
271
2
272
2
273
2
274
2
275
0
280
0
281
0
282
0
283
1
284
8
285
0
286
0
287
3
288
0
340
11
278
46
341
212
342
212
343
212
344
212
  0
ENDTAB
  0
ENDSEC
  0
SECTION
  2
BLOCKS
  0
BLOCK
  5
20
100
AcDbEntity
  8
0
100
AcDbBlockBegin
  2
*Model_Space
 70
0
 10
0.0
 20
0.0
 30
0.0
  3
*Model_Space
  1

  0
ENDBLK
  5
21
100
AcDbEntity
  8
0
100
AcDbBlockEnd
  0
BLOCK
  5
1C
100
AcDbEntity
  8
0
100
AcDbBlockBegin
  2
*Paper_Space
 70
0
 10
0.0
 20
0.0
 30
0.0
  3
*Paper_Space
  1

  0
ENDBLK
  5
1D
100
AcDbEntity
  8
0
100
AcDbBlockEnd
  0
BLOCK
  5
214
100
AcDbEntity
  8
0
100
AcDbBlockBegin
  2
_FILLED
 70
64
 10
0.0
 20
0.0
  3
_FILLED
  1

  0
SOLID
  5
215
100
AcDbEntity
  8
0
  6
BYBLOCK
 62
0
100
AcDbTrace
 10
0.0
 20
0.0
 11
-1.0
 21
0.25
 12
-1.0
 22
-0.25
 13
-1.0
 23
-0.25
  0
ENDBLK
  5
216
100
AcDbEntity
  8
0
  6
BYBLOCK
 62
0
100
AcDbBlockEnd
  0
ENDSEC
  0
SECTION
  2
ENTITIES
  0
LINE
  5
217
100
AcDbEntity
  8
0
100
AcDbLine
 62
7
  6
CONTINUOUS
 10
31.9087406373
 20
253.6960334758
 11
31.9087406373
 21
248.8701116054
  0
LINE
  5
218
100
AcDbEntity
  8
0
100
AcDbLine
 62
7
  6
CONTINUOUS
 10
31.9087406373
 20
228.3308432931
 11
31.9087406373
 21
223.5049214226
  0
LINE
  5
219
100
AcDbEntity
  8
0
100
AcDbLine
 62
7
  6
CONTINUOUS
 10
32.1373406373
 20
237.2579855654
 11
32.1373406373
 21
236.8724789117
  0
LINE
  5
21A
100
AcDbEntity
  8
0
100
AcDbLine
 62
7
  6
CONTINUOUS
 10
32.5183406373
 20
185.0272960784
 11
32.5183406373
 21
291.4532960784
  0
LINE
  5
21B
100
AcDbEntity
  8
0
100
AcDbLine
 62
7
  6
CONTINUOUS
 10
37.4713106242
 20
265.7867144429
 11
36.2013406373
 21
260.2542850454
  0
LINE
  5
21C
100
AcDbEntity
  8
0
100
AcDbLine
 62
7
  6
CONTINUOUS
 10
40.6673842569
 20
245.5182615767
 11
40.582405553
 21
245.2776903551
  0
LINE
  5
21D
100
AcDbEntity
  8
0
100
AcDbLine
 62
7
  6
CONTINUOUS
 10
32.1475444278
 20
236.4921667494
 11
32.1373406373
 21
236.8724789117
  0
LINE
  5
21E
100
AcDbEntity
  8
0
100
AcDbLine
 62
7
  6
CONTINUOUS
 10
36.0788959009
 20
228.2082569824
 11
36.0743406373
 21
228.3780391978
  0
LINE
  5
21F
100
AcDbEntity
  8
0
100
AcDbLine
 62
7
  6
CONTINUOUS
 10
33.5292852706
 20
231.8269013855
 11
33.5292852706
 21
231.9823324521
  0
LINE
  5
220
100
AcDbEntity
  8
0
100
AcDbLine
 62
7
  6
CONTINUOUS
 10
35.1853406373
 20
185.0272960784
 11
35.1853406373
 21
224.7454615394
  0
LINE
  5
221
100
AcDbEntity
  8
0
100
AcDbLine
 62
7
  6
CONTINUOUS
 10
35.1853406373
 20
233.0809568899
 11
35.1853406373
 21
291.4532960784
  0
LINE
  5
222
100
AcDbEntity
  8
0
100
AcDbLine
 62
7
  6
CONTINUOUS
 10
35.2395330263
 20
220.2129710566
 11
35.2395330263
 21
224.7174672979
  0
LINE
  5
223
100
AcDbEntity
  8
0
100
AcDbLine
 62
7
  6
CONTINUOUS
 10
35.2395330263
 20
243.0315872557
 11
35.2395330263
 21
286.1102963869
  0
LINE
  5
224
100
AcDbEntity
  8
0
100
AcDbLine
 62
7
  6
CONTINUOUS
 10
35.3123406373
 20
189.9736211003
 11
35.3123406373
 21
220.2129710566
  0
LINE
  5
225
100
AcDbEntity
  8
0
100
AcDbLine
 62
7
  6
CONTINUOUS
 10
35.9473406373
 20
241.6311346173
 11
35.9473406373
 21
236.5927167535
  0
LINE
  5
226
100
AcDbEntity
  8
0
100
AcDbLine
 62
7
  6
CONTINUOUS
 10
36.0743406373
 20
228.9106502109
 11
36.0743406373
 21
228.3780391978
  0
LINE
  5
227
100
AcDbEntity
  8
0
100
AcDbLine
 62
7
  6
CONTINUOUS
 10
36.2013406373
 20
224.2238832953
 11
36.2013406373
 21
219.5592646528
  0
LINE
  5
228
100
AcDbEntity
  8
0
100
AcDbLine
 62
7
  6
CONTINUOUS
 10
36.2013406373
 20
243.7463750893
 11
36.2013406373
 21
284.8842091043
  0
LINE
  5
229
100
AcDbEntity
  8
0
100
AcDbLine
 62
7
  6
CONTINUOUS
 10
36.7093406373
 20
242.3931960784
 11
36.7093406373
 21
236.5528367549
  0
LINE
  5
22A
100
AcDbEntity
  8
0
100
AcDbLine
 62
7
  6
CONTINUOUS
 10
36.7093406373
 20
217.7931870355
 11
36.7093406373
 21
192.3934051214
  0
LINE
  5
22B
100
AcDbEntity
  8
0
100
AcDbLine
 62
7
  6
CONTINUOUS
 10
37.7253406373
 20
219.5592646528
 11
37.7253406373
 21
223.4525104496
  0
LINE
  5
22C
100
AcDbEntity
  8
0
100
AcDbLine
 62
7
  6
CONTINUOUS
 10
37.7253406373
 20
245.3703973783
 11
37.7253406373
 21
257.6416902457
  0
LINE
  5
22D
100
AcDbEntity
  8
0
100
AcDbLine
 62
7
  6
CONTINUOUS
 10
38.2587406373
 20
221.1961289325
 11
38.2587406373
 21
223.1861207195
  0
LINE
  5
22E
100
AcDbEntity
  8
0
100
AcDbLine
 62
7
  6
CONTINUOUS
 10
38.2587406373
 20
246.5613191153
 11
38.2587406373
 21
256.004825966
  0
LINE
  5
22F
100
AcDbEntity
  8
0
100
AcDbLine
 62
7
  6
CONTINUOUS
 10
38.4873406373
 20
245.2741083171
 11
38.4873406373
 21
244.6094416728
  0
LINE
  5
230
100
AcDbEntity
  8
0
100
AcDbLine
 62
7
  6
CONTINUOUS
 10
38.9057864812
 20
235.3229302146
 11
38.9057864812
 21
235.4783612812
  0
LINE
  5
231
100
AcDbEntity
  8
0
100
AcDbLine
 62
7
  6
CONTINUOUS
 10
39.2493406373
 20
244.6094416728
 11
39.2493406373
 21
245.2741083171
  0
LINE
  5
232
100
AcDbEntity
  8
0
100
AcDbLine
 62
7
  6
CONTINUOUS
 10
39.3636406373
 20
221.2823823579
 11
39.3636406373
 21
222.6403624211
  0
LINE
  5
233
100
AcDbEntity
  8
0
100
AcDbLine
 62
7
  6
CONTINUOUS
 10
39.3636406373
 20
246.6475725406
 11
39.3636406373
 21
255.9185725406
  0
LINE
  5
234
100
AcDbEntity
  8
0
100
AcDbLine
 62
7
  6
CONTINUOUS
 10
39.3763406373
 20
250.5845725406
 11
39.3763406373
 21
251.9815725406
  0
LINE
  5
235
100
AcDbEntity
  8
0
100
AcDbLine
 62
7
  6
CONTINUOUS
 10
40.582405553
 20
245.2776903551
 11
40.582405553
 21
245.0628341651
  0
LINE
  5
236
100
AcDbEntity
  8
0
100
AcDbLine
 62
7
  6
CONTINUOUS
 10
40.6673842569
 20
245.0493661011
 11
40.6673842569
 21
245.5182615767
  0
LINE
  5
237
100
AcDbEntity
  8
0
100
AcDbLine
 62
7
  6
CONTINUOUS
 10
40.9130406373
 20
222.8318256175
 11
40.9130406373
 21
223.3670658088
  0
LINE
  5
238
100
AcDbEntity
  8
0
100
AcDbLine
 62
7
  6
CONTINUOUS
 10
40.9130406373
 20
248.1970158003
 11
40.9130406373
 21
250.5845725406
  0
LINE
  5
239
100
AcDbEntity
  8
0
100
AcDbLine
 62
7
  6
CONTINUOUS
 10
40.9130406373
 20
251.9815725406
 11
40.9130406373
 21
254.3691292809
  0
LINE
  5
23A
100
AcDbEntity
  8
0
100
AcDbLine
 62
7
  6
CONTINUOUS
 10
41.8650526597
 20
245.0963593341
 11
41.8650526597
 21
244.6315552047
  0
LINE
  5
23B
100
AcDbEntity
  8
0
100
AcDbLine
 62
7
  6
CONTINUOUS
 10
42.4243406373
 20
228.9106502109
 11
42.4243406373
 21
228.3780391978
  0
LINE
  5
23C
100
AcDbEntity
  8
0
100
AcDbLine
 62
7
  6
CONTINUOUS
 10
35.9473406373
 20
241.6311960784
 11
36.7093406373
 21
242.3931960784
  0
LINE
  5
23D
100
AcDbEntity
  8
0
100
AcDbLine
 62
7
  6
CONTINUOUS
 10
131.3497406373
 20
92.4442960784
 11
234.4229406373
 21
92.4442960784
  0
LINE
  5
23E
100
AcDbEntity
  8
0
100
AcDbLine
 62
7
  6
CONTINUOUS
 10
234.4229406373
 20
95.0858960784
 11
131.3497406373
 21
95.0858960784
  0
LINE
  5
23F
100
AcDbEntity
  8
0
100
AcDbLine
 62
7
  6
CONTINUOUS
 10
42.4197853737
 20
228.5478214131
 11
42.4243406373
 21
228.3780391978
  0
LINE
  5
240
100
AcDbEntity
  8
0
100
AcDbLine
 62
7
  6
CONTINUOUS
 10
42.4243406373
 20
228.9106502109
 11
42.4197853737
 21
229.0804324262
  0
LINE
  5
241
100
AcDbEntity
  8
0
100
AcDbLine
 62
7
  6
CONTINUOUS
 10
43.4403406373
 20
245.5559771319
 11
43.4403406373
 21
233.194586773
  0
LINE
  5
242
100
AcDbEntity
  8
0
100
AcDbLine
 62
7
  6
CONTINUOUS
 10
43.4403406373
 20
258.9661979913
 11
43.4403406373
 21
278.8548960784
  0
LINE
  5
243
100
AcDbEntity
  8
0
100
AcDbLine
 62
7
  6
CONTINUOUS
 10
44.625841848
 20
232.4211391392
 11
44.625841848
 21
232.5765702058
  0
LINE
  5
244
100
AcDbEntity
  8
0
100
AcDbLine
 62
7
  6
CONTINUOUS
 10
44.969396004
 20
226.0233192347
 11
44.969396004
 21
226.1787503013
  0
LINE
  5
245
100
AcDbEntity
  8
0
100
AcDbLine
 62
7
  6
CONTINUOUS
 10
45.4723406373
 20
192.3932960784
 11
45.4723406373
 21
256.3758960784
  0
LINE
  5
246
100
AcDbEntity
  8
0
100
AcDbLine
 62
7
  6
CONTINUOUS
 10
46.1073406373
 20
259.0428960784
 11
46.1073406373
 21
278.8548960784
  0
LINE
  5
247
100
AcDbEntity
  8
0
100
AcDbLine
 62
7
  6
CONTINUOUS
 10
48.1393406373
 20
192.3932960784
 11
48.1393406373
 21
272.0730960784
  0
LINE
  5
248
100
AcDbEntity
  8
0
100
AcDbLine
 62
7
  6
CONTINUOUS
 10
48.3552406373
 20
215.5072331998
 11
48.3552406373
 21
194.6793728406
  0
LINE
  5
249
100
AcDbEntity
  8
0
100
AcDbLine
 62
7
  6
CONTINUOUS
 10
49.4220406373
 20
194.679358957
 11
49.4220406373
 21
215.5072492755
  0
LINE
  5
24A
100
AcDbEntity
  8
0
100
AcDbLine
 62
7
  6
CONTINUOUS
 10
49.5617406373
 20
211.4431921395
 11
49.5617406373
 21
198.7434000174
  0
LINE
  5
24B
100
AcDbEntity
  8
0
100
AcDbLine
 62
7
  6
CONTINUOUS
 10
50.8063406373
 20
192.3935242429
 11
50.8063406373
 21
198.6798081805
  0
LINE
  5
24C
100
AcDbEntity
  8
0
100
AcDbLine
 62
7
  6
CONTINUOUS
 10
50.8063406373
 20
211.4432960784
 11
50.8063406373
 21
264.4530960784
  0
LINE
  5
24D
100
AcDbEntity
  8
0
100
AcDbLine
 62
7
  6
CONTINUOUS
 10
51.0857406373
 20
198.7432960784
 11
51.0857406373
 21
211.4432960784
  0
LINE
  5
24E
100
AcDbEntity
  8
0
100
AcDbLine
 62
7
  6
CONTINUOUS
 10
51.1873406373
 20
215.5072331998
 11
51.1873406373
 21
211.3416960784
  0
LINE
  5
24F
100
AcDbEntity
  8
0
100
AcDbLine
 62
7
  6
CONTINUOUS
 10
51.1873406373
 20
198.8448960784
 11
51.1873406373
 21
194.6793728406
  0
LINE
  5
250
100
AcDbEntity
  8
0
100
AcDbLine
 62
7
  6
CONTINUOUS
 10
51.3143406373
 20
272.0730960784
 11
51.3143406373
 21
264.4530960784
  0
LINE
  5
251
100
AcDbEntity
  8
0
100
AcDbLine
 62
7
  6
CONTINUOUS
 10
51.3143406373
 20
259.3730960784
 11
51.3143406373
 21
251.7530960784
  0
LINE
  5
252
100
AcDbEntity
  8
0
100
AcDbLine
 62
7
  6
CONTINUOUS
 10
51.8477406373
 20
199.5053039279
 11
51.8477406373
 21
210.681288229
  0
LINE
  5
253
100
AcDbEntity
  8
0
100
AcDbLine
 62
7
  6
CONTINUOUS
 10
52.2541406373
 20
194.679358957
 11
52.2541406373
 21
215.5072492755
  0
LINE
  5
254
100
AcDbEntity
  8
0
100
AcDbLine
 62
7
  6
CONTINUOUS
 10
52.3557406373
 20
211.4432155331
 11
52.3557406373
 21
198.7433766238
  0
LINE
  5
255
100
AcDbEntity
  8
0
100
AcDbLine
 62
7
  6
CONTINUOUS
 10
53.8797406373
 20
198.7432960784
 11
53.8797406373
 21
211.4432960784
  0
LINE
  5
256
100
AcDbEntity
  8
0
100
AcDbLine
 62
7
  6
CONTINUOUS
 10
54.6417406373
 20
199.5052960784
 11
54.6417406373
 21
210.6812960784
  0
LINE
  5
257
100
AcDbEntity
  8
0
100
AcDbLine
 62
7
  6
CONTINUOUS
 10
57.7913406373
 20
220.9682960784
 11
57.7913406373
 21
223.6352960784
  0
LINE
  5
258
100
AcDbEntity
  8
0
100
AcDbLine
 62
7
  6
CONTINUOUS
 10
247.5293406373
 20
112.9357333556
 11
244.3289406373
 21
112.9357333556
  0
LINE
  5
259
100
AcDbEntity
  8
0
100
AcDbLine
 62
7
  6
CONTINUOUS
 10
118.2433406373
 20
112.9357333556
 11
121.4437406373
 21
112.9357333556
  0
LINE
  5
25A
100
AcDbEntity
  8
0
100
AcDbLine
 62
7
  6
CONTINUOUS
 10
124.7457406373
 20
114.2882960784
 11
122.0787406373
 21
114.2882960784
  0
LINE
  5
25B
100
AcDbEntity
  8
0
100
AcDbLine
 62
7
  6
CONTINUOUS
 10
36.2013406373
 20
271.3191438404
 11
37.4713106242
 21
265.7867144429
  0
LINE
  5
25C
100
AcDbEntity
  8
0
100
AcDbLine
 62
7
  6
CONTINUOUS
 10
64.1413406373
 20
223.6352960784
 11
64.1413406373
 21
220.9682960784
  0
LINE
  5
25D
100
AcDbEntity
  8
0
100
AcDbLine
 62
7
  6
CONTINUOUS
 10
69.2213406373
 20
295.6442960784
 11
69.2213406373
 21
292.9772960784
  0
LINE
  5
25E
100
AcDbEntity
  8
0
100
AcDbLine
 62
7
  6
CONTINUOUS
 10
122.0787406373
 20
117.3362960784
 11
124.7457406373
 21
117.3362960784
  0
LINE
  5
25F
100
AcDbEntity
  8
0
100
AcDbLine
 62
7
  6
CONTINUOUS
 10
121.5580406373
 20
117.4251960784
 11
121.4437406373
 21
117.4251960784
  0
LINE
  5
260
100
AcDbEntity
  8
0
100
AcDbLine
 62
7
  6
CONTINUOUS
 10
118.2433406373
 20
117.4251960784
 11
118.0782406373
 21
117.4251960784
  0
LINE
  5
261
100
AcDbEntity
  8
0
100
AcDbLine
 62
7
  6
CONTINUOUS
 10
122.0787406373
 20
117.4378960784
 11
121.5580406373
 21
117.4378960784
  0
LINE
  5
262
100
AcDbEntity
  8
0
100
AcDbLine
 62
7
  6
CONTINUOUS
 10
127.3873406373
 20
119.8889960784
 11
129.4828406373
 21
119.8889960784
  0
LINE
  5
263
100
AcDbEntity
  8
0
100
AcDbLine
 62
7
  6
CONTINUOUS
 10
118.0782406373
 20
121.5239323549
 11
118.2052406373
 21
121.5239323549
  0
LINE
  5
264
100
AcDbEntity
  8
0
100
AcDbLine
 62
7
  6
CONTINUOUS
 10
118.2052406373
 20
122.9250989175
 11
118.0782406373
 21
122.9250989175
  0
LINE
  5
265
100
AcDbEntity
  8
0
100
AcDbLine
 62
7
  6
CONTINUOUS
 10
127.3873406373
 20
124.4355960784
 11
129.4828406373
 21
124.4355960784
  0
LINE
  5
266
100
AcDbEntity
  8
0
100
AcDbLine
 62
7
  6
CONTINUOUS
 10
51.8477406373
 20
199.5052960784
 11
51.0857406373
 21
198.7432960784
  0
LINE
  5
267
100
AcDbEntity
  8
0
100
AcDbLine
 62
7
  6
CONTINUOUS
 10
54.6417406373
 20
199.5052960784
 11
53.8797406373
 21
198.7432960784
  0
LINE
  5
268
100
AcDbEntity
  8
0
100
AcDbLine
 62
7
  6
CONTINUOUS
 10
122.0787406373
 20
126.8866960784
 11
121.5580406373
 21
126.8866960784
  0
LINE
  5
269
100
AcDbEntity
  8
0
100
AcDbLine
 62
7
  6
CONTINUOUS
 10
121.5580406373
 20
126.8993960784
 11
121.4437406373
 21
126.8993960784
  0
LINE
  5
26A
100
AcDbEntity
  8
0
100
AcDbLine
 62
7
  6
CONTINUOUS
 10
118.2433406373
 20
126.8993960784
 11
118.0782406373
 21
126.8993960784
  0
LINE
  5
26B
100
AcDbEntity
  8
0
100
AcDbLine
 62
7
  6
CONTINUOUS
 10
118.2433406373
 20
137.5698296396
 11
121.4437406373
 21
137.5698296396
  0
LINE
  5
26C
100
AcDbEntity
  8
0
100
AcDbLine
 62
7
  6
CONTINUOUS
 10
244.3289406373
 20
137.5698296396
 11
247.5293406373
 21
137.5698296396
  0
LINE
  5
26D
100
AcDbEntity
  8
0
100
AcDbLine
 62
7
  6
CONTINUOUS
 10
124.7457406373
 20
137.8848960784
 11
121.4437406373
 21
137.8848960784
  0
LINE
  5
26E
100
AcDbEntity
  8
0
100
AcDbLine
 62
7
  6
CONTINUOUS
 10
241.0269406373
 20
137.8848960784
 11
244.3289406373
 21
137.8848960784
  0
LINE
  5
26F
100
AcDbEntity
  8
0
100
AcDbLine
 62
7
  6
CONTINUOUS
 10
118.2433406373
 20
141.2884960784
 11
116.3637406373
 21
141.2884960784
  0
LINE
  5
270
100
AcDbEntity
  8
0
100
AcDbLine
 62
7
  6
CONTINUOUS
 10
247.5293406373
 20
141.2884960784
 11
249.4089406373
 21
141.2884960784
  0
LINE
  5
271
100
AcDbEntity
  8
0
100
AcDbLine
 62
7
  6
CONTINUOUS
 10
247.5293406373
 20
144.5316436564
 11
244.3289406373
 21
144.5316436564
  0
LINE
  5
272
100
AcDbEntity
  8
0
100
AcDbLine
 62
7
  6
CONTINUOUS
 10
121.4437406373
 20
144.5316436564
 11
118.2433406373
 21
144.5316436564
  0
LINE
  5
273
100
AcDbEntity
  8
0
100
AcDbLine
 62
7
  6
CONTINUOUS
 10
51.8477406373
 20
210.6812960784
 11
51.0857406373
 21
211.4432960784
  0
LINE
  5
274
100
AcDbEntity
  8
0
100
AcDbLine
 62
7
  6
CONTINUOUS
 10
54.6417406373
 20
210.6812960784
 11
53.8797406373
 21
211.4432960784
  0
LINE
  5
275
100
AcDbEntity
  8
0
100
AcDbLine
 62
7
  6
CONTINUOUS
 10
94.9785725785
 20
179.762858251
 11
94.9785725785
 21
180.5076758532
  0
LINE
  5
276
100
AcDbEntity
  8
0
100
AcDbLine
 62
7
  6
CONTINUOUS
 10
96.8057406373
 20
174.2691975883
 11
96.8057406373
 21
188.6002859024
  0
LINE
  5
277
100
AcDbEntity
  8
0
100
AcDbLine
 62
7
  6
CONTINUOUS
 10
97.4407406373
 20
191.9295451239
 11
97.4407406373
 21
188.9726400599
  0
LINE
  5
278
100
AcDbEntity
  8
0
100
AcDbLine
 62
7
  6
CONTINUOUS
 10
97.4407406373
 20
173.3568896506
 11
97.4407406373
 21
163.4253151339
  0
LINE
  5
279
100
AcDbEntity
  8
0
100
AcDbLine
 62
7
  6
CONTINUOUS
 10
98.9647406373
 20
161.907114414
 11
98.9647406373
 21
161.6746700481
  0
LINE
  5
27A
100
AcDbEntity
  8
0
100
AcDbLine
 62
7
  6
CONTINUOUS
 10
100.6970206373
 20
181.0580058968
 11
100.6970206373
 21
181.830649282
  0
LINE
  5
27B
100
AcDbEntity
  8
0
100
AcDbLine
 62
7
  6
CONTINUOUS
 10
101.5047406373
 20
182.9102100299
 11
101.5047406373
 21
183.5521992309
  0
LINE
  5
27C
100
AcDbEntity
  8
0
100
AcDbLine
 62
7
  6
CONTINUOUS
 10
101.9492406373
 20
191.1453818506
 11
101.9492406373
 21
191.7873710517
  0
LINE
  5
27D
100
AcDbEntity
  8
0
100
AcDbLine
 62
7
  6
CONTINUOUS
 10
102.2009357709
 20
196.8313297534
 11
102.2009357709
 21
196.5724883941
  0
LINE
  5
27E
100
AcDbEntity
  8
0
100
AcDbLine
 62
7
  6
CONTINUOUS
 10
102.270408425
 20
194.9307664726
 11
102.270408425
 21
185.3549766994
  0
LINE
  5
27F
100
AcDbEntity
  8
0
100
AcDbLine
 62
7
  6
CONTINUOUS
 10
118.2433406373
 20
145.9112960784
 11
116.3637406373
 21
145.9112960784
  0
LINE
  5
280
100
AcDbEntity
  8
0
100
AcDbLine
 62
7
  6
CONTINUOUS
 10
247.5293406373
 20
145.9112960784
 11
249.4089406373
 21
145.9112960784
  0
LINE
  5
281
100
AcDbEntity
  8
0
100
AcDbLine
 62
7
  6
CONTINUOUS
 10
118.2433406373
 20
147.4658377247
 11
115.8049406373
 21
147.4658377247
  0
LINE
  5
282
100
AcDbEntity
  8
0
100
AcDbLine
 62
7
  6
CONTINUOUS
 10
124.7457406373
 20
148.9846960784
 11
127.3873406373
 21
148.9846960784
  0
LINE
  5
283
100
AcDbEntity
  8
0
100
AcDbLine
 62
7
  6
CONTINUOUS
 10
124.7457406373
 20
149.3148960784
 11
121.4437406373
 21
149.3148960784
  0
LINE
  5
284
100
AcDbEntity
  8
0
100
AcDbLine
 62
7
  6
CONTINUOUS
 10
241.0269406373
 20
149.3148960784
 11
244.3289406373
 21
149.3148960784
  0
LINE
  5
285
100
AcDbEntity
  8
0
100
AcDbLine
 62
7
  6
CONTINUOUS
 10
122.0787406373
 20
150.5838186816
 11
124.7457406373
 21
150.5838186816
  0
LINE
  5
286
100
AcDbEntity
  8
0
100
AcDbLine
 62
7
  6
CONTINUOUS
 10
115.2842406373
 20
151.0320679772
 11
111.8044406373
 21
151.0320679772
  0
LINE
  5
287
100
AcDbEntity
  8
0
100
AcDbLine
 62
7
  6
CONTINUOUS
 10
115.8049406373
 20
151.0447679772
 11
115.2842406373
 21
151.0447679772
  0
LINE
  5
288
100
AcDbEntity
  8
0
100
AcDbLine
 62
7
  6
CONTINUOUS
 10
115.8049406373
 20
151.6440098145
 11
118.2433406373
 21
151.6440098145
  0
LINE
  5
289
100
AcDbEntity
  8
0
100
AcDbLine
 62
7
  6
CONTINUOUS
 10
121.4437406373
 20
153.4958679772
 11
123.2090406373
 21
153.4958679772
  0
LINE
  5
28A
100
AcDbEntity
  8
0
100
AcDbLine
 62
7
  6
CONTINUOUS
 10
111.8044406373
 20
155.1308042536
 11
111.9314406373
 21
155.1308042536
  0
LINE
  5
28B
100
AcDbEntity
  8
0
100
AcDbLine
 62
7
  6
CONTINUOUS
 10
36.2013406373
 20
257.6330725406
 11
35.2395330263
 21
258.8589880305
  0
LINE
  5
28C
100
AcDbEntity
  8
0
100
AcDbLine
 62
7
  6
CONTINUOUS
 10
97.3972945414
 20
173.2866711097
 11
97.3769482431
 21
173.3175218724
  0
LINE
  5
28D
100
AcDbEntity
  8
0
100
AcDbLine
 62
7
  6
CONTINUOUS
 10
95.2077627083
 20
180.1166760085
 11
95.1938400599
 21
180.1411468241
  0
LINE
  5
28E
100
AcDbEntity
  8
0
100
AcDbLine
 62
7
  6
CONTINUOUS
 10
97.4407406373
 20
173.315191971
 11
97.4236688544
 21
173.3480086155
  0
LINE
  5
28F
100
AcDbEntity
  8
0
100
AcDbLine
 62
7
  6
CONTINUOUS
 10
102.7747406373
 20
183.6186119069
 11
102.7747406373
 21
184.2643992211
  0
LINE
  5
290
100
AcDbEntity
  8
0
100
AcDbLine
 62
7
  6
CONTINUOUS
 10
103.032408425
 20
195.1055699102
 11
103.032408425
 21
184.592971586
  0
LINE
  5
291
100
AcDbEntity
  8
0
100
AcDbLine
 62
7
  6
CONTINUOUS
 10
103.2827406373
 20
184.3270137864
 11
103.2827406373
 21
184.592971586
  0
LINE
  5
292
100
AcDbEntity
  8
0
100
AcDbLine
 62
7
  6
CONTINUOUS
 10
103.9177406373
 20
168.45940454
 11
103.9177406373
 21
168.2329507469
  0
LINE
  5
293
100
AcDbEntity
  8
0
100
AcDbLine
 62
7
  6
CONTINUOUS
 10
105.4088382041
 20
191.2962229621
 11
105.4088382041
 21
191.0373816028
  0
LINE
  5
294
100
AcDbEntity
  8
0
100
AcDbLine
 62
7
  6
CONTINUOUS
 10
108.6167406373
 20
168.2208798346
 11
108.6167406373
 21
167.4760622323
  0
LINE
  5
295
100
AcDbEntity
  8
0
100
AcDbLine
 62
7
  6
CONTINUOUS
 10
109.992008425
 20
176.5695953388
 11
109.992008425
 21
191.0028005541
  0
LINE
  5
296
100
AcDbEntity
  8
0
100
AcDbLine
 62
7
  6
CONTINUOUS
 10
111.8044406373
 20
168.1510991737
 11
111.8044406373
 21
164.1768050598
  0
LINE
  5
297
100
AcDbEntity
  8
0
100
AcDbLine
 62
7
  6
CONTINUOUS
 10
111.8044406373
 20
162.7756384973
 11
111.8044406373
 21
156.5319708162
  0
LINE
  5
298
100
AcDbEntity
  8
0
100
AcDbLine
 62
7
  6
CONTINUOUS
 10
111.8044406373
 20
155.1308042536
 11
111.8044406373
 21
151.0320713527
  0
LINE
  5
299
100
AcDbEntity
  8
0
100
AcDbLine
 62
7
  6
CONTINUOUS
 10
111.8246430705
 20
191.2962229621
 11
111.8246430705
 21
191.0373816028
  0
LINE
  5
29A
100
AcDbEntity
  8
0
100
AcDbLine
 62
7
  6
CONTINUOUS
 10
111.9314406373
 20
164.1768050598
 11
111.9314406373
 21
162.7756384973
  0
LINE
  5
29B
100
AcDbEntity
  8
0
100
AcDbLine
 62
7
  6
CONTINUOUS
 10
111.9314406373
 20
156.5319708162
 11
111.9314406373
 21
155.1308042536
  0
LINE
  5
29C
100
AcDbEntity
  8
0
100
AcDbLine
 62
7
  6
CONTINUOUS
 10
95.0904758035
 20
180.7033412778
 11
95.205377318
 21
180.9034303529
  0
LINE
  5
29D
100
AcDbEntity
  8
0
100
AcDbLine
 62
7
  6
CONTINUOUS
 10
111.9314406373
 20
156.5319708162
 11
111.8044406373
 21
156.5319708162
  0
LINE
  5
29E
100
AcDbEntity
  8
0
100
AcDbLine
 62
7
  6
CONTINUOUS
 10
127.3873406373
 20
157.9889960784
 11
129.4828406373
 21
157.9889960784
  0
LINE
  5
29F
100
AcDbEntity
  8
0
100
AcDbLine
 62
7
  6
CONTINUOUS
 10
121.4437406373
 20
158.0424679772
 11
123.2090406373
 21
158.0424679772
  0
LINE
  5
2A0
100
AcDbEntity
  8
0
100
AcDbLine
 62
7
  6
CONTINUOUS
 10
115.8049406373
 20
160.4935679772
 11
115.2842406373
 21
160.4935679772
  0
LINE
  5
2A1
100
AcDbEntity
  8
0
100
AcDbLine
 62
7
  6
CONTINUOUS
 10
115.2842406373
 20
160.5062679772
 11
111.8044406373
 21
160.5062679772
  0
LINE
  5
2A2
100
AcDbEntity
  8
0
100
AcDbLine
 62
7
  6
CONTINUOUS
 10
118.2433406373
 20
160.8093957606
 11
121.4437406373
 21
160.8093957606
  0
LINE
  5
2A3
100
AcDbEntity
  8
0
100
AcDbLine
 62
7
  6
CONTINUOUS
 10
244.3289406373
 20
160.8093957606
 11
247.5293406373
 21
160.8093957606
  0
LINE
  5
2A4
100
AcDbEntity
  8
0
100
AcDbLine
 62
7
  6
CONTINUOUS
 10
121.4437406373
 20
161.1407022208
 11
123.2090406373
 21
161.1407022208
  0
LINE
  5
2A5
100
AcDbEntity
  8
0
100
AcDbLine
 62
7
  6
CONTINUOUS
 10
98.9647406372
 20
161.6746700481
 11
111.8044406373
 21
161.6746700481
  0
LINE
  5
2A6
100
AcDbEntity
  8
0
100
AcDbLine
 62
7
  6
CONTINUOUS
 10
98.9647406373
 20
161.907114414
 11
111.8044406373
 21
161.907114414
  0
LINE
  5
2A7
100
AcDbEntity
  8
0
100
AcDbLine
 62
7
  6
CONTINUOUS
 10
127.3873406373
 20
162.5355960784
 11
129.4828406373
 21
162.5355960784
  0
LINE
  5
2A8
100
AcDbEntity
  8
0
100
AcDbLine
 62
7
  6
CONTINUOUS
 10
111.8044406373
 20
162.7756384973
 11
111.9314406373
 21
162.7756384973
  0
LINE
  5
2A9
100
AcDbEntity
  8
0
100
AcDbLine
 62
7
  6
CONTINUOUS
 10
111.9314406373
 20
164.1768050598
 11
111.8044406373
 21
164.1768050598
  0
LINE
  5
2AA
100
AcDbEntity
  8
0
100
AcDbLine
 62
7
  6
CONTINUOUS
 10
115.3436923963
 20
169.9785858089
 11
111.1674474908
 21
173.9029723292
  0
LINE
  5
2AB
100
AcDbEntity
  8
0
100
AcDbLine
 62
7
  6
CONTINUOUS
 10
112.8916566661
 20
175.5231989678
 11
117.0679015716
 21
171.5988124475
  0
LINE
  5
2AC
100
AcDbEntity
  8
0
100
AcDbLine
 62
7
  6
CONTINUOUS
 10
102.270408425
 20
185.354971586
 11
103.032408425
 21
184.592971586
  0
LINE
  5
2AD
100
AcDbEntity
  8
0
100
AcDbLine
 62
7
  6
CONTINUOUS
 10
112.430408425
 20
176.5695953388
 11
112.430408425
 21
192.0572705893
  0
LINE
  5
2AE
100
AcDbEntity
  8
0
100
AcDbLine
 62
7
  6
CONTINUOUS
 10
112.891656666
 20
182.205371586
 11
112.891656666
 21
175.523198968
  0
LINE
  5
2AF
100
AcDbEntity
  8
0
100
AcDbLine
 62
7
  6
CONTINUOUS
 10
113.827408425
 20
182.205371586
 11
113.827408425
 21
194.4543340361
  0
LINE
  5
2B0
100
AcDbEntity
  8
0
100
AcDbLine
 62
7
  6
CONTINUOUS
 10
114.208408425
 20
182.586375772
 11
114.208408425
 21
195.1184287022
  0
LINE
  5
2B1
100
AcDbEntity
  8
0
100
AcDbLine
 62
7
  6
CONTINUOUS
 10
115.0325455037
 20
196.8313297534
 11
115.0325455037
 21
196.5724883941
  0
LINE
  5
2B2
100
AcDbEntity
  8
0
100
AcDbLine
 62
7
  6
CONTINUOUS
 10
115.2842406373
 20
151.0320705928
 11
115.2842406373
 21
168.1510996051
  0
LINE
  5
2B3
100
AcDbEntity
  8
0
100
AcDbLine
 62
7
  6
CONTINUOUS
 10
115.2842406373
 20
191.1453818506
 11
115.2842406373
 21
191.7873710517
  0
LINE
  5
2B4
100
AcDbEntity
  8
0
100
AcDbLine
 62
7
  6
CONTINUOUS
 10
115.8049406373
 20
147.4658851021
 11
115.8049406373
 21
168.9321894381
  0
LINE
  5
2B5
100
AcDbEntity
  8
0
100
AcDbLine
 62
7
  6
CONTINUOUS
 10
116.3637406373
 20
145.9112626033
 11
116.3637406373
 21
141.2885295536
  0
LINE
  5
2B6
100
AcDbEntity
  8
0
100
AcDbLine
 62
7
  6
CONTINUOUS
 10
117.0679015716
 20
171.5988124476
 11
117.0679015716
 21
184.6297799083
  0
LINE
  5
2B7
100
AcDbEntity
  8
0
100
AcDbLine
 62
7
  6
CONTINUOUS
 10
118.0782406373
 20
126.8993930314
 11
118.0782406373
 21
122.9250989175
  0
LINE
  5
2B8
100
AcDbEntity
  8
0
100
AcDbLine
 62
7
  6
CONTINUOUS
 10
118.0782406373
 20
121.5239323549
 11
118.0782406373
 21
117.4251994539
  0
LINE
  5
2B9
100
AcDbEntity
  8
0
100
AcDbLine
 62
7
  6
CONTINUOUS
 10
118.2052406373
 20
122.9250989175
 11
118.2052406373
 21
121.5239323549
  0
LINE
  5
2BA
100
AcDbEntity
  8
0
100
AcDbLine
 62
7
  6
CONTINUOUS
 10
118.2433406373
 20
112.9358938185
 11
118.2433406373
 21
205.1315636779
  0
LINE
  5
2BB
100
AcDbEntity
  8
0
100
AcDbLine
 62
7
  6
CONTINUOUS
 10
121.4437406373
 20
112.9358751251
 11
121.4437406373
 21
192.1005962172
  0
LINE
  5
2BC
100
AcDbEntity
  8
0
100
AcDbLine
 62
7
  6
CONTINUOUS
 10
121.5580406373
 20
117.4251986941
 11
121.5580406373
 21
126.8993934628
  0
LINE
  5
2BD
100
AcDbEntity
  8
0
100
AcDbLine
 62
7
  6
CONTINUOUS
 10
121.5580406373
 20
158.0424679772
 11
121.5580406373
 21
161.1407022208
  0
LINE
  5
2BE
100
AcDbEntity
  8
0
100
AcDbLine
 62
7
  6
CONTINUOUS
 10
122.0787406373
 20
193.5362960784
 11
122.0787406373
 21
165.6873022208
  0
LINE
  5
2BF
100
AcDbEntity
  8
0
100
AcDbLine
 62
7
  6
CONTINUOUS
 10
122.0787406373
 20
161.1407022208
 11
122.0787406373
 21
158.0424679772
  0
LINE
  5
2C0
100
AcDbEntity
  8
0
100
AcDbLine
 62
7
  6
CONTINUOUS
 10
122.0787406373
 20
153.4958679772
 11
122.0787406373
 21
149.3148960784
  0
LINE
  5
2C1
100
AcDbEntity
  8
0
100
AcDbLine
 62
7
  6
CONTINUOUS
 10
122.0787406373
 20
137.8848960784
 11
122.0787406373
 21
114.2882960784
  0
LINE
  5
2C2
100
AcDbEntity
  8
0
100
AcDbLine
 62
7
  6
CONTINUOUS
 10
102.270408425
 20
194.930771586
 11
102.8193003161
 21
195.4796634771
  0
LINE
  5
2C3
100
AcDbEntity
  8
0
100
AcDbLine
 62
7
  6
CONTINUOUS
 10
121.4437406373
 20
165.6873022208
 11
123.2090406373
 21
165.6873022208
  0
LINE
  5
2C4
100
AcDbEntity
  8
0
100
AcDbLine
 62
7
  6
CONTINUOUS
 10
115.8049406373
 20
168.1384022208
 11
115.2842406373
 21
168.1384022208
  0
LINE
  5
2C5
100
AcDbEntity
  8
0
100
AcDbLine
 62
7
  6
CONTINUOUS
 10
115.2842406373
 20
168.1511022208
 11
111.8044406373
 21
168.1511022208
  0
LINE
  5
2C6
100
AcDbEntity
  8
0
100
AcDbLine
 62
7
  6
CONTINUOUS
 10
103.9177406373
 20
168.2329507469
 11
97.4407406373
 21
168.2329507469
  0
LINE
  5
2C7
100
AcDbEntity
  8
0
100
AcDbLine
 62
7
  6
CONTINUOUS
 10
117.0679015716
 20
184.6297799083
 11
114.208408425
 21
187.3168245173
  0
LINE
  5
2C8
100
AcDbEntity
  8
0
100
AcDbLine
 62
7
  6
CONTINUOUS
 10
36.2013406373
 20
284.884380897
 11
35.2395330263
 21
286.1102963869
  0
LINE
  5
2C9
100
AcDbEntity
  8
0
100
AcDbLine
 62
7
  6
CONTINUOUS
 10
123.2090406373
 20
153.495871115
 11
123.2090406373
 21
158.0424648393
  0
LINE
  5
2CA
100
AcDbEntity
  8
0
100
AcDbLine
 62
7
  6
CONTINUOUS
 10
123.2090406373
 20
161.1407053586
 11
123.2090406373
 21
165.687299083
  0
LINE
  5
2CB
100
AcDbEntity
  8
0
100
AcDbLine
 62
7
  6
CONTINUOUS
 10
124.7457406373
 20
203.0358960784
 11
124.7457406373
 21
99.0482960784
  0
LINE
  5
2CC
100
AcDbEntity
  8
0
100
AcDbLine
 62
7
  6
CONTINUOUS
 10
126.2443406373
 20
212.6500443368
 11
126.2443406373
 21
203.0358960784
  0
LINE
  5
2CD
100
AcDbEntity
  8
0
100
AcDbLine
 62
7
  6
CONTINUOUS
 10
127.3873406373
 20
99.0482960784
 11
127.3873406373
 21
203.0358960784
  0
LINE
  5
2CE
100
AcDbEntity
  8
0
100
AcDbLine
 62
7
  6
CONTINUOUS
 10
129.4828406373
 20
119.8889992163
 11
129.4828406373
 21
124.4355929406
  0
LINE
  5
2CF
100
AcDbEntity
  8
0
100
AcDbLine
 62
7
  6
CONTINUOUS
 10
129.4828406373
 20
157.9889992163
 11
129.4828406373
 21
162.5355929406
  0
LINE
  5
2D0
100
AcDbEntity
  8
0
100
AcDbLine
 62
7
  6
CONTINUOUS
 10
114.208408425
 20
182.586371586
 11
113.827408425
 21
182.205371586
  0
LINE
  5
2D1
100
AcDbEntity
  8
0
100
AcDbLine
 62
7
  6
CONTINUOUS
 10
110.006307142
 20
176.603808832
 11
109.9901457066
 21
176.6006205899
  0
LINE
  5
2D2
100
AcDbEntity
  8
0
100
AcDbLine
 62
7
  6
CONTINUOUS
 10
109.992008425
 20
176.6753047148
 11
109.9758874853
 21
176.67278623
  0
LINE
  5
2D3
100
AcDbEntity
  8
0
100
AcDbLine
 62
7
  6
CONTINUOUS
 10
112.430408425
 20
178.106688683
 11
109.992008425
 21
178.106688683
  0
LINE
  5
2D4
100
AcDbEntity
  8
0
100
AcDbLine
 62
7
  6
CONTINUOUS
 10
113.827408425
 20
182.205371586
 11
112.430408425
 21
182.205371586
  0
LINE
  5
2D5
100
AcDbEntity
  8
0
100
AcDbLine
 62
7
  6
CONTINUOUS
 10
241.0269406373
 20
182.7158960784
 11
238.3853406373
 21
182.7158960784
  0
LINE
  5
2D6
100
AcDbEntity
  8
0
100
AcDbLine
 62
7
  6
CONTINUOUS
 10
109.992008425
 20
182.9621425552
 11
112.430408425
 21
182.9621425552
  0
LINE
  5
2D7
100
AcDbEntity
  8
0
100
AcDbLine
 62
7
  6
CONTINUOUS
 10
109.992008425
 20
184.592971586
 11
103.032408425
 21
184.592971586
  0
LINE
  5
2D8
100
AcDbEntity
  8
0
100
AcDbLine
 62
7
  6
CONTINUOUS
 10
35.1853406373
 20
185.0272960784
 11
32.5183406373
 21
185.0272960784
  0
LINE
  5
2D9
100
AcDbEntity
  8
0
100
AcDbLine
 62
7
  6
CONTINUOUS
 10
124.7457406373
 20
185.1807734753
 11
122.0787406373
 21
185.1807734753
  0
LINE
  5
2DA
100
AcDbEntity
  8
0
100
AcDbLine
 62
7
  6
CONTINUOUS
 10
134.2707406373
 20
92.4442960784
 11
134.2707406373
 21
95.0858960784
  0
LINE
  5
2DB
100
AcDbEntity
  8
0
100
AcDbLine
 62
7
  6
CONTINUOUS
 10
140.6207406373
 20
95.0858960784
 11
140.6207406373
 21
92.4442960784
  0
LINE
  5
2DC
100
AcDbEntity
  8
0
100
AcDbLine
 62
7
  6
CONTINUOUS
 10
160.9902501267
 20
209.4324699124
 11
161.2818549022
 21
209.6732507949
  0
LINE
  5
2DD
100
AcDbEntity
  8
0
100
AcDbLine
 62
7
  6
CONTINUOUS
 10
160.5491168575
 20
209.6921140883
 11
160.5507138422
 21
209.692963787
  0
LINE
  5
2DE
100
AcDbEntity
  8
0
100
AcDbLine
 62
7
  6
CONTINUOUS
 10
156.3265785809
 20
208.7717704468
 11
156.8607347472
 21
208.9942138725
  0
LINE
  5
2DF
100
AcDbEntity
  8
0
100
AcDbLine
 62
7
  6
CONTINUOUS
 10
160.5582661402
 20
209.6895239733
 11
160.5601406349
 21
209.6902991162
  0
LINE
  5
2E0
100
AcDbEntity
  8
0
100
AcDbLine
 62
7
  6
CONTINUOUS
 10
160.0103014903
 20
209.0223816178
 11
160.5491168575
 21
209.206667327
  0
LINE
  5
2E1
100
AcDbEntity
  8
0
100
AcDbLine
 62
7
  6
CONTINUOUS
 10
122.0787406373
 20
187.1862960784
 11
124.7457406373
 21
187.1862960784
  0
LINE
  5
2E2
100
AcDbEntity
  8
0
100
AcDbLine
 62
7
  6
CONTINUOUS
 10
32.5183406373
 20
187.6293089494
 11
35.1853406373
 21
187.6293089494
  0
LINE
  5
2E3
100
AcDbEntity
  8
0
100
AcDbLine
 62
7
  6
CONTINUOUS
 10
238.3853406373
 20
189.0658960784
 11
241.0269406373
 21
189.0658960784
  0
LINE
  5
2E4
100
AcDbEntity
  8
0
100
AcDbLine
 62
7
  6
CONTINUOUS
 10
122.0787406373
 20
189.1918186816
 11
124.7457406373
 21
189.1918186816
  0
LINE
  5
2E5
100
AcDbEntity
  8
0
100
AcDbLine
 62
7
  6
CONTINUOUS
 10
124.7457406373
 20
191.5307734753
 11
122.0787406373
 21
191.5307734753
  0
LINE
  5
2E6
100
AcDbEntity
  8
0
100
AcDbLine
 62
7
  6
CONTINUOUS
 10
36.7093406373
 20
192.3932960784
 11
50.8063406373
 21
192.3932960784
  0
LINE
  5
2E7
100
AcDbEntity
  8
0
100
AcDbLine
 62
7
  6
CONTINUOUS
 10
98.9647406373
 20
193.4477458438
 11
102.227880951
 21
193.4477458438
  0
LINE
  5
2E8
100
AcDbEntity
  8
0
100
AcDbLine
 62
7
  6
CONTINUOUS
 10
118.2433406373
 20
193.5362960784
 11
114.9795003103
 21
193.5362960784
  0
LINE
  5
2E9
100
AcDbEntity
  8
0
100
AcDbLine
 62
7
  6
CONTINUOUS
 10
122.0787406373
 20
193.5362960784
 11
124.7457406373
 21
193.5362960784
  0
LINE
  5
2EA
100
AcDbEntity
  8
0
100
AcDbLine
 62
7
  6
CONTINUOUS
 10
48.3552406373
 20
194.6792960784
 11
49.4220406373
 21
194.6792960784
  0
LINE
  5
2EB
100
AcDbEntity
  8
0
100
AcDbLine
 62
7
  6
CONTINUOUS
 10
51.1873406373
 20
194.6792960784
 11
52.2541406373
 21
194.6792960784
  0
LINE
  5
2EC
100
AcDbEntity
  8
0
100
AcDbLine
 62
7
  6
CONTINUOUS
 10
121.9870633881
 20
193.5557904206
 11
122.0787406373
 21
193.5362960784
  0
LINE
  5
2ED
100
AcDbEntity
  8
0
100
AcDbLine
 62
7
  6
CONTINUOUS
 10
157.8673406373
 20
208.7187896782
 11
158.1119465274
 21
208.9942138725
  0
LINE
  5
2EE
100
AcDbEntity
  8
0
100
AcDbLine
 62
7
  6
CONTINUOUS
 10
210.8103014903
 20
209.0223816178
 11
211.3491168575
 21
209.206667327
  0
LINE
  5
2EF
100
AcDbEntity
  8
0
100
AcDbLine
 62
7
  6
CONTINUOUS
 10
205.7623797843
 20
209.0223816178
 11
206.4225823771
 21
209.1429683841
  0
LINE
  5
2F0
100
AcDbEntity
  8
0
100
AcDbLine
 62
7
  6
CONTINUOUS
 10
209.4461026937
 20
208.7717704468
 11
210.1500988975
 21
208.8715051539
  0
LINE
  5
2F1
100
AcDbEntity
  8
0
100
AcDbLine
 62
7
  6
CONTINUOUS
 10
212.0818549022
 20
209.9235101884
 11
212.2367603065
 21
209.939603105
  0
LINE
  5
2F2
100
AcDbEntity
  8
0
100
AcDbLine
 62
7
  6
CONTINUOUS
 10
239.5283406373
 20
196.6116846126
 11
127.3873406373
 21
196.6116846126
  0
LINE
  5
2F3
100
AcDbEntity
  8
0
100
AcDbLine
 62
7
  6
CONTINUOUS
 10
127.3873406373
 20
197.1865098037
 11
124.7457406373
 21
197.1865098037
  0
LINE
  5
2F4
100
AcDbEntity
  8
0
100
AcDbLine
 62
7
  6
CONTINUOUS
 10
53.8797406373
 20
198.7432960784
 11
52.3557406373
 21
198.7432960784
  0
LINE
  5
2F5
100
AcDbEntity
  8
0
100
AcDbLine
 62
7
  6
CONTINUOUS
 10
45.4723406373
 20
198.7432960784
 11
48.3552406373
 21
198.7432960784
  0
LINE
  5
2F6
100
AcDbEntity
  8
0
100
AcDbLine
 62
7
  6
CONTINUOUS
 10
49.5617406373
 20
198.7432960784
 11
51.1873406373
 21
198.7432960784
  0
LINE
  5
2F7
100
AcDbEntity
  8
0
100
AcDbLine
 62
7
  6
CONTINUOUS
 10
239.5283406373
 20
199.6190768761
 11
127.3873406373
 21
199.6190768761
  0
LINE
  5
2F8
100
AcDbEntity
  8
0
100
AcDbLine
 62
7
  6
CONTINUOUS
 10
52.3557406373
 20
200.0640960784
 11
52.2541406373
 21
200.0640960784
  0
LINE
  5
2F9
100
AcDbEntity
  8
0
100
AcDbLine
 62
7
  6
CONTINUOUS
 10
49.4220406373
 20
200.0640960784
 11
49.5617406373
 21
200.0640960784
  0
LINE
  5
2FA
100
AcDbEntity
  8
0
100
AcDbLine
 62
7
  6
CONTINUOUS
 10
124.7457406373
 20
203.0358960784
 11
127.3873406373
 21
203.0358960784
  0
LINE
  5
2FB
100
AcDbEntity
  8
0
100
AcDbLine
 62
7
  6
CONTINUOUS
 10
173.3613406373
 20
203.9627326964
 11
192.4113406373
 21
203.9627326964
  0
LINE
  5
2FC
100
AcDbEntity
  8
0
100
AcDbLine
 62
7
  6
CONTINUOUS
 10
170.1863406373
 20
205.251216039
 11
195.5863406373
 21
205.251216039
  0
LINE
  5
2FD
100
AcDbEntity
  8
0
100
AcDbLine
 62
7
  6
CONTINUOUS
 10
153.4985406373
 20
211.4781361411
 11
153.4985406373
 21
210.5592107273
  0
LINE
  5
2FE
100
AcDbEntity
  8
0
100
AcDbLine
 62
7
  6
CONTINUOUS
 10
153.5359209681
 20
209.939603105
 11
153.5359209681
 21
210.3800380803
  0
LINE
  5
2FF
100
AcDbEntity
  8
0
100
AcDbLine
 62
7
  6
CONTINUOUS
 10
153.6908263724
 20
209.6732507949
 11
153.6908263724
 21
210.1625487425
  0
LINE
  5
300
100
AcDbEntity
  8
0
100
AcDbLine
 62
7
  6
CONTINUOUS
 10
153.9824311479
 20
209.4324699124
 11
153.9824311479
 21
209.92176786
  0
LINE
  5
301
100
AcDbEntity
  8
0
100
AcDbLine
 62
7
  6
CONTINUOUS
 10
154.4235644171
 20
209.206667327
 11
154.4235644171
 21
209.6918474561
  0
LINE
  5
302
100
AcDbEntity
  8
0
100
AcDbLine
 62
7
  6
CONTINUOUS
 10
154.9623797843
 20
209.0223816178
 11
154.9623797843
 21
209.5116795655
  0
LINE
  5
303
100
AcDbEntity
  8
0
100
AcDbLine
 62
7
  6
CONTINUOUS
 10
155.0225406373
 20
209.0333700671
 11
155.0225406373
 21
208.4975093727
  0
LINE
  5
304
100
AcDbEntity
  8
0
100
AcDbLine
 62
7
  6
CONTINUOUS
 10
155.4035406373
 20
209.1029601573
 11
155.4035406373
 21
208.1099457042
  0
LINE
  5
305
100
AcDbEntity
  8
0
100
AcDbLine
 62
7
  6
CONTINUOUS
 10
155.6225823771
 20
208.8715051539
 11
155.6225823771
 21
209.3608031015
  0
LINE
  5
306
100
AcDbEntity
  8
0
100
AcDbLine
 62
7
  6
CONTINUOUS
 10
156.3265785809
 20
208.7717704468
 11
156.3265785809
 21
209.2560448358
  0
LINE
  5
307
100
AcDbEntity
  8
0
100
AcDbLine
 62
7
  6
CONTINUOUS
 10
156.8576906373
 20
213.6891812716
 11
156.8576906373
 21
210.1432375994
  0
LINE
  5
308
100
AcDbEntity
  8
0
100
AcDbLine
 62
7
  6
CONTINUOUS
 10
156.8607347472
 20
209.2261615703
 11
156.8607347472
 21
208.9942138725
  0
LINE
  5
309
100
AcDbEntity
  8
0
100
AcDbLine
 62
7
  6
CONTINUOUS
 10
157.1053406373
 20
208.7187896782
 11
157.1053406373
 21
209.2080876258
  0
LINE
  5
30A
100
AcDbEntity
  8
0
100
AcDbLine
 62
7
  6
CONTINUOUS
 10
157.8673406373
 20
208.7187896782
 11
157.8673406373
 21
209.2080876258
  0
LINE
  5
30B
100
AcDbEntity
  8
0
100
AcDbLine
 62
7
  6
CONTINUOUS
 10
158.1119465274
 20
209.2260846842
 11
158.1119465274
 21
208.9942138725
  0
LINE
  5
30C
100
AcDbEntity
  8
0
100
AcDbLine
 62
7
  6
CONTINUOUS
 10
158.1149906373
 20
210.1432375994
 11
158.1149906373
 21
213.6891878506
  0
LINE
  5
30D
100
AcDbEntity
  8
0
100
AcDbLine
 62
7
  6
CONTINUOUS
 10
158.6461026937
 20
208.7717704468
 11
158.6461026937
 21
209.2561815347
  0
LINE
  5
30E
100
AcDbEntity
  8
0
100
AcDbLine
 62
7
  6
CONTINUOUS
 10
159.3500988975
 20
208.8715051539
 11
159.3500988975
 21
209.3608031015
  0
LINE
  5
30F
100
AcDbEntity
  8
0
100
AcDbLine
 62
7
  6
CONTINUOUS
 10
159.5691406373
 20
209.1029601573
 11
159.5691406373
 21
208.110734171
  0
LINE
  5
310
100
AcDbEntity
  8
0
100
AcDbLine
 62
7
  6
CONTINUOUS
 10
159.9501406373
 20
208.4975093727
 11
159.9501406373
 21
209.0333700671
  0
LINE
  5
311
100
AcDbEntity
  8
0
100
AcDbLine
 62
7
  6
CONTINUOUS
 10
160.0103014903
 20
209.0223816178
 11
160.0103014903
 21
209.5116795655
  0
LINE
  5
312
100
AcDbEntity
  8
0
100
AcDbLine
 62
7
  6
CONTINUOUS
 10
160.5491168575
 20
209.206667327
 11
160.5491168575
 21
209.6921140883
  0
LINE
  5
313
100
AcDbEntity
  8
0
100
AcDbLine
 62
7
  6
CONTINUOUS
 10
160.9902501267
 20
209.4324699124
 11
160.9902501267
 21
209.92176786
  0
LINE
  5
314
100
AcDbEntity
  8
0
100
AcDbLine
 62
7
  6
CONTINUOUS
 10
161.2818549022
 20
209.6732507949
 11
161.2818549022
 21
210.1625487425
  0
LINE
  5
315
100
AcDbEntity
  8
0
100
AcDbLine
 62
7
  6
CONTINUOUS
 10
161.4367603065
 20
209.939603105
 11
161.4367603065
 21
210.3809116369
  0
LINE
  5
316
100
AcDbEntity
  8
0
100
AcDbLine
 62
7
  6
CONTINUOUS
 10
161.4741406373
 20
211.4781361411
 11
161.4741406373
 21
210.5592107273
  0
LINE
  5
317
100
AcDbEntity
  8
0
100
AcDbLine
 62
7
  6
CONTINUOUS
 10
211.3491168575
 20
209.6921140883
 11
211.3507138422
 21
209.692963787
  0
LINE
  5
318
100
AcDbEntity
  8
0
100
AcDbLine
 62
7
  6
CONTINUOUS
 10
207.1265785809
 20
208.7717704468
 11
207.6607347472
 21
208.9942138725
  0
LINE
  5
319
100
AcDbEntity
  8
0
100
AcDbLine
 62
7
  6
CONTINUOUS
 10
211.3582661402
 20
209.6895239733
 11
211.3601406349
 21
209.6902991162
  0
LINE
  5
31A
100
AcDbEntity
  8
0
100
AcDbLine
 62
7
  6
CONTINUOUS
 10
154.9623797843
 20
209.0223816178
 11
155.6225823771
 21
209.1429683841
  0
LINE
  5
31B
100
AcDbEntity
  8
0
100
AcDbLine
 62
7
  6
CONTINUOUS
 10
158.6461026937
 20
208.7717704468
 11
159.3500988975
 21
208.8715051539
  0
LINE
  5
31C
100
AcDbEntity
  8
0
100
AcDbLine
 62
7
  6
CONTINUOUS
 10
161.2818549022
 20
209.9235101884
 11
161.4367603065
 21
209.939603105
  0
LINE
  5
31D
100
AcDbEntity
  8
0
100
AcDbLine
 62
7
  6
CONTINUOUS
 10
204.7824311479
 20
209.4324699124
 11
205.2235644171
 21
209.4472736699
  0
LINE
  5
31E
100
AcDbEntity
  8
0
100
AcDbLine
 62
7
  6
CONTINUOUS
 10
153.9824311479
 20
209.4324699124
 11
154.4235644171
 21
209.4472736699
  0
LINE
  5
31F
100
AcDbEntity
  8
0
100
AcDbLine
 62
7
  6
CONTINUOUS
 10
157.1053406373
 20
208.7187896782
 11
157.8673406373
 21
208.7187896782
  0
LINE
  5
320
100
AcDbEntity
  8
0
100
AcDbLine
 62
7
  6
CONTINUOUS
 10
207.9053406373
 20
208.7187896782
 11
208.6673406373
 21
208.7187896782
  0
LINE
  5
321
100
AcDbEntity
  8
0
100
AcDbLine
 62
7
  6
CONTINUOUS
 10
195.5863406373
 20
208.8738249931
 11
170.1863406373
 21
208.8738249931
  0
LINE
  5
322
100
AcDbEntity
  8
0
100
AcDbLine
 62
7
  6
CONTINUOUS
 10
195.5863406373
 20
208.9373950015
 11
170.1863406373
 21
208.9373950015
  0
LINE
  5
323
100
AcDbEntity
  8
0
100
AcDbLine
 62
7
  6
CONTINUOUS
 10
52.3557406373
 20
210.1224960784
 11
52.2541406373
 21
210.1224960784
  0
LINE
  5
324
100
AcDbEntity
  8
0
100
AcDbLine
 62
7
  6
CONTINUOUS
 10
49.4220406373
 20
210.1224960784
 11
49.5617406373
 21
210.1224960784
  0
LINE
  5
325
100
AcDbEntity
  8
0
100
AcDbLine
 62
7
  6
CONTINUOUS
 10
53.8797406373
 20
211.4432960784
 11
52.3557406373
 21
211.4432960784
  0
LINE
  5
326
100
AcDbEntity
  8
0
100
AcDbLine
 62
7
  6
CONTINUOUS
 10
48.1393406373
 20
211.4432960784
 11
48.3552406373
 21
211.4432960784
  0
LINE
  5
327
100
AcDbEntity
  8
0
100
AcDbLine
 62
7
  6
CONTINUOUS
 10
49.5617406373
 20
211.4432960784
 11
51.1873406373
 21
211.4432960784
  0
LINE
  5
328
100
AcDbEntity
  8
0
100
AcDbLine
 62
7
  6
CONTINUOUS
 10
126.2443406373
 20
212.6500443368
 11
153.9817213247
 21
212.6500443368
  0
LINE
  5
329
100
AcDbEntity
  8
0
100
AcDbLine
 62
7
  6
CONTINUOUS
 10
160.985622812
 20
212.6500443368
 11
167.0113406373
 21
212.6500443368
  0
LINE
  5
32A
100
AcDbEntity
  8
0
100
AcDbLine
 62
7
  6
CONTINUOUS
 10
198.7613406373
 20
212.6500443368
 11
204.7817213247
 21
212.6500443368
  0
LINE
  5
32B
100
AcDbEntity
  8
0
100
AcDbLine
 62
7
  6
CONTINUOUS
 10
211.785622812
 20
212.6500443368
 11
239.5283406373
 21
212.6500443368
  0
LINE
  5
32C
100
AcDbEntity
  8
0
100
AcDbLine
 62
7
  6
CONTINUOUS
 10
48.1393406373
 20
212.9926204789
 11
48.3552406373
 21
212.9926204789
  0
LINE
  5
32D
100
AcDbEntity
  8
0
100
AcDbLine
 62
7
  6
CONTINUOUS
 10
49.4220406373
 20
212.9926204789
 11
50.8063406373
 21
212.9926204789
  0
LINE
  5
32E
100
AcDbEntity
  8
0
100
AcDbLine
 62
7
  6
CONTINUOUS
 10
160.5491168575
 20
209.4472736699
 11
160.9902501267
 21
209.4324699124
  0
LINE
  5
32F
100
AcDbEntity
  8
0
100
AcDbLine
 62
7
  6
CONTINUOUS
 10
211.3491168575
 20
209.4472736699
 11
211.7902501267
 21
209.4324699124
  0
LINE
  5
330
100
AcDbEntity
  8
0
100
AcDbLine
 62
7
  6
CONTINUOUS
 10
153.5359209681
 20
209.939603105
 11
153.6908263724
 21
209.9235101884
  0
LINE
  5
331
100
AcDbEntity
  8
0
100
AcDbLine
 62
7
  6
CONTINUOUS
 10
155.6225823771
 20
208.8715051539
 11
156.3265785809
 21
208.7717704468
  0
LINE
  5
332
100
AcDbEntity
  8
0
100
AcDbLine
 62
7
  6
CONTINUOUS
 10
159.3500988975
 20
209.1429683841
 11
160.0103014903
 21
209.0223816178
  0
LINE
  5
333
100
AcDbEntity
  8
0
100
AcDbLine
 62
7
  6
CONTINUOUS
 10
154.4235644171
 20
209.206667327
 11
154.9623797843
 21
209.0223816178
  0
LINE
  5
334
100
AcDbEntity
  8
0
100
AcDbLine
 62
7
  6
CONTINUOUS
 10
154.4127906331
 20
209.690195669
 11
154.4147991905
 21
209.6893653
  0
LINE
  5
335
100
AcDbEntity
  8
0
100
AcDbLine
 62
7
  6
CONTINUOUS
 10
158.1119465274
 20
208.9942138725
 11
158.6461026937
 21
208.7717704468
  0
LINE
  5
336
100
AcDbEntity
  8
0
100
AcDbLine
 62
7
  6
CONTINUOUS
 10
154.4218551977
 20
209.6927584644
 11
154.4235644171
 21
209.6918474561
  0
LINE
  5
337
100
AcDbEntity
  8
0
100
AcDbLine
 62
7
  6
CONTINUOUS
 10
153.6908263724
 20
209.6732507949
 11
153.9824311479
 21
209.4324699124
  0
LINE
  5
338
100
AcDbEntity
  8
0
100
AcDbLine
 62
7
  6
CONTINUOUS
 10
170.1863406373
 20
211.5641303818
 11
170.1863406373
 21
205.0486466514
  0
LINE
  5
339
100
AcDbEntity
  8
0
100
AcDbLine
 62
7
  6
CONTINUOUS
 10
48.3552406373
 20
215.5072960784
 11
49.4220406373
 21
215.5072960784
  0
LINE
  5
33A
100
AcDbEntity
  8
0
100
AcDbLine
 62
7
  6
CONTINUOUS
 10
51.1873406373
 20
215.5072960784
 11
52.2541406373
 21
215.5072960784
  0
LINE
  5
33B
100
AcDbEntity
  8
0
100
AcDbLine
 62
7
  6
CONTINUOUS
 10
36.7093406373
 20
217.7932960784
 11
45.4723406373
 21
217.7932960784
  0
LINE
  5
33C
100
AcDbEntity
  8
0
100
AcDbLine
 62
7
  6
CONTINUOUS
 10
36.2013406373
 20
219.5591799036
 11
37.7253406373
 21
219.5591799036
  0
LINE
  5
33D
100
AcDbEntity
  8
0
100
AcDbLine
 62
7
  6
CONTINUOUS
 10
36.2013406373
 20
220.9433970464
 11
37.7253406373
 21
220.9433970464
  0
LINE
  5
33E
100
AcDbEntity
  8
0
100
AcDbLine
 62
7
  6
CONTINUOUS
 10
37.7253406373
 20
220.9682960784
 11
45.4723406373
 21
220.9682960784
  0
LINE
  5
33F
100
AcDbEntity
  8
0
100
AcDbLine
 62
7
  6
CONTINUOUS
 10
50.8063406373
 20
220.9682960784
 11
64.1413406373
 21
220.9682960784
  0
LINE
  5
340
100
AcDbEntity
  8
0
100
AcDbLine
 62
7
  6
CONTINUOUS
 10
38.2587406373
 20
221.1961289325
 11
37.7253406373
 21
221.1961289325
  0
LINE
  5
341
100
AcDbEntity
  8
0
100
AcDbLine
 62
7
  6
CONTINUOUS
 10
39.3636406373
 20
221.2823823579
 11
38.2587406373
 21
221.2823823579
  0
LINE
  5
342
100
AcDbEntity
  8
0
100
AcDbLine
 62
7
  6
CONTINUOUS
 10
38.2587406373
 20
221.4097486229
 11
37.7253406373
 21
221.4097486229
  0
LINE
  5
343
100
AcDbEntity
  8
0
100
AcDbLine
 62
7
  6
CONTINUOUS
 10
38.2587406373
 20
221.7013533983
 11
37.7253406373
 21
221.7013533983
  0
LINE
  5
344
100
AcDbEntity
  8
0
100
AcDbLine
 62
7
  6
CONTINUOUS
 10
38.2587406373
 20
222.309690808
 11
37.7253406373
 21
222.309690808
  0
LINE
  5
345
100
AcDbEntity
  8
0
100
AcDbLine
 62
7
  6
CONTINUOUS
 10
38.2587406373
 20
222.8485061753
 11
37.7253406373
 21
222.8485061753
  0
LINE
  5
346
100
AcDbEntity
  8
0
100
AcDbLine
 62
7
  6
CONTINUOUS
 10
32.5183406373
 20
223.5048823579
 11
31.9087406373
 21
223.5048823579
  0
LINE
  5
347
100
AcDbEntity
  8
0
100
AcDbLine
 62
7
  6
CONTINUOUS
 10
41.3309007396
 20
223.6352960784
 11
45.4723406373
 21
223.6352960784
  0
LINE
  5
348
100
AcDbEntity
  8
0
100
AcDbLine
 62
7
  6
CONTINUOUS
 10
50.8063406373
 20
223.6352960784
 11
64.1413406373
 21
223.6352960784
  0
LINE
  5
349
100
AcDbEntity
  8
0
100
AcDbLine
 62
7
  6
CONTINUOUS
 10
204.3359209681
 20
209.939603105
 11
204.4908263724
 21
209.9235101884
  0
LINE
  5
34A
100
AcDbEntity
  8
0
100
AcDbLine
 62
7
  6
CONTINUOUS
 10
206.4225823771
 20
208.8715051539
 11
207.1265785809
 21
208.7717704468
  0
LINE
  5
34B
100
AcDbEntity
  8
0
100
AcDbLine
 62
7
  6
CONTINUOUS
 10
210.1500988975
 20
209.1429683841
 11
210.8103014903
 21
209.0223816178
  0
LINE
  5
34C
100
AcDbEntity
  8
0
100
AcDbLine
 62
7
  6
CONTINUOUS
 10
156.8607347472
 20
208.9942138725
 11
157.1053406373
 21
208.7187896782
  0
LINE
  5
34D
100
AcDbEntity
  8
0
100
AcDbLine
 62
7
  6
CONTINUOUS
 10
211.7902501267
 20
209.4324699124
 11
212.0818549022
 21
209.6732507949
  0
LINE
  5
34E
100
AcDbEntity
  8
0
100
AcDbLine
 62
7
  6
CONTINUOUS
 10
32.5183406373
 20
228.3308823579
 11
31.9087406373
 21
228.3308823579
  0
LINE
  5
34F
100
AcDbEntity
  8
0
100
AcDbLine
 62
7
  6
CONTINUOUS
 10
33.5944976451
 20
230.5971915539
 11
32.5183406373
 21
230.5971915539
  0
LINE
  5
350
100
AcDbEntity
  8
0
100
AcDbLine
 62
7
  6
CONTINUOUS
 10
50.8063406373
 20
230.899771678
 11
48.1393406373
 21
230.899771678
  0
LINE
  5
351
100
AcDbEntity
  8
0
100
AcDbLine
 62
7
  6
CONTINUOUS
 10
32.5183406373
 20
234.3451786829
 11
35.1853406373
 21
234.3451786829
  0
LINE
  5
352
100
AcDbEntity
  8
0
100
AcDbLine
 62
7
  6
CONTINUOUS
 10
205.2235644171
 20
209.206667327
 11
205.7623797843
 21
209.0223816178
  0
LINE
  5
353
100
AcDbEntity
  8
0
100
AcDbLine
 62
7
  6
CONTINUOUS
 10
205.2127906331
 20
209.690195669
 11
205.2147991905
 21
209.6893653
  0
LINE
  5
354
100
AcDbEntity
  8
0
100
AcDbLine
 62
7
  6
CONTINUOUS
 10
208.9119465274
 20
208.9942138725
 11
209.4461026937
 21
208.7717704468
  0
LINE
  5
355
100
AcDbEntity
  8
0
100
AcDbLine
 62
7
  6
CONTINUOUS
 10
208.6673406373
 20
208.7187896782
 11
208.9119465274
 21
208.9942138725
  0
LINE
  5
356
100
AcDbEntity
  8
0
100
AcDbLine
 62
7
  6
CONTINUOUS
 10
48.1393406373
 20
238.7990960784
 11
50.8063406373
 21
238.7990960784
  0
LINE
  5
357
100
AcDbEntity
  8
0
100
AcDbLine
 62
7
  6
CONTINUOUS
 10
43.4403406373
 20
242.3931960784
 11
36.7093406373
 21
242.3931960784
  0
LINE
  5
358
100
AcDbEntity
  8
0
100
AcDbLine
 62
7
  6
CONTINUOUS
 10
39.2493406373
 20
244.6094416728
 11
38.4873406373
 21
244.6094416728
  0
LINE
  5
359
100
AcDbEntity
  8
0
100
AcDbLine
 62
7
  6
CONTINUOUS
 10
205.2218551977
 20
209.6927584644
 11
205.2235644171
 21
209.6918474561
  0
LINE
  5
35A
100
AcDbEntity
  8
0
100
AcDbLine
 62
7
  6
CONTINUOUS
 10
195.5863406373
 20
205.0486466514
 11
195.5863406373
 21
211.5641303818
  0
LINE
  5
35B
100
AcDbEntity
  8
0
100
AcDbLine
 62
7
  6
CONTINUOUS
 10
39.2493406373
 20
245.2741083171
 11
38.4873406373
 21
245.2741083171
  0
LINE
  5
35C
100
AcDbEntity
  8
0
100
AcDbLine
 62
7
  6
CONTINUOUS
 10
38.2587406373
 20
246.5613191153
 11
37.7253406373
 21
246.5613191153
  0
LINE
  5
35D
100
AcDbEntity
  8
0
100
AcDbLine
 62
7
  6
CONTINUOUS
 10
39.3636406373
 20
246.6475725406
 11
38.2587406373
 21
246.6475725406
  0
LINE
  5
35E
100
AcDbEntity
  8
0
100
AcDbLine
 62
7
  6
CONTINUOUS
 10
38.2587406373
 20
246.7749388056
 11
37.7253406373
 21
246.7749388056
  0
LINE
  5
35F
100
AcDbEntity
  8
0
100
AcDbLine
 62
7
  6
CONTINUOUS
 10
38.2587406373
 20
247.0665435811
 11
37.7253406373
 21
247.0665435811
  0
LINE
  5
360
100
AcDbEntity
  8
0
100
AcDbLine
 62
7
  6
CONTINUOUS
 10
38.2587406373
 20
247.6748809908
 11
37.7253406373
 21
247.6748809908
  0
LINE
  5
361
100
AcDbEntity
  8
0
100
AcDbLine
 62
7
  6
CONTINUOUS
 10
38.2587406373
 20
248.2136963581
 11
37.7253406373
 21
248.2136963581
  0
LINE
  5
362
100
AcDbEntity
  8
0
100
AcDbLine
 62
7
  6
CONTINUOUS
 10
32.5183406373
 20
248.8700725406
 11
31.9087406373
 21
248.8700725406
  0
LINE
  5
363
100
AcDbEntity
  8
0
100
AcDbLine
 62
7
  6
CONTINUOUS
 10
38.2587406373
 20
249.0746253074
 11
37.7253406373
 21
249.0746253074
  0
LINE
  5
364
100
AcDbEntity
  8
0
100
AcDbLine
 62
7
  6
CONTINUOUS
 10
38.2587406373
 20
249.1241376311
 11
37.7253406373
 21
249.1241376311
  0
LINE
  5
365
100
AcDbEntity
  8
0
100
AcDbLine
 62
7
  6
CONTINUOUS
 10
38.2587406373
 20
249.8281338349
 11
37.7253406373
 21
249.8281338349
  0
LINE
  5
366
100
AcDbEntity
  8
0
100
AcDbLine
 62
7
  6
CONTINUOUS
 10
38.2587406373
 20
250.5075690016
 11
37.7253406373
 21
250.5075690016
  0
LINE
  5
367
100
AcDbEntity
  8
0
100
AcDbLine
 62
7
  6
CONTINUOUS
 10
39.3763406373
 20
250.5845725406
 11
40.9130406373
 21
250.5845725406
  0
LINE
  5
368
100
AcDbEntity
  8
0
100
AcDbLine
 62
7
  6
CONTINUOUS
 10
38.2587406373
 20
250.9020725406
 11
37.7253406373
 21
250.9020725406
  0
LINE
  5
369
100
AcDbEntity
  8
0
100
AcDbLine
 62
7
  6
CONTINUOUS
 10
38.2587406373
 20
251.6640725406
 11
37.7253406373
 21
251.6640725406
  0
LINE
  5
36A
100
AcDbEntity
  8
0
100
AcDbLine
 62
7
  6
CONTINUOUS
 10
50.8063406373
 20
251.7530960784
 11
55.8228406373
 21
251.7530960784
  0
LINE
  5
36B
100
AcDbEntity
  8
0
100
AcDbLine
 62
7
  6
CONTINUOUS
 10
40.9130406373
 20
251.9815725406
 11
39.3763406373
 21
251.9815725406
  0
LINE
  5
36C
100
AcDbEntity
  8
0
100
AcDbLine
 62
7
  6
CONTINUOUS
 10
38.2587406373
 20
252.0585760797
 11
37.7253406373
 21
252.0585760797
  0
LINE
  5
36D
100
AcDbEntity
  8
0
100
AcDbLine
 62
7
  6
CONTINUOUS
 10
38.2587406373
 20
252.7380112463
 11
37.7253406373
 21
252.7380112463
  0
LINE
  5
36E
100
AcDbEntity
  8
0
100
AcDbLine
 62
7
  6
CONTINUOUS
 10
38.2587406373
 20
253.4420074501
 11
37.7253406373
 21
253.4420074501
  0
LINE
  5
36F
100
AcDbEntity
  8
0
100
AcDbLine
 62
7
  6
CONTINUOUS
 10
38.2587406373
 20
253.4915197739
 11
37.7253406373
 21
253.4915197739
  0
LINE
  5
370
100
AcDbEntity
  8
0
100
AcDbLine
 62
7
  6
CONTINUOUS
 10
32.5183406373
 20
253.6960725406
 11
31.9087406373
 21
253.6960725406
  0
LINE
  5
371
100
AcDbEntity
  8
0
100
AcDbLine
 62
7
  6
CONTINUOUS
 10
38.2587406373
 20
254.3524487232
 11
37.7253406373
 21
254.3524487232
  0
LINE
  5
372
100
AcDbEntity
  8
0
100
AcDbLine
 62
7
  6
CONTINUOUS
 10
38.2587406373
 20
254.8912640904
 11
37.7253406373
 21
254.8912640904
  0
LINE
  5
373
100
AcDbEntity
  8
0
100
AcDbLine
 62
7
  6
CONTINUOUS
 10
204.4908263724
 20
209.6732507949
 11
204.7824311479
 21
209.4324699124
  0
LINE
  5
374
100
AcDbEntity
  8
0
100
AcDbLine
 62
7
  6
CONTINUOUS
 10
207.6607347472
 20
208.9942138725
 11
207.9053406373
 21
208.7187896782
  0
LINE
  5
375
100
AcDbEntity
  8
0
100
AcDbLine
 62
7
  6
CONTINUOUS
 10
204.2985406373
 20
211.4781361411
 11
204.2985406373
 21
210.5592107273
  0
LINE
  5
376
100
AcDbEntity
  8
0
100
AcDbLine
 62
7
  6
CONTINUOUS
 10
204.3359209681
 20
209.939603105
 11
204.3359209681
 21
210.3800380803
  0
LINE
  5
377
100
AcDbEntity
  8
0
100
AcDbLine
 62
7
  6
CONTINUOUS
 10
204.4908263724
 20
209.6732507949
 11
204.4908263724
 21
210.1625487425
  0
LINE
  5
378
100
AcDbEntity
  8
0
100
AcDbLine
 62
7
  6
CONTINUOUS
 10
204.7824311479
 20
209.4324699124
 11
204.7824311479
 21
209.92176786
  0
LINE
  5
379
100
AcDbEntity
  8
0
100
AcDbLine
 62
7
  6
CONTINUOUS
 10
205.2235644171
 20
209.206667327
 11
205.2235644171
 21
209.6918474561
  0
LINE
  5
37A
100
AcDbEntity
  8
0
100
AcDbLine
 62
7
  6
CONTINUOUS
 10
205.7623797843
 20
209.0223816178
 11
205.7623797843
 21
209.5116795655
  0
LINE
  5
37B
100
AcDbEntity
  8
0
100
AcDbLine
 62
7
  6
CONTINUOUS
 10
205.8225406373
 20
209.0333700671
 11
205.8225406373
 21
208.4975093727
  0
LINE
  5
37C
100
AcDbEntity
  8
0
100
AcDbLine
 62
7
  6
CONTINUOUS
 10
206.2035406373
 20
209.1029601573
 11
206.2035406373
 21
208.1099457042
  0
LINE
  5
37D
100
AcDbEntity
  8
0
100
AcDbLine
 62
7
  6
CONTINUOUS
 10
206.4225823771
 20
208.8715051539
 11
206.4225823771
 21
209.3608031015
  0
LINE
  5
37E
100
AcDbEntity
  8
0
100
AcDbLine
 62
7
  6
CONTINUOUS
 10
207.1265785809
 20
208.7717704468
 11
207.1265785809
 21
209.2560448358
  0
LINE
  5
37F
100
AcDbEntity
  8
0
100
AcDbLine
 62
7
  6
CONTINUOUS
 10
207.6576906373
 20
213.6891812716
 11
207.6576906373
 21
210.1432375994
  0
LINE
  5
380
100
AcDbEntity
  8
0
100
AcDbLine
 62
7
  6
CONTINUOUS
 10
207.6607347472
 20
209.2261615703
 11
207.6607347472
 21
208.9942138725
  0
LINE
  5
381
100
AcDbEntity
  8
0
100
AcDbLine
 62
7
  6
CONTINUOUS
 10
207.9053406373
 20
208.7187896782
 11
207.9053406373
 21
209.2080876258
  0
LINE
  5
382
100
AcDbEntity
  8
0
100
AcDbLine
 62
7
  6
CONTINUOUS
 10
208.6673406373
 20
208.7187896782
 11
208.6673406373
 21
209.2080876258
  0
LINE
  5
383
100
AcDbEntity
  8
0
100
AcDbLine
 62
7
  6
CONTINUOUS
 10
208.9119465274
 20
209.2260846842
 11
208.9119465274
 21
208.9942138725
  0
LINE
  5
384
100
AcDbEntity
  8
0
100
AcDbLine
 62
7
  6
CONTINUOUS
 10
208.9149906373
 20
210.1432375994
 11
208.9149906373
 21
213.6891878506
  0
LINE
  5
385
100
AcDbEntity
  8
0
100
AcDbLine
 62
7
  6
CONTINUOUS
 10
209.4461026937
 20
208.7717704468
 11
209.4461026937
 21
209.2561815347
  0
LINE
  5
386
100
AcDbEntity
  8
0
100
AcDbLine
 62
7
  6
CONTINUOUS
 10
210.1500988975
 20
208.8715051539
 11
210.1500988975
 21
209.3608031015
  0
LINE
  5
387
100
AcDbEntity
  8
0
100
AcDbLine
 62
7
  6
CONTINUOUS
 10
210.3691406373
 20
209.1029601573
 11
210.3691406373
 21
208.110734171
  0
LINE
  5
388
100
AcDbEntity
  8
0
100
AcDbLine
 62
7
  6
CONTINUOUS
 10
210.7501406373
 20
208.4975093727
 11
210.7501406373
 21
209.0333700671
  0
LINE
  5
389
100
AcDbEntity
  8
0
100
AcDbLine
 62
7
  6
CONTINUOUS
 10
210.8103014903
 20
209.0223816178
 11
210.8103014903
 21
209.5116795655
  0
LINE
  5
38A
100
AcDbEntity
  8
0
100
AcDbLine
 62
7
  6
CONTINUOUS
 10
211.3491168575
 20
209.206667327
 11
211.3491168575
 21
209.6921140883
  0
LINE
  5
38B
100
AcDbEntity
  8
0
100
AcDbLine
 62
7
  6
CONTINUOUS
 10
38.2587406373
 20
255.4996015002
 11
37.7253406373
 21
255.4996015002
  0
LINE
  5
38C
100
AcDbEntity
  8
0
100
AcDbLine
 62
7
  6
CONTINUOUS
 10
37.7253406373
 20
255.5928912079
 11
36.2013406373
 21
255.5928912079
  0
LINE
  5
38D
100
AcDbEntity
  8
0
100
AcDbLine
 62
7
  6
CONTINUOUS
 10
38.2587406373
 20
255.7912062756
 11
37.7253406373
 21
255.7912062756
  0
LINE
  5
38E
100
AcDbEntity
  8
0
100
AcDbLine
 62
7
  6
CONTINUOUS
 10
39.3636406373
 20
255.9185725406
 11
38.2587406373
 21
255.9185725406
  0
LINE
  5
38F
100
AcDbEntity
  8
0
100
AcDbLine
 62
7
  6
CONTINUOUS
 10
38.2587406373
 20
256.004825966
 11
37.7253406373
 21
256.004825966
  0
LINE
  5
390
100
AcDbEntity
  8
0
100
AcDbLine
 62
7
  6
CONTINUOUS
 10
36.2013406373
 20
257.6417749949
 11
37.7253406373
 21
257.6417749949
  0
LINE
  5
391
100
AcDbEntity
  8
0
100
AcDbLine
 62
7
  6
CONTINUOUS
 10
55.8228406373
 20
259.3730960784
 11
50.8063406373
 21
259.3730960784
  0
LINE
  5
392
100
AcDbEntity
  8
0
100
AcDbLine
 62
7
  6
CONTINUOUS
 10
50.8063406373
 20
263.8180960784
 11
48.1393406373
 21
263.8180960784
  0
LINE
  5
393
100
AcDbEntity
  8
0
100
AcDbLine
 62
7
  6
CONTINUOUS
 10
48.1393406373
 20
264.4530960784
 11
55.8228406373
 21
264.4530960784
  0
LINE
  5
394
100
AcDbEntity
  8
0
100
AcDbLine
 62
7
  6
CONTINUOUS
 10
211.7902501267
 20
209.4324699124
 11
211.7902501267
 21
209.92176786
  0
LINE
  5
395
100
AcDbEntity
  8
0
100
AcDbLine
 62
7
  6
CONTINUOUS
 10
212.0818549022
 20
209.6732507949
 11
212.0818549022
 21
210.1625487425
  0
LINE
  5
396
100
AcDbEntity
  8
0
100
AcDbLine
 62
7
  6
CONTINUOUS
 10
212.2367603065
 20
209.939603105
 11
212.2367603065
 21
210.3809116369
  0
LINE
  5
397
100
AcDbEntity
  8
0
100
AcDbLine
 62
7
  6
CONTINUOUS
 10
212.2741406373
 20
211.4781361411
 11
212.2741406373
 21
210.5592107273
  0
LINE
  5
398
100
AcDbEntity
  8
0
100
AcDbLine
 62
7
  6
CONTINUOUS
 10
55.8228406373
 20
272.0730960784
 11
48.1393406373
 21
272.0730960784
  0
LINE
  5
399
100
AcDbEntity
  8
0
100
AcDbLine
 62
7
  6
CONTINUOUS
 10
46.1073406373
 20
272.5048960784
 11
43.4403406373
 21
272.5048960784
  0
LINE
  5
39A
100
AcDbEntity
  8
0
100
AcDbLine
 62
7
  6
CONTINUOUS
 10
225.1519406373
 20
92.4442960784
 11
225.1519406373
 21
95.0858960784
  0
LINE
  5
39B
100
AcDbEntity
  8
0
100
AcDbLine
 62
7
  6
CONTINUOUS
 10
43.4403406373
 20
278.8548960784
 11
46.1073406373
 21
278.8548960784
  0
LINE
  5
39C
100
AcDbEntity
  8
0
100
AcDbLine
 62
7
  6
CONTINUOUS
 10
231.5019406373
 20
95.0858960784
 11
231.5019406373
 21
92.4442960784
  0
LINE
  5
39D
100
AcDbEntity
  8
0
100
AcDbLine
 62
7
  6
CONTINUOUS
 10
238.3853406373
 20
99.0482960784
 11
238.3853406373
 21
189.0658960784
  0
LINE
  5
39E
100
AcDbEntity
  8
0
100
AcDbLine
 62
7
  6
CONTINUOUS
 10
239.5283406373
 20
199.6190768761
 11
239.5283406373
 21
212.6500443368
  0
LINE
  5
39F
100
AcDbEntity
  8
0
100
AcDbLine
 62
7
  6
CONTINUOUS
 10
241.0269406373
 20
99.0482960784
 11
241.0269406373
 21
189.0658960784
  0
LINE
  5
3A0
100
AcDbEntity
  8
0
100
AcDbLine
 62
7
  6
CONTINUOUS
 10
69.2213406373
 20
292.9772960784
 11
36.7093406373
 21
292.9772960784
  0
LINE
  5
3A1
100
AcDbEntity
  8
0
100
AcDbLine
 62
7
  6
CONTINUOUS
 10
244.3289406373
 20
192.1005962172
 11
244.3289406373
 21
112.9358938185
  0
LINE
  5
3A2
100
AcDbEntity
  8
0
100
AcDbLine
 62
7
  6
CONTINUOUS
 10
247.5293406373
 20
112.9358751251
 11
247.5293406373
 21
205.1315636779
  0
LINE
  5
3A3
100
AcDbEntity
  8
0
100
AcDbLine
 62
7
  6
CONTINUOUS
 10
249.4089406373
 20
141.2885285384
 11
249.4089406373
 21
145.9112636185
  0
LINE
  5
3A4
100
AcDbEntity
  8
0
100
AcDbLine
 62
7
  6
CONTINUOUS
 10
69.2213406373
 20
295.6442960784
 11
36.7093406373
 21
295.6442960784
  0
ARC
  5
3A5
100
AcDbEntity
  8
0
100
AcDbCircle
 62
7
  6
CONTINUOUS
 10
-206.0249390366
 20
-364.9563437703
 40
642.6469490032
100
AcDbArc
 50
59.6963290589
 51
60.0014397788
  0
ARC
  5
3A6
100
AcDbEntity
  8
0
100
AcDbCircle
 62
7
  6
CONTINUOUS
 10
33.9153406373
 20
192.3932960784
 40
2.794
100
AcDbArc
 50
300.0
 51
360.0
  0
ARC
  5
3A7
100
AcDbEntity
  8
0
100
AcDbCircle
 62
7
  6
CONTINUOUS
 10
35.4393406373
 20
189.7536506477
 40
0.254
100
AcDbArc
 50
120.0000000001
 51
150.0
  0
ARC
  5
3A8
100
AcDbEntity
  8
0
100
AcDbCircle
 62
7
  6
CONTINUOUS
 10
108.5615655473
 20
180.5698161565
 40
13.3857707956
100
AcDbArc
 50
208.7111342521
 51
212.9387790755
  0
ARC
  5
3A9
100
AcDbEntity
  8
0
100
AcDbCircle
 62
7
  6
CONTINUOUS
 10
108.5598960428
 20
180.5687885877
 40
13.3838109277
100
AcDbArc
 50
212.9389733955
 51
213.4899063947
  0
ARC
  5
3AA
100
AcDbEntity
  8
0
100
AcDbCircle
 62
7
  6
CONTINUOUS
 10
108.5577095245
 20
180.5673438164
 40
13.3811901979
100
AcDbArc
 50
213.4899131783
 51
213.8210520286
  0
ARC
  5
3AB
100
AcDbEntity
  8
0
100
AcDbCircle
 62
7
  6
CONTINUOUS
 10
108.5407342404
 20
180.558083077
 40
13.3618641417
100
AcDbArc
 50
208.1896196314
 51
208.7099194729
  0
ARC
  5
3AC
100
AcDbEntity
  8
0
100
AcDbCircle
 62
7
  6
CONTINUOUS
 10
108.5356051839
 20
180.657146253
 40
13.3560352159
100
AcDbArc
 50
207.5564231728
 51
208.5806191768
  0
ARC
  5
3AD
100
AcDbEntity
  8
0
100
AcDbCircle
 62
7
  6
CONTINUOUS
 10
108.5330022677
 20
180.5539424466
 40
13.3530932687
100
AcDbArc
 50
207.5604810191
 51
208.1896325413
  0
ARC
  5
3AE
100
AcDbEntity
  8
0
100
AcDbCircle
 62
7
  6
CONTINUOUS
 10
108.5250283258
 20
180.6521756402
 40
13.3448691495
100
AcDbArc
 50
179.9999853874
 51
180.4368026184
  0
ARC
  5
3AF
100
AcDbEntity
  8
0
100
AcDbCircle
 62
7
  6
CONTINUOUS
 10
108.52462365
 20
180.5514503419
 40
13.3444855968
100
AcDbArc
 50
180.0047403989
 51
207.5676399259
  0
ARC
  5
3B0
100
AcDbEntity
  8
0
100
AcDbCircle
 62
7
  6
CONTINUOUS
 10
98.9524722205
 20
173.3565338475
 40
1.511731625
100
AcDbArc
 50
173.1929457539
 51
179.986514791
  0
ARC
  5
3B1
100
AcDbEntity
  8
0
100
AcDbCircle
 62
7
  6
CONTINUOUS
 10
114.40224217
 20
168.9311090868
 40
1.4026988834
100
AcDbArc
 50
0.0441289128
 51
23.8595432483
  0
ARC
  5
3B2
100
AcDbEntity
  8
0
100
AcDbCircle
 62
7
  6
CONTINUOUS
 10
113.8331068924
 20
176.5706756901
 40
1.4026988834
100
AcDbArc
 50
180.0441289125
 51
203.8595432482
  0
ARC
  5
3B3
100
AcDbEntity
  8
0
100
AcDbCircle
 62
7
  6
CONTINUOUS
 10
107.020208425
 20
190.142871586
 40
2.1971
100
AcDbArc
 50
149.4540849207
 51
20.7679209709
  0
ARC
  5
3B4
100
AcDbEntity
  8
0
100
AcDbCircle
 62
7
  6
CONTINUOUS
 10
108.6168035042
 20
181.0183520654
 40
13.485990209
100
AcDbArc
 50
270.4824757087
 51
283.796344419
  0
ARC
  5
3B5
100
AcDbEntity
  8
0
100
AcDbCircle
 62
7
  6
CONTINUOUS
 10
108.6170236178
 20
181.118785867
 40
13.4845789378
100
AcDbArc
 50
271.3564638524
 51
283.8119587373
  0
ARC
  5
3B6
100
AcDbEntity
  8
0
100
AcDbCircle
 62
7
  6
CONTINUOUS
 10
108.6161881397
 20
181.0138073224
 40
13.4814415042
100
AcDbArc
 50
249.740931306
 51
269.5193052111
  0
ARC
  5
3B7
100
AcDbEntity
  8
0
100
AcDbCircle
 62
7
  6
CONTINUOUS
 10
108.6160660399
 20
181.0125993096
 40
13.4802659478
100
AcDbArc
 50
249.479645376
 51
249.7396402772
  0
ARC
  5
3B8
100
AcDbEntity
  8
0
100
AcDbCircle
 62
7
  6
CONTINUOUS
 10
108.6185924246
 20
181.1118357426
 40
13.4774552498
100
AcDbArc
 50
283.8125360633
 51
284.0017738472
  0
ARC
  5
3B9
100
AcDbEntity
  8
0
100
AcDbCircle
 62
7
  6
CONTINUOUS
 10
108.616813759
 20
181.098818483
 40
13.4646256431
100
AcDbArc
 50
268.6403983567
 51
269.9996888464
  0
ARC
  5
3BA
100
AcDbEntity
  8
0
100
AcDbCircle
 62
7
  6
CONTINUOUS
 10
108.6167307741
 20
180.9853756867
 40
13.4530156164
100
AcDbArc
 50
270.0000420069
 51
270.4839680947
  0
ARC
  5
3BB
100
AcDbEntity
  8
0
100
AcDbCircle
 62
7
  6
CONTINUOUS
 10
108.5899224212
 20
180.9745479135
 40
13.4239342196
100
AcDbArc
 50
119.6784805752
 51
140.1126727853
  0
ARC
  5
3BC
100
AcDbEntity
  8
0
100
AcDbCircle
 62
7
  6
CONTINUOUS
 10
108.5630375192
 20
180.6725938488
 40
13.3875194517
100
AcDbArc
 50
209.4284601898
 51
213.3257003335
  0
ARC
  5
3BD
100
AcDbEntity
  8
0
100
AcDbCircle
 62
7
  6
CONTINUOUS
 10
108.5567901649
 20
180.6685625392
 40
13.3800845904
100
AcDbArc
 50
213.4842254799
 51
214.2069682123
  0
ARC
  5
3BE
100
AcDbEntity
  8
0
100
AcDbCircle
 62
7
  6
CONTINUOUS
 10
108.5469897696
 20
180.6633395581
 40
13.3689953764
100
AcDbArc
 50
208.5805861416
 51
209.4277086284
  0
ARC
  5
3BF
100
AcDbEntity
  8
0
100
AcDbCircle
 62
7
  6
CONTINUOUS
 10
108.5308961215
 20
180.9203013771
 40
13.3507058129
100
AcDbArc
 50
206.7395332733
 51
207.560384665
  0
ARC
  5
3C0
100
AcDbEntity
  8
0
100
AcDbCircle
 62
7
  6
CONTINUOUS
 10
108.5287904117
 20
181.0210404551
 40
13.3483330652
100
AcDbArc
 50
207.1308176402
 51
207.5562968645
  0
ARC
  5
3C1
100
AcDbEntity
  8
0
100
AcDbCircle
 62
7
  6
CONTINUOUS
 10
108.5250283258
 20
181.0196591139
 40
13.3448691496
100
AcDbArc
 50
179.9999853874
 51
180.4368026184
  0
ARC
  5
3C2
100
AcDbEntity
  8
0
100
AcDbCircle
 62
7
  6
CONTINUOUS
 10
108.5246236579
 20
181.0185584876
 40
13.3444855968
100
AcDbArc
 50
152.4323602119
 51
179.995259739
  0
ARC
  5
3C3
100
AcDbEntity
  8
0
100
AcDbCircle
 62
7
  6
CONTINUOUS
 10
108.6167975923
 20
181.9343100366
 40
11.8506158503
100
AcDbArc
 50
240.1099147655
 51
296.3788131841
  0
ARC
  5
3C4
100
AcDbEntity
  8
0
100
AcDbCircle
 62
7
  6
CONTINUOUS
 10
108.5559960937
 20
181.8499723694
 40
8.2577554577
100
AcDbArc
 50
180.0010504716
 51
199.0464886814
  0
ARC
  5
3C5
100
AcDbEntity
  8
0
100
AcDbCircle
 62
7
  6
CONTINUOUS
 10
108.6167839009
 20
182.3678092675
 40
7.9488811564
100
AcDbArc
 50
269.999688155
 51
283.8185974904
  0
ARC
  5
3C6
100
AcDbEntity
  8
0
100
AcDbCircle
 62
7
  6
CONTINUOUS
 10
108.5586363039
 20
181.8301678464
 40
7.8793999261
100
AcDbArc
 50
176.553550097
 51
179.1401270357
  0
ARC
  5
3C7
100
AcDbEntity
  8
0
100
AcDbCircle
 62
7
  6
CONTINUOUS
 10
108.5348894087
 20
181.8306299166
 40
7.8556487714
100
AcDbArc
 50
179.140897582
 51
179.9998587568
  0
ARC
  5
3C8
100
AcDbEntity
  8
0
100
AcDbCircle
 62
7
  6
CONTINUOUS
 10
108.616740585
 20
183.6064454769
 40
7.1391829388
100
AcDbArc
 50
270.0000004195
 51
281.091748744
  0
ARC
  5
3C9
100
AcDbEntity
  8
0
100
AcDbCircle
 62
7
  6
CONTINUOUS
 10
108.6168103799
 20
182.9632428271
 40
7.1379694904
100
AcDbArc
 50
269.999440183
 51
281.571585527
  0
ARC
  5
3CA
100
AcDbEntity
  8
0
100
AcDbCircle
 62
7
  6
CONTINUOUS
 10
108.5727902153
 20
183.5517753928
 40
7.0680495907
100
AcDbArc
 50
153.5504658482
 51
179.9965642378
  0
ARC
  5
3CB
100
AcDbEntity
  8
0
100
AcDbCircle
 62
7
  6
CONTINUOUS
 10
108.6168487812
 20
183.6654200257
 40
6.3726444549
100
AcDbArc
 50
269.9990276896
 51
282.5954900319
  0
ARC
  5
3CC
100
AcDbEntity
  8
0
100
AcDbCircle
 62
7
  6
CONTINUOUS
 10
108.6163701686
 20
183.6655908719
 40
5.866748403
100
AcDbArc
 50
270.0036180673
 51
283.6849695047
  0
ARC
  5
3CD
100
AcDbEntity
  8
0
100
AcDbCircle
 62
7
  6
CONTINUOUS
 10
108.6169012246
 20
184.3069679265
 40
5.8623381338
100
AcDbArc
 50
269.9984304945
 51
283.6907316726
  0
ARC
  5
3CE
100
AcDbEntity
  8
0
100
AcDbCircle
 62
7
  6
CONTINUOUS
 10
108.5816899351
 20
184.2640079113
 40
5.806949311
100
AcDbArc
 50
174.948155751
 51
179.9961381138
  0
ARC
  5
3CF
100
AcDbEntity
  8
0
100
AcDbCircle
 62
7
  6
CONTINUOUS
 10
108.6166721472
 20
184.8987999569
 40
5.3541872852
100
AcDbArc
 50
270.0007329207
 51
284.9906933924
  0
ARC
  5
3D0
100
AcDbEntity
  8
0
100
AcDbCircle
 62
7
  6
CONTINUOUS
 10
108.6166773134
 20
184.3674733792
 40
5.3541621129
100
AcDbArc
 50
270.0006776402
 51
284.9887975398
  0
ARC
  5
3D1
100
AcDbEntity
  8
0
100
AcDbCircle
 62
7
  6
CONTINUOUS
 10
108.6168456193
 20
184.8897160722
 40
4.332969588
100
AcDbArc
 50
269.9986118005
 51
288.769982935
  0
ARC
  5
3D2
100
AcDbEntity
  8
0
100
AcDbCircle
 62
7
  6
CONTINUOUS
 10
108.5873928822
 20
184.8583153267
 40
4.2886396456
100
AcDbArc
 50
180.000001742
 51
183.5496871201
  0
ARC
  5
3D3
100
AcDbEntity
  8
0
100
AcDbCircle
 62
7
  6
CONTINUOUS
 10
108.622306407
 20
181.0997090112
 40
13.4647902364
100
AcDbArc
 50
283.9989247694
 51
301.3740656352
  0
ARC
  5
3D4
100
AcDbEntity
  8
0
100
AcDbCircle
 62
7
  6
CONTINUOUS
 10
108.6231666616
 20
180.9960227347
 40
13.4627572234
100
AcDbArc
 50
285.6280602119
 51
301.564565304
  0
ARC
  5
3D5
100
AcDbEntity
  8
0
100
AcDbCircle
 62
7
  6
CONTINUOUS
 10
108.6402741442
 20
180.9699967634
 40
13.4295152139
100
AcDbArc
 50
43.7993549794
 51
60.318127751
  0
ARC
  5
3D6
100
AcDbEntity
  8
0
100
AcDbCircle
 62
7
  6
CONTINUOUS
 10
108.7084190506
 20
181.0196658143
 40
13.3449030478
100
AcDbArc
 50
359.5631779869
 51
359.9999858717
  0
ARC
  5
3D7
100
AcDbEntity
  8
0
100
AcDbCircle
 62
7
  6
CONTINUOUS
 10
108.7151887236
 20
181.0198966875
 40
13.3381353347
100
AcDbArc
 50
343.8534498198
 51
359.5619645644
  0
ARC
  5
3D8
100
AcDbEntity
  8
0
100
AcDbCircle
 62
7
  6
CONTINUOUS
 10
108.7153130744
 20
181.0194524929
 40
13.3380090257
100
AcDbArc
 50
0.0009022243
 51
16.1442501858
  0
ARC
  5
3D9
100
AcDbEntity
  8
0
100
AcDbCircle
 62
7
  6
CONTINUOUS
 10
108.6484285763
 20
181.8189320149
 40
11.7879800513
100
AcDbArc
 50
34.9064209478
 51
55.4511511575
  0
ARC
  5
3DA
100
AcDbEntity
  8
0
100
AcDbCircle
 62
7
  6
CONTINUOUS
 10
108.6309842952
 20
181.8187195748
 40
8.3146018301
100
AcDbArc
 50
47.4428267185
 51
48.2063112369
  0
ARC
  5
3DB
100
AcDbEntity
  8
0
100
AcDbCircle
 62
7
  6
CONTINUOUS
 10
108.6317277236
 20
181.8195275989
 40
8.3135038376
100
AcDbArc
 50
46.5068171121
 51
47.442834466
  0
ARC
  5
3DC
100
AcDbEntity
  8
0
100
AcDbCircle
 62
7
  6
CONTINUOUS
 10
108.6478823518
 20
181.8356393258
 40
8.2906967904
100
AcDbArc
 50
28.6786892269
 51
46.5111729248
  0
ARC
  5
3DD
100
AcDbEntity
  8
0
100
AcDbCircle
 62
7
  6
CONTINUOUS
 10
108.6508421014
 20
182.2980017079
 40
7.8879034912
100
AcDbArc
 50
29.202995284
 51
41.7583735537
  0
ARC
  5
3DE
100
AcDbEntity
  8
0
100
AcDbCircle
 62
7
  6
CONTINUOUS
 10
108.6362346345
 20
183.5378357491
 40
7.0963263806
100
AcDbArc
 50
36.792761168
 51
37.7838737673
  0
ARC
  5
3DF
100
AcDbEntity
  8
0
100
AcDbCircle
 62
7
  6
CONTINUOUS
 10
108.6477011128
 20
183.5460266194
 40
7.0822382547
100
AcDbArc
 50
24.5680326138
 51
36.7952547243
  0
ARC
  5
3E0
100
AcDbEntity
  8
0
100
AcDbCircle
 62
7
  6
CONTINUOUS
 10
108.6163133592
 20
191.2018694834
 40
6.6986157959
100
AcDbArc
 50
270.0036546706
 51
275.412878554
  0
ARC
  5
3E1
100
AcDbEntity
  8
0
100
AcDbCircle
 62
7
  6
CONTINUOUS
 10
108.6171677503
 20
191.2018258934
 40
6.6985722059
100
AcDbArc
 50
264.5996468216
 51
269.9963467186
  0
ARC
  5
3E2
100
AcDbEntity
  8
0
100
AcDbCircle
 62
7
  6
CONTINUOUS
 10
108.6511257754
 20
191.7821272769
 40
6.634002551
100
AcDbArc
 50
31.3988713172
 51
32.187262495
  0
ARC
  5
3E3
100
AcDbEntity
  8
0
100
AcDbCircle
 62
7
  6
CONTINUOUS
 10
108.6515179295
 20
191.1504386519
 40
6.6335682533
100
AcDbArc
 50
325.642503174
 51
327.8111825057
  0
ARC
  5
3E4
100
AcDbEntity
  8
0
100
AcDbCircle
 62
7
  6
CONTINUOUS
 10
108.6607656632
 20
191.1462593029
 40
6.6234910081
100
AcDbArc
 50
327.799163704
 51
359.9924096744
  0
ARC
  5
3E5
100
AcDbEntity
  8
0
100
AcDbCircle
 62
7
  6
CONTINUOUS
 10
108.660771801
 20
191.7882484517
 40
6.6234885773
100
AcDbArc
 50
327.8002549496
 51
359.9924101223
  0
ARC
  5
3E6
100
AcDbEntity
  8
0
100
AcDbCircle
 62
7
  6
CONTINUOUS
 10
108.6610868449
 20
191.7865537785
 40
6.6231716153
100
AcDbArc
 50
0.0070700918
 51
31.4110806462
  0
ARC
  5
3E7
100
AcDbEntity
  8
0
100
AcDbCircle
 62
7
  6
CONTINUOUS
 10
108.5680882362
 20
191.7872925684
 40
6.6187861444
100
AcDbArc
 50
194.6453647176
 51
195.9883001423
  0
ARC
  5
3E8
100
AcDbEntity
  8
0
100
AcDbCircle
 62
7
  6
CONTINUOUS
 10
108.5677870454
 20
191.1454832743
 40
6.6185426982
100
AcDbArc
 50
180.0008780115
 51
195.9941059281
  0
ARC
  5
3E9
100
AcDbEntity
  8
0
100
AcDbCircle
 62
7
  6
CONTINUOUS
 10
108.5674443496
 20
191.7874528585
 40
6.6182037128
100
AcDbArc
 50
164.0094688688
 51
194.6481166964
  0
ARC
  5
3EA
100
AcDbEntity
  8
0
100
AcDbCircle
 62
7
  6
CONTINUOUS
 10
108.6165636032
 20
192.1657145901
 40
3.1870607713
100
AcDbArc
 50
270.0031826523
 51
274.3435384184
  0
ARC
  5
3EB
100
AcDbEntity
  8
0
100
AcDbCircle
 62
7
  6
CONTINUOUS
 10
32.888379875
 20
221.1768509677
 40
3.683
100
AcDbArc
 50
331.3729033775
 51
334.0960634499
  0
ARC
  5
3EC
100
AcDbEntity
  8
0
100
AcDbCircle
 62
7
  6
CONTINUOUS
 10
33.9153406373
 20
217.7932960784
 40
2.794
100
AcDbArc
 50
0.0
 51
60.0
  0
ARC
  5
3ED
100
AcDbEntity
  8
0
100
AcDbCircle
 62
7
  6
CONTINUOUS
 10
35.4393406373
 20
220.4329415092
 40
0.254
100
AcDbArc
 50
210.0000000001
 51
239.9999999999
  0
ARC
  5
3EE
100
AcDbEntity
  8
0
100
AcDbCircle
 62
7
  6
CONTINUOUS
 10
24.8672679536
 20
238.5488397577
 40
12.5966534201
100
AcDbArc
 50
24.6261291954
 51
25.8723381215
  0
ARC
  5
3EF
100
AcDbEntity
  8
0
100
AcDbCircle
 62
7
  6
CONTINUOUS
 10
24.8770119394
 20
238.7196624062
 40
12.585854367
100
AcDbArc
 50
25.1518713176
 51
25.8726233155
  0
ARC
  5
3F0
100
AcDbEntity
  8
0
100
AcDbCircle
 62
7
  6
CONTINUOUS
 10
36.7093406373
 20
225.1592960784
 40
4.191
100
AcDbArc
 50
262.6443035894
 51
263.2219677676
  0
ARC
  5
3F1
100
AcDbEntity
  8
0
100
AcDbCircle
 62
7
  6
CONTINUOUS
 10
46.1073406373
 20
228.1305979913
 40
2.667
100
AcDbArc
 50
239.2190080346
 51
256.225853002
  0
ARC
  5
3F2
100
AcDbEntity
  8
0
100
AcDbCircle
 62
7
  6
CONTINUOUS
 10
39.3636406373
 20
222.8317823579
 40
1.5494
100
AcDbArc
 50
270.0
 51
360.0
  0
ARC
  5
3F3
100
AcDbEntity
  8
0
100
AcDbCircle
 62
7
  6
CONTINUOUS
 10
39.2493393809
 20
237.2403616887
 40
7.1199127004
100
AcDbArc
 50
53.8674148119
 51
125.2244237564
  0
ARC
  5
3F4
100
AcDbEntity
  8
0
100
AcDbCircle
 62
7
  6
CONTINUOUS
 10
39.2493376734
 20
236.8548661269
 40
7.1199068417
100
AcDbArc
 50
53.840475786
 51
125.22826064
  0
ARC
  5
3F5
100
AcDbEntity
  8
0
100
AcDbCircle
 62
7
  6
CONTINUOUS
 10
39.2334137907
 20
236.8726683673
 40
7.0960814323
100
AcDbArc
 50
183.4332001154
 51
198.1797960511
  0
ARC
  5
3F6
100
AcDbEntity
  8
0
100
AcDbCircle
 62
7
  6
CONTINUOUS
 10
39.229971711
 20
236.8724834483
 40
7.092631177
100
AcDbArc
 50
183.0737531576
 51
183.4324745054
  0
ARC
  5
3F7
100
AcDbEntity
  8
0
100
AcDbCircle
 62
7
  6
CONTINUOUS
 10
39.2298482464
 20
236.8714497048
 40
7.09231365
100
AcDbArc
 50
198.179429446
 51
199.9426871694
  0
ARC
  5
3F8
100
AcDbEntity
  8
0
100
AcDbCircle
 62
7
  6
CONTINUOUS
 10
39.2293303703
 20
236.8726439717
 40
7.0919729639
100
AcDbArc
 50
162.4126684406
 51
180.0013335191
  0
ARC
  5
3F9
100
AcDbEntity
  8
0
100
AcDbCircle
 62
7
  6
CONTINUOUS
 10
39.2292994316
 20
237.2581526088
 40
7.0919417634
100
AcDbArc
 50
162.395598393
 51
180.0013494506
  0
ARC
  5
3FA
100
AcDbEntity
  8
0
100
AcDbCircle
 62
7
  6
CONTINUOUS
 10
39.2508469419
 20
231.9365617551
 40
6.6764498024
100
AcDbArc
 50
119.8143042534
 51
127.9334960507
  0
ARC
  5
3FB
100
AcDbEntity
  8
0
100
AcDbCircle
 62
7
  6
CONTINUOUS
 10
39.2508406782
 20
232.3220740285
 40
6.6764386743
100
AcDbArc
 50
119.815446836
 51
127.9309876686
  0
ARC
  5
3FC
100
AcDbEntity
  8
0
100
AcDbCircle
 62
7
  6
CONTINUOUS
 10
39.2496953068
 20
231.9380475797
 40
6.6742380444
100
AcDbArc
 50
59.9186667868
 51
84.7788727739
  0
ARC
  5
3FD
100
AcDbEntity
  8
0
100
AcDbCircle
 62
7
  6
CONTINUOUS
 10
39.2625388402
 20
231.9554690297
 40
6.6545443153
100
AcDbArc
 50
327.6184689753
 51
340.4320384835
  0
ARC
  5
3FE
100
AcDbEntity
  8
0
100
AcDbCircle
 62
7
  6
CONTINUOUS
 10
39.2488124807
 20
238.2453378428
 40
6.3641052312
100
AcDbArc
 50
79.0698265101
 51
85.6841033118
  0
ARC
  5
3FF
100
AcDbEntity
  8
0
100
AcDbCircle
 62
7
  6
CONTINUOUS
 10
39.2459678305
 20
238.2492321886
 40
6.3615349078
100
AcDbArc
 50
49.9861799819
 51
59.5779836953
  0
ARC
  5
400
100
AcDbEntity
  8
0
100
AcDbCircle
 62
7
  6
CONTINUOUS
 10
39.2508146322
 20
238.2367567777
 40
6.3599875073
100
AcDbArc
 50
113.7543711524
 51
118.9644009851
  0
ARC
  5
401
100
AcDbEntity
  8
0
100
AcDbCircle
 62
7
  6
CONTINUOUS
 10
39.2490099344
 20
238.2500861585
 40
6.3593555229
100
AcDbArc
 50
85.6826577753
 51
89.9970204718
  0
ARC
  5
402
100
AcDbEntity
  8
0
100
AcDbCircle
 62
7
  6
CONTINUOUS
 10
39.2492710837
 20
238.2391833732
 40
6.3571275515
100
AcDbArc
 50
52.2796529213
 51
113.7504478059
  0
ARC
  5
403
100
AcDbEntity
  8
0
100
AcDbCircle
 62
7
  6
CONTINUOUS
 10
39.2493860888
 20
236.8169185723
 40
6.3570090697
100
AcDbArc
 50
62.4029556704
 51
129.8578158544
  0
ARC
  5
404
100
AcDbEntity
  8
0
100
AcDbCircle
 62
7
  6
CONTINUOUS
 10
39.249688017
 20
238.2530029171
 40
6.3564132241
100
AcDbArc
 50
59.5888221515
 51
79.0644746156
  0
ARC
  5
405
100
AcDbEntity
  8
0
100
AcDbCircle
 62
7
  6
CONTINUOUS
 10
39.2499205543
 20
238.9190335576
 40
6.3550603532
100
AcDbArc
 50
48.1976169805
 51
90.0052283876
  0
ARC
  5
406
100
AcDbEntity
  8
0
100
AcDbCircle
 62
7
  6
CONTINUOUS
 10
39.2499528393
 20
238.255619615
 40
6.3540806829
100
AcDbArc
 50
48.1903046171
 51
49.9766681127
  0
ARC
  5
407
100
AcDbEntity
  8
0
100
AcDbCircle
 62
7
  6
CONTINUOUS
 10
39.2508326619
 20
238.243729057
 40
6.3525459429
100
AcDbArc
 50
48.1509494013
 51
52.2657102151
  0
ARC
  5
408
100
AcDbEntity
  8
0
100
AcDbCircle
 62
7
  6
CONTINUOUS
 10
39.2444344108
 20
239.5680025629
 40
6.118036335
100
AcDbArc
 50
64.6375491724
 51
76.5508218658
  0
ARC
  5
409
100
AcDbEntity
  8
0
100
AcDbCircle
 62
7
  6
CONTINUOUS
 10
39.248655342
 20
239.5842587674
 40
6.1009562048
100
AcDbArc
 50
119.0079913889
 51
119.9846184838
  0
ARC
  5
40A
100
AcDbEntity
  8
0
100
AcDbCircle
 62
7
  6
CONTINUOUS
 10
39.2418111108
 20
239.5726111283
 40
5.8613251922
100
AcDbArc
 50
50.901816571
 51
63.3466905892
  0
ARC
  5
40B
100
AcDbEntity
  8
0
100
AcDbCircle
 62
7
  6
CONTINUOUS
 10
39.2498039355
 20
239.574550461
 40
5.857049747
100
AcDbArc
 50
89.8996126967
 51
97.6560437441
  0
ARC
  5
40C
100
AcDbEntity
  8
0
100
AcDbCircle
 62
7
  6
CONTINUOUS
 10
39.249410922
 20
239.5806373143
 40
5.8509648093
100
AcDbArc
 50
97.6601704783
 51
98.8474535593
  0
ARC
  5
40D
100
AcDbEntity
  8
0
100
AcDbCircle
 62
7
  6
CONTINUOUS
 10
39.2493436017
 20
236.8168207037
 40
5.8497584245
100
AcDbArc
 50
73.2992410171
 51
105.5577601704
  0
ARC
  5
40E
100
AcDbEntity
  8
0
100
AcDbCircle
 62
7
  6
CONTINUOUS
 10
39.2494308147
 20
239.5823906734
 40
5.8492102132
100
AcDbArc
 50
76.827138893
 51
89.89582325
  0
ARC
  5
40F
100
AcDbEntity
  8
0
100
AcDbCircle
 62
7
  6
CONTINUOUS
 10
39.2498369769
 20
236.8186869555
 40
5.8482970027
100
AcDbArc
 50
124.4924053072
 51
124.7372010974
  0
ARC
  5
410
100
AcDbEntity
  8
0
100
AcDbCircle
 62
7
  6
CONTINUOUS
 10
39.2522144288
 20
239.5886669902
 40
5.8423042726
100
AcDbArc
 50
49.7257941411
 51
50.8816926669
  0
ARC
  5
411
100
AcDbEntity
  8
0
100
AcDbCircle
 62
7
  6
CONTINUOUS
 10
39.2527496388
 20
239.5895801614
 40
5.8412615784
100
AcDbArc
 50
44.5362641073
 51
49.724009207
  0
ARC
  5
412
100
AcDbEntity
  8
0
100
AcDbCircle
 62
7
  6
CONTINUOUS
 10
39.2442740566
 20
236.8264079386
 40
5.8387822748
100
AcDbArc
 50
124.7355137923
 51
134.6340368033
  0
ARC
  5
413
100
AcDbEntity
  8
0
100
AcDbCircle
 62
7
  6
CONTINUOUS
 10
39.244232844
 20
236.4386774334
 40
5.838715521
100
AcDbArc
 50
124.7350030909
 51
134.6364269096
  0
ARC
  5
414
100
AcDbEntity
  8
0
100
AcDbCircle
 62
7
  6
CONTINUOUS
 10
39.2493177553
 20
228.9132921902
 40
5.5628066599
100
AcDbArc
 50
243.1041171939
 51
303.0260589134
  0
ARC
  5
415
100
AcDbEntity
  8
0
100
AcDbCircle
 62
7
  6
CONTINUOUS
 10
39.2493635227
 20
228.8849834372
 40
5.5628066599
100
AcDbArc
 50
63.1041175344
 51
123.0260585698
  0
ARC
  5
416
100
AcDbEntity
  8
0
100
AcDbCircle
 62
7
  6
CONTINUOUS
 10
39.259296344
 20
228.9002993205
 40
5.5463271208
100
AcDbArc
 50
303.0127857004
 51
3.0588678058
  0
ARC
  5
417
100
AcDbEntity
  8
0
100
AcDbCircle
 62
7
  6
CONTINUOUS
 10
39.23938478
 20
228.897976391
 40
5.5463271208
100
AcDbArc
 50
123.0127844955
 51
183.0588680709
  0
ARC
  5
418
100
AcDbEntity
  8
0
100
AcDbCircle
 62
7
  6
CONTINUOUS
 10
39.2451383491
 20
236.4011449043
 40
5.3316553479
100
AcDbArc
 50
128.2972567832
 51
140.3810708029
  0
ARC
  5
419
100
AcDbEntity
  8
0
100
AcDbCircle
 62
7
  6
CONTINUOUS
 10
39.2434765081
 20
236.0838009586
 40
5.3292912511
100
AcDbArc
 50
128.2894630656
 51
140.3938568885
  0
ARC
  5
41A
100
AcDbEntity
  8
0
100
AcDbCircle
 62
7
  6
CONTINUOUS
 10
39.2438915449
 20
236.086042116
 40
4.312903007
100
AcDbArc
 50
159.4523271437
 51
162.5132291216
  0
ARC
  5
41B
100
AcDbEntity
  8
0
100
AcDbCircle
 62
7
  6
CONTINUOUS
 10
39.241435435
 20
236.0869083895
 40
4.3102991036
100
AcDbArc
 50
140.5652148943
 51
159.4516505402
  0
ARC
  5
41C
100
AcDbEntity
  8
0
100
AcDbCircle
 62
7
  6
CONTINUOUS
 10
39.2437613479
 20
228.9002985506
 40
3.5505143214
100
AcDbArc
 50
183.0888682339
 51
240.1100938373
  0
ARC
  5
41D
100
AcDbEntity
  8
0
100
AcDbCircle
 62
7
  6
CONTINUOUS
 10
39.2558246928
 20
228.8998426536
 40
3.5495322495
100
AcDbArc
 50
303.9762281205
 51
3.0595857966
  0
ARC
  5
41E
100
AcDbEntity
  8
0
100
AcDbCircle
 62
7
  6
CONTINUOUS
 10
24.8675369951
 20
265.9374084988
 40
12.5945668569
100
AcDbArc
 50
25.3757522565
 51
25.8555652469
  0
ARC
  5
41F
100
AcDbEntity
  8
0
100
AcDbCircle
 62
7
  6
CONTINUOUS
 10
36.7093406373
 20
291.4532960784
 40
4.191
100
AcDbArc
 50
90.0
 51
180.0
  0
ARC
  5
420
100
AcDbEntity
  8
0
100
AcDbCircle
 62
7
  6
CONTINUOUS
 10
55.8228406373
 20
268.2630960784
 40
3.81
100
AcDbArc
 50
270.0
 51
90.0
  0
ARC
  5
421
100
AcDbEntity
  8
0
100
AcDbCircle
 62
7
  6
CONTINUOUS
 10
55.8228406373
 20
255.5630960784
 40
3.81
100
AcDbArc
 50
270.0
 51
90.0
  0
ARC
  5
422
100
AcDbEntity
  8
0
100
AcDbCircle
 62
7
  6
CONTINUOUS
 10
46.1073406373
 20
245.5559941655
 40
2.667
100
AcDbArc
 50
103.774146998
 51
180.0
  0
ARC
  5
423
100
AcDbEntity
  8
0
100
AcDbCircle
 62
7
  6
CONTINUOUS
 10
46.1073406373
 20
258.9661979913
 40
2.667
100
AcDbArc
 50
180.0
 51
256.2258530019
  0
ARC
  5
424
100
AcDbEntity
  8
0
100
AcDbCircle
 62
7
  6
CONTINUOUS
 10
45.4723406373
 20
256.4525941655
 40
2.667
100
AcDbArc
 50
0.0
 51
76.225853002
  0
CIRCLE
  5
425
100
AcDbEntity
  8
0
100
AcDbCircle
 62
7
  6
CONTINUOUS
 10
55.8228406373
 20
268.2630960784
 40
1.7272
  0
CIRCLE
  5
426
100
AcDbEntity
  8
0
100
AcDbCircle
 62
7
  6
CONTINUOUS
 10
55.8228406373
 20
255.5630960784
 40
1.7272
  0
ARC
  5
427
100
AcDbEntity
  8
0
100
AcDbCircle
 62
7
  6
CONTINUOUS
 10
39.3636406373
 20
248.1969725406
 40
1.5494
100
AcDbArc
 50
270.0
 51
360.0
  0
ARC
  5
428
100
AcDbEntity
  8
0
100
AcDbCircle
 62
7
  6
CONTINUOUS
 10
39.3636406373
 20
254.3691725406
 40
1.5494
100
AcDbArc
 50
0.0
 51
90.0
  0
ARC
  5
429
100
AcDbEntity
  8
0
100
AcDbCircle
 62
7
  6
CONTINUOUS
 10
36.7093406373
 20
291.4532960784
 40
1.524
100
AcDbArc
 50
90.0
 51
180.0
  0
ARC
  5
42A
100
AcDbEntity
  8
0
100
AcDbCircle
 62
7
  6
CONTINUOUS
 10
38.4867917278
 20
246.0356319392
 40
0.7614875633
100
AcDbArc
 50
180.0427331737
 51
270.0412990359
  0
ARC
  5
42B
100
AcDbEntity
  8
0
100
AcDbCircle
 62
7
  6
CONTINUOUS
 10
38.4867917273
 20
245.3709652952
 40
0.7614875632
100
AcDbArc
 50
180.0427331904
 51
270.0412990753
  0
ARC
  5
42C
100
AcDbEntity
  8
0
100
AcDbCircle
 62
7
  6
CONTINUOUS
 10
108.577420161
 20
196.8745820313
 40
5.5168833197
100
AcDbArc
 50
149.8909010734
 51
210.1090989266
  0
ARC
  5
42D
100
AcDbEntity
  8
0
100
AcDbCircle
 62
7
  6
CONTINUOUS
 10
108.6560609872
 20
196.8745820313
 40
5.5168833197
100
AcDbArc
 50
329.8909017325
 51
30.1090982675
  0
ARC
  5
42E
100
AcDbEntity
  8
0
100
AcDbCircle
 62
7
  6
CONTINUOUS
 10
131.3497406373
 20
99.0482960784
 40
6.604
100
AcDbArc
 50
180.0
 51
270.0
  0
ARC
  5
42F
100
AcDbEntity
  8
0
100
AcDbCircle
 62
7
  6
CONTINUOUS
 10
234.4229406373
 20
99.0482960784
 40
6.604
100
AcDbArc
 50
270.0
 51
360.0
  0
ARC
  5
430
100
AcDbEntity
  8
0
100
AcDbCircle
 62
7
  6
CONTINUOUS
 10
131.3497406373
 20
99.0482960784
 40
3.9624
100
AcDbArc
 50
180.0
 51
270.0
  0
ARC
  5
431
100
AcDbEntity
  8
0
100
AcDbCircle
 62
7
  6
CONTINUOUS
 10
234.4229406373
 20
99.0482960784
 40
3.9624
100
AcDbArc
 50
270.0
 51
360.0
  0
ARC
  5
432
100
AcDbEntity
  8
0
100
AcDbCircle
 62
7
  6
CONTINUOUS
 10
208.285978653
 20
221.6951757784
 40
11.5809475704
100
AcDbArc
 50
266.8589675379
 51
270.0017908873
  0
ARC
  5
433
100
AcDbEntity
  8
0
100
AcDbCircle
 62
7
  6
CONTINUOUS
 10
157.485978653
 20
221.6951757784
 40
11.5809475705
100
AcDbArc
 50
266.8589675379
 51
270.0017908873
  0
ARC
  5
434
100
AcDbEntity
  8
0
100
AcDbCircle
 62
7
  6
CONTINUOUS
 10
208.2868792293
 20
201.2788106163
 40
11.5751466777
100
AcDbArc
 50
86.8893856188
 51
90.0026659747
  0
ARC
  5
435
100
AcDbEntity
  8
0
100
AcDbCircle
 62
7
  6
CONTINUOUS
 10
208.2858020453
 20
221.7013298584
 40
11.5751466777
100
AcDbArc
 50
266.8893856188
 51
270.0026659747
  0
ARC
  5
436
100
AcDbEntity
  8
0
100
AcDbCircle
 62
7
  6
CONTINUOUS
 10
157.4868792293
 20
201.2788106164
 40
11.5751466776
100
AcDbArc
 50
86.8893856188
 51
90.0026659747
  0
ARC
  5
437
100
AcDbEntity
  8
0
100
AcDbCircle
 62
7
  6
CONTINUOUS
 10
157.4858020453
 20
221.7013298584
 40
11.5751466776
100
AcDbArc
 50
266.8893856188
 51
270.0026659747
  0
ARC
  5
438
100
AcDbEntity
  8
0
100
AcDbCircle
 62
7
  6
CONTINUOUS
 10
208.2885272136
 20
221.6285894603
 40
11.5143614543
100
AcDbArc
 50
269.989119536
 51
273.1501220388
  0
ARC
  5
439
100
AcDbEntity
  8
0
100
AcDbCircle
 62
7
  6
CONTINUOUS
 10
157.4885272136
 20
221.6285894604
 40
11.5143614544
100
AcDbArc
 50
269.989119536
 51
273.1501220388
  0
ARC
  5
43A
100
AcDbEntity
  8
0
100
AcDbCircle
 62
7
  6
CONTINUOUS
 10
208.2840653486
 20
201.3428277609
 40
11.5111297455
100
AcDbArc
 50
89.9886749222
 51
93.1192734843
  0
ARC
  5
43B
100
AcDbEntity
  8
0
100
AcDbCircle
 62
7
  6
CONTINUOUS
 10
208.288615926
 20
221.637312714
 40
11.5111297456
100
AcDbArc
 50
269.9886749222
 51
273.1192734843
  0
ARC
  5
43C
100
AcDbEntity
  8
0
100
AcDbCircle
 62
7
  6
CONTINUOUS
 10
157.4840653486
 20
201.3428277609
 40
11.5111297455
100
AcDbArc
 50
89.9886749222
 51
93.1192734843
  0
ARC
  5
43D
100
AcDbEntity
  8
0
100
AcDbCircle
 62
7
  6
CONTINUOUS
 10
157.488615926
 20
221.637312714
 40
11.5111297456
100
AcDbArc
 50
269.9886749222
 51
273.1192734843
  0
ARC
  5
43E
100
AcDbEntity
  8
0
100
AcDbCircle
 62
7
  6
CONTINUOUS
 10
211.73563155
 20
210.575472242
 40
0.5405156906
100
AcDbArc
 50
338.8867420808
 51
344.0109769457
  0
ARC
  5
43F
100
AcDbEntity
  8
0
100
AcDbCircle
 62
7
  6
CONTINUOUS
 10
160.93563155
 20
210.575472242
 40
0.5405156907
100
AcDbArc
 50
338.8867420811
 51
344.0109769452
  0
ARC
  5
440
100
AcDbEntity
  8
0
100
AcDbCircle
 62
7
  6
CONTINUOUS
 10
204.8307766505
 20
210.5733579245
 40
0.533903033
100
AcDbArc
 50
195.9577980899
 51
201.2429413781
  0
ARC
  5
441
100
AcDbEntity
  8
0
100
AcDbCircle
 62
7
  6
CONTINUOUS
 10
154.0307766504
 20
210.5733579245
 40
0.5339030329
100
AcDbArc
 50
195.9577980899
 51
201.2429413782
  0
SPLINE
  5
442
100
AcDbEntity
  8
0
100
AcDbSpline
 62
7
  6
CONTINUOUS
 70
0
 71
3
 72
9
 73
5
 74
0
 42
0.0000001
 43
0.0000001
 44
0.0000000001
 40
0.0
 40
0.0
 40
0.0
 40
0.0
 40
0.5134986145
 40
1.0
 40
1.0
 40
1.0
 40
1.0
 10
208.2863406373
 20
209.1953027997
 30
0.0
 10
208.6093600469
 20
209.1953027997
 30
0.0
 10
209.2386763265
 20
209.221141824
 30
0.0
 10
209.863718718
 20
209.3011111154
 30
0.0
 10
210.1647751916
 20
209.3560967894
 30
0.0
  0
SPLINE
  5
443
100
AcDbEntity
  8
0
100
AcDbSpline
 62
7
  6
CONTINUOUS
 70
0
 71
3
 72
10
 73
6
 74
0
 42
0.0000001
 43
0.0000001
 44
0.0000000001
 40
0.0
 40
0.0
 40
0.0
 40
0.0
 40
0.5324287585
 40
0.7751503608
 40
1.0
 40
1.0
 40
1.0
 40
1.0
 10
210.1647751916
 20
209.3560967894
 30
0.0
 10
210.3814567047
 20
209.3956720189
 30
0.0
 10
210.6950866157
 20
209.4654510668
 30
0.0
 10
211.0908188024
 20
209.5865719291
 30
0.0
 10
211.2722960799
 20
209.6540002403
 30
0.0
 10
211.3582661402
 20
209.6895239733
 30
0.0
  0
SPLINE
  5
444
100
AcDbEntity
  8
0
100
AcDbSpline
 62
7
  6
CONTINUOUS
 70
0
 71
3
 72
11
 73
7
 74
0
 42
0.0000001
 43
0.0000001
 44
0.0000000001
 40
0.0
 40
0.0
 40
0.0
 40
0.0
 40
0.2935490642
 40
0.5578975074
 40
0.7929546515
 40
1.0
 40
1.0
 40
1.0
 40
1.0
 10
211.3601406349
 20
209.6902991162
 30
0.0
 10
211.4410673992
 20
209.7237891772
 30
0.0
 10
211.5928008706
 20
209.7926920493
 30
0.0
 10
211.799270714
 20
209.9089584357
 30
0.0
 10
211.9711166322
 20
210.031780549
 30
0.0
 10
212.0673415204
 20
210.1229851579
 30
0.0
 10
212.1079315204
 20
210.1695515731
 30
0.0
  0
SPLINE
  5
445
100
AcDbEntity
  8
0
100
AcDbSpline
 62
7
  6
CONTINUOUS
 70
0
 71
3
 72
9
 73
5
 74
0
 42
0.0000001
 43
0.0000001
 44
0.0000000001
 40
0.0
 40
0.0
 40
0.0
 40
0.0
 40
0.2683088083
 40
1.0
 40
1.0
 40
1.0
 40
1.0
 10
212.1079315204
 20
210.1695515731
 30
0.0
 10
212.1226064177
 20
210.1863871818
 30
0.0
 10
212.1750673695
 20
210.2509609786
 30
0.0
 10
212.2179408797
 20
210.3239487341
 30
0.0
 10
212.2398625351
 20
210.3807716372
 30
0.0
  0
SPLINE
  5
446
100
AcDbEntity
  8
0
100
AcDbSpline
 62
7
  6
CONTINUOUS
 70
0
 71
3
 72
9
 73
5
 74
0
 42
0.0000001
 43
0.0000001
 44
0.0000000001
 40
0.0
 40
0.0
 40
0.0
 40
0.0
 40
0.2541103962
 40
1.0
 40
1.0
 40
1.0
 40
1.0
 10
212.2552371133
 20
210.4265854716
 30
0.0
 10
212.2583590213
 20
210.4375163026
 30
0.0
 10
212.2692337315
 20
210.4809198951
 30
0.0
 10
212.2741384734
 20
210.5258425299
 30
0.0
 10
212.274138418
 20
210.5592107273
 30
0.0
  0
SPLINE
  5
447
100
AcDbEntity
  8
0
100
AcDbSpline
 62
7
  6
CONTINUOUS
 70
0
 71
3
 72
18
 73
14
 74
0
 42
0.0000001
 43
0.0000001
 44
0.0000000001
 40
0.0
 40
0.0
 40
0.0
 40
0.0
 40
0.0637063626
 40
0.1269335788
 40
0.189268967
 40
0.2503303854
 40
0.3099920428
 40
0.3684240059
 40
0.4836856709
 40
0.6018240333
 40
0.7269439521
 40
0.8601405567
 40
1.0
 40
1.0
 40
1.0
 40
1.0
 10
204.2985406373
 20
211.4781361411
 30
0.0
 10
204.2985406373
 20
211.5721009974
 30
0.0
 10
204.3147922796
 20
211.7597271576
 30
0.0
 10
204.3863017001
 20
212.0308871662
 30
0.0
 10
204.4997507199
 20
212.2830144461
 30
0.0
 10
204.6479588778
 20
212.5099013875
 30
0.0
 10
204.8228560879
 20
212.7090638995
 30
0.0
 10
205.0814492571
 20
212.9373601449
 30
0.0
 10
205.4489117183
 20
213.1670711192
 30
0.0
 10
205.937998307
 20
213.3720351326
 30
0.0
 10
206.4729365729
 20
213.5246825397
 30
0.0
 10
207.0509499077
 20
213.6324130528
 30
0.0
 10
207.4519061245
 20
213.6747956402
 30
0.0
 10
207.6576880605
 20
213.6892395552
 30
0.0
  0
SPLINE
  5
448
100
AcDbEntity
  8
0
100
AcDbSpline
 62
7
  6
CONTINUOUS
 70
0
 71
3
 72
18
 73
14
 74
0
 42
0.0000001
 43
0.0000001
 44
0.0000000001
 40
0.0
 40
0.0
 40
0.0
 40
0.0
 40
0.1398662761
 40
0.2730678484
 40
0.3981895959
 40
0.516330561
 40
0.6315887076
 40
0.6900193059
 40
0.749674957
 40
0.8107339303
 40
0.8730648594
 40
0.9362900229
 40
1.0
 40
1.0
 40
1.0
 40
1.0
 10
208.914992125
 20
213.6892397015
 30
0.0
 10
209.1207844001
 20
213.6747954357
 30
0.0
 10
209.52175868
 20
213.6324108901
 30
0.0
 10
210.0997909083
 20
213.5246700325
 30
0.0
 10
210.6347459644
 20
213.372027402
 30
0.0
 10
211.1238307815
 20
213.167053683
 30
0.0
 10
211.4912870699
 20
212.9373348782
 30
0.0
 10
211.7498488934
 20
212.7090277761
 30
0.0
 10
211.9247430645
 20
212.5098821181
 30
0.0
 10
212.072934321
 20
212.2830058476
 30
0.0
 10
212.1863782114
 20
212.0308910761
 30
0.0
 10
212.2578880142
 20
211.7597351713
 30
0.0
 10
212.2741406373
 20
211.5721064471
 30
0.0
 10
212.2741406373
 20
211.4781361411
 30
0.0
  0
SPLINE
  5
449
100
AcDbEntity
  8
0
100
AcDbSpline
 62
7
  6
CONTINUOUS
 70
0
 71
3
 72
9
 73
5
 74
0
 42
0.0000001
 43
0.0000001
 44
0.0000000001
 40
0.0
 40
0.0
 40
0.0
 40
0.0
 40
0.2475656415
 40
1.0
 40
1.0
 40
1.0
 40
1.0
 10
204.2985428566
 20
210.5592107273
 30
0.0
 10
204.298542875
 20
210.5481341169
 30
0.0
 10
204.300130987
 20
210.5034003445
 30
0.0
 10
204.3082016574
 20
210.4589432441
 30
0.0
 10
204.3174478596
 20
210.426572363
 30
0.0
  0
SPLINE
  5
44A
100
AcDbEntity
  8
0
100
AcDbSpline
 62
7
  6
CONTINUOUS
 70
0
 71
3
 72
9
 73
5
 74
0
 42
0.0000001
 43
0.0000001
 44
0.0000000001
 40
0.0
 40
0.0
 40
0.0
 40
0.0
 40
0.2341888601
 40
1.0
 40
1.0
 40
1.0
 40
1.0
 10
204.3331509868
 20
210.3799124607
 30
0.0
 10
204.3401742695
 20
210.3617964322
 30
0.0
 10
204.3741987239
 20
210.2859988073
 30
0.0
 10
204.4230215671
 20
210.2174202628
 30
0.0
 10
204.4647717226
 20
210.1695264327
 30
0.0
  0
SPLINE
  5
44B
100
AcDbEntity
  8
0
100
AcDbSpline
 62
7
  6
CONTINUOUS
 70
0
 71
3
 72
11
 73
7
 74
0
 42
0.0000001
 43
0.0000001
 44
0.0000000001
 40
0.0
 40
0.0
 40
0.0
 40
0.0
 40
0.2070392223
 40
0.4420948749
 40
0.7064457369
 40
1.0
 40
1.0
 40
1.0
 40
1.0
 10
204.4647717226
 20
210.1695264327
 30
0.0
 10
204.5053729811
 20
210.1229505634
 30
0.0
 10
204.6016261104
 20
210.0317278346
 30
0.0
 10
204.7735240921
 20
209.9088849423
 30
0.0
 10
204.9800581092
 20
209.792600921
 30
0.0
 10
205.131838631
 20
209.7236894345
 30
0.0
 10
205.2127906331
 20
209.690195669
 30
0.0
  0
SPLINE
  5
44C
100
AcDbEntity
  8
0
100
AcDbSpline
 62
7
  6
CONTINUOUS
 70
0
 71
3
 72
10
 73
6
 74
0
 42
0.0000001
 43
0.0000001
 44
0.0000000001
 40
0.0
 40
0.0
 40
0.0
 40
0.0
 40
0.2248644384
 40
0.4675898017
 40
1.0
 40
1.0
 40
1.0
 40
1.0
 10
205.2147991905
 20
209.6893653
 30
0.0
 10
205.300739542
 20
209.6538647928
 30
0.0
 10
205.4821463723
 20
209.5864791394
 30
0.0
 10
205.8777029221
 20
209.4654303144
 30
0.0
 10
206.1911829201
 20
209.3956837719
 30
0.0
 10
206.407757283
 20
209.3561240018
 30
0.0
  0
SPLINE
  5
44D
100
AcDbEntity
  8
0
100
AcDbSpline
 62
7
  6
CONTINUOUS
 70
0
 71
3
 72
9
 73
5
 74
0
 42
0.0000001
 43
0.0000001
 44
0.0000000001
 40
0.0
 40
0.0
 40
0.0
 40
0.0
 40
0.4864988105
 40
1.0
 40
1.0
 40
1.0
 40
1.0
 10
206.407757283
 20
209.3561240018
 30
0.0
 10
206.7088352556
 20
209.3011286864
 30
0.0
 10
207.3339270564
 20
209.2211461268
 30
0.0
 10
207.9632937467
 20
209.1953027997
 30
0.0
 10
208.2863406373
 20
209.1953027997
 30
0.0
  0
SPLINE
  5
44E
100
AcDbEntity
  8
0
100
AcDbSpline
 62
7
  6
CONTINUOUS
 70
0
 71
3
 72
31
 73
27
 74
0
 42
0.0000001
 43
0.0000001
 44
0.0000000001
 40
0.0
 40
0.0
 40
0.0
 40
0.0
 40
0.0900945209
 40
0.1747896696
 40
0.2521729269
 40
0.3206602623
 40
0.3512237628
 40
0.3792159192
 40
0.4046286905
 40
0.4275326013
 40
0.4481088881
 40
0.466679375
 40
0.4837474549
 40
0.5000000817
 40
0.5162526966
 40
0.5333207333
 40
0.5518911369
 40
0.572467278
 40
0.5953710086
 40
0.6207835325
 40
0.6487754751
 40
0.6793387264
 40
0.7478258294
 40
0.8252091646
 40
0.9099048406
 40
1.0
 40
1.0
 40
1.0
 40
1.0
 10
208.9149906373
 20
213.605747179
 30
0.0
 10
209.0557872949
 20
213.5940671739
 30
0.0
 10
209.3283692075
 20
213.5634546786
 30
0.0
 10
209.7179534286
 20
213.4938032465
 30
0.0
 10
210.0684178225
 20
213.4034459392
 30
0.0
 10
210.3294132804
 20
213.309802754
 30
0.0
 10
210.5097981351
 20
213.2249075028
 30
0.0
 10
210.6246184133
 20
213.1601657656
 30
0.0
 10
210.7234391777
 20
213.0923554529
 30
0.0
 10
210.805617936
 20
213.0218358867
 30
0.0
 10
210.8706239112
 20
212.9489551558
 30
0.0
 10
210.9178903124
 20
212.8739629644
 30
0.0
 10
210.9467869467
 20
212.7971919039
 30
0.0
 10
210.9565279325
 20
212.7192817781
 30
0.0
 10
210.9467867834
 20
212.6413717459
 30
0.0
 10
210.9178901185
 20
212.5646009328
 30
0.0
 10
210.8706238707
 20
212.4896091638
 30
0.0
 10
210.8056184257
 20
212.4167288232
 30
0.0
 10
210.7234403162
 20
212.3462098906
 30
0.0
 10
210.6246206198
 20
212.2783998072
 30
0.0
 10
210.5098012905
 20
212.2136586494
 30
0.0
 10
210.3294177391
 20
212.1287632156
 30
0.0
 10
210.0684229381
 20
212.0351199987
 30
0.0
 10
209.7179581347
 20
211.9447619773
 30
0.0
 10
209.3283720111
 20
211.8751100233
 30
0.0
 10
209.0557882927
 20
211.8444972182
 30
0.0
 10
208.9149906373
 20
211.8328171304
 30
0.0
  0
SPLINE
  5
44F
100
AcDbEntity
  8
0
100
AcDbSpline
 62
7
  6
CONTINUOUS
 70
0
 71
3
 72
20
 73
16
 74
0
 42
0.0000001
 43
0.0000001
 44
0.0000000001
 40
0.0
 40
0.0
 40
0.0
 40
0.0
 40
0.1787701888
 40
0.3481901599
 40
0.5038556377
 40
0.5753568388
 40
0.6421032142
 40
0.7037940301
 40
0.7602304447
 40
0.8113388687
 40
0.8572124667
 40
0.89817745
 40
0.9348677565
 40
0.9683193929
 40
1.0
 40
1.0
 40
1.0
 40
1.0
 10
207.6514133392
 20
210.1316264318
 30
0.0
 10
207.4239535647
 20
210.1441724634
 30
0.0
 10
206.9815106573
 20
210.1819516285
 30
0.0
 10
206.3463029617
 20
210.2786008562
 30
0.0
 10
205.8531235208
 20
210.3919710852
 30
0.0
 10
205.4948657656
 20
210.5016562495
 30
0.0
 10
205.255408157
 20
210.5890829933
 30
0.0
 10
205.0393127816
 20
210.6833317862
 30
0.0
 10
204.8481828414
 20
210.7836964691
 30
0.0
 10
204.6834052714
 20
210.889459483
 30
0.0
 10
204.5461593246
 20
210.9999586489
 30
0.0
 10
204.4374247039
 20
211.1145832341
 30
0.0
 10
204.3581749953
 20
211.2329334579
 30
0.0
 10
204.3096084573
 20
211.354422205
 30
0.0
 10
204.2985406373
 20
211.4377657806
 30
0.0
 10
204.2985406373
 20
211.4781361411
 30
0.0
  0
SPLINE
  5
450
100
AcDbEntity
  8
0
100
AcDbSpline
 62
7
  6
CONTINUOUS
 70
0
 71
3
 72
31
 73
27
 74
0
 42
0.0000001
 43
0.0000001
 44
0.0000000001
 40
0.0
 40
0.0
 40
0.0
 40
0.0
 40
0.0900945209
 40
0.1747896696
 40
0.2521729269
 40
0.3206602623
 40
0.3512237628
 40
0.3792159192
 40
0.4046286905
 40
0.4275326013
 40
0.4481088881
 40
0.466679375
 40
0.4837474549
 40
0.5000000817
 40
0.5162526966
 40
0.5333207333
 40
0.5518911369
 40
0.572467278
 40
0.5953710086
 40
0.6207835325
 40
0.6487754751
 40
0.6793387264
 40
0.7478258294
 40
0.8252091646
 40
0.9099048406
 40
1.0
 40
1.0
 40
1.0
 40
1.0
 10
207.6576906373
 20
211.8328171304
 30
0.0
 10
207.5168939797
 20
211.8444971354
 30
0.0
 10
207.2443120671
 20
211.8751096308
 30
0.0
 10
206.854727846
 20
211.9447610628
 30
0.0
 10
206.5042634521
 20
212.0351183701
 30
0.0
 10
206.2432679942
 20
212.1287615554
 30
0.0
 10
206.0628831395
 20
212.2136568065
 30
0.0
 10
205.9480628613
 20
212.2783985438
 30
0.0
 10
205.8492420969
 20
212.3462088564
 30
0.0
 10
205.7670633387
 20
212.4167284226
 30
0.0
 10
205.7020573634
 20
212.4896091536
 30
0.0
 10
205.6547909623
 20
212.5646013449
 30
0.0
 10
205.6258943279
 20
212.6413724054
 30
0.0
 10
205.6161533421
 20
212.7192825312
 30
0.0
 10
205.6258944912
 20
212.7971925635
 30
0.0
 10
205.6547911561
 20
212.8739633766
 30
0.0
 10
205.7020574039
 20
212.9489551455
 30
0.0
 10
205.7670628489
 20
213.0218354862
 30
0.0
 10
205.8492409585
 20
213.0923544188
 30
0.0
 10
205.9480606548
 20
213.1601645021
 30
0.0
 10
206.0628799841
 20
213.2249056599
 30
0.0
 10
206.2432635356
 20
213.3098010938
 30
0.0
 10
206.5042583365
 20
213.4034443107
 30
0.0
 10
206.8547231399
 20
213.4938023321
 30
0.0
 10
207.2443092635
 20
213.5634542861
 30
0.0
 10
207.5168929819
 20
213.5940670912
 30
0.0
 10
207.6576906373
 20
213.605747179
 30
0.0
  0
SPLINE
  5
451
100
AcDbEntity
  8
0
100
AcDbSpline
 62
7
  6
CONTINUOUS
 70
0
 71
3
 72
20
 73
16
 74
0
 42
0.0000001
 43
0.0000001
 44
0.0000000001
 40
0.0
 40
0.0
 40
0.0
 40
0.0
 40
0.0316806071
 40
0.0651322435
 40
0.10182255
 40
0.1427875333
 40
0.1886611313
 40
0.2397695553
 40
0.2962059699
 40
0.3578967858
 40
0.4246431612
 40
0.4961443623
 40
0.6518098401
 40
0.8212298112
 40
1.0
 40
1.0
 40
1.0
 40
1.0
 10
212.2741406373
 20
211.4781361411
 30
0.0
 10
212.2741406373
 20
211.4377657806
 30
0.0
 10
212.2630728173
 20
211.354422205
 30
0.0
 10
212.2145062793
 20
211.2329334579
 30
0.0
 10
212.1352565708
 20
211.1145832341
 30
0.0
 10
212.0265219501
 20
210.9999586489
 30
0.0
 10
211.8892760032
 20
210.889459483
 30
0.0
 10
211.7244984332
 20
210.7836964691
 30
0.0
 10
211.5333684931
 20
210.6833317862
 30
0.0
 10
211.3172731176
 20
210.5890829933
 30
0.0
 10
211.077815509
 20
210.5016562495
 30
0.0
 10
210.7195577539
 20
210.3919710852
 30
0.0
 10
210.226378313
 20
210.2786008562
 30
0.0
 10
209.5911706173
 20
210.1819516285
 30
0.0
 10
209.1487277099
 20
210.1441724634
 30
0.0
 10
208.9212679354
 20
210.1316264318
 30
0.0
  0
SPLINE
  5
452
100
AcDbEntity
  8
0
100
AcDbSpline
 62
7
  6
CONTINUOUS
 70
0
 71
3
 72
9
 73
5
 74
0
 42
0.0000001
 43
0.0000001
 44
0.0000000001
 40
0.0
 40
0.0
 40
0.0
 40
0.0
 40
0.5134986145
 40
1.0
 40
1.0
 40
1.0
 40
1.0
 10
157.4863406373
 20
209.1953027997
 30
0.0
 10
157.8093600469
 20
209.1953027997
 30
0.0
 10
158.4386763265
 20
209.221141824
 30
0.0
 10
159.063718718
 20
209.3011111154
 30
0.0
 10
159.3647751916
 20
209.3560967894
 30
0.0
  0
SPLINE
  5
453
100
AcDbEntity
  8
0
100
AcDbSpline
 62
7
  6
CONTINUOUS
 70
0
 71
3
 72
10
 73
6
 74
0
 42
0.0000001
 43
0.0000001
 44
0.0000000001
 40
0.0
 40
0.0
 40
0.0
 40
0.0
 40
0.5324287585
 40
0.7751503608
 40
1.0
 40
1.0
 40
1.0
 40
1.0
 10
159.3647751916
 20
209.3560967894
 30
0.0
 10
159.5814567047
 20
209.3956720189
 30
0.0
 10
159.8950866157
 20
209.4654510668
 30
0.0
 10
160.2908188024
 20
209.5865719291
 30
0.0
 10
160.4722960799
 20
209.6540002403
 30
0.0
 10
160.5582661402
 20
209.6895239733
 30
0.0
  0
SPLINE
  5
454
100
AcDbEntity
  8
0
100
AcDbSpline
 62
7
  6
CONTINUOUS
 70
0
 71
3
 72
11
 73
7
 74
0
 42
0.0000001
 43
0.0000001
 44
0.0000000001
 40
0.0
 40
0.0
 40
0.0
 40
0.0
 40
0.2935490642
 40
0.5578975074
 40
0.7929546515
 40
1.0
 40
1.0
 40
1.0
 40
1.0
 10
160.5601406349
 20
209.6902991162
 30
0.0
 10
160.6410673992
 20
209.7237891772
 30
0.0
 10
160.7928008706
 20
209.7926920493
 30
0.0
 10
160.999270714
 20
209.9089584357
 30
0.0
 10
161.1711166322
 20
210.031780549
 30
0.0
 10
161.2673415204
 20
210.1229851579
 30
0.0
 10
161.3079315204
 20
210.1695515731
 30
0.0
  0
SPLINE
  5
455
100
AcDbEntity
  8
0
100
AcDbSpline
 62
7
  6
CONTINUOUS
 70
0
 71
3
 72
9
 73
5
 74
0
 42
0.0000001
 43
0.0000001
 44
0.0000000001
 40
0.0
 40
0.0
 40
0.0
 40
0.0
 40
0.2683088083
 40
1.0
 40
1.0
 40
1.0
 40
1.0
 10
161.3079315204
 20
210.1695515731
 30
0.0
 10
161.3226064177
 20
210.1863871818
 30
0.0
 10
161.3750673695
 20
210.2509609786
 30
0.0
 10
161.4179408797
 20
210.3239487341
 30
0.0
 10
161.4398625351
 20
210.3807716372
 30
0.0
  0
SPLINE
  5
456
100
AcDbEntity
  8
0
100
AcDbSpline
 62
7
  6
CONTINUOUS
 70
0
 71
3
 72
9
 73
5
 74
0
 42
0.0000001
 43
0.0000001
 44
0.0000000001
 40
0.0
 40
0.0
 40
0.0
 40
0.0
 40
0.2541103962
 40
1.0
 40
1.0
 40
1.0
 40
1.0
 10
161.4552371133
 20
210.4265854716
 30
0.0
 10
161.4583590213
 20
210.4375163026
 30
0.0
 10
161.4692337315
 20
210.4809198951
 30
0.0
 10
161.4741384734
 20
210.5258425299
 30
0.0
 10
161.474138418
 20
210.5592107273
 30
0.0
  0
SPLINE
  5
457
100
AcDbEntity
  8
0
100
AcDbSpline
 62
7
  6
CONTINUOUS
 70
0
 71
3
 72
18
 73
14
 74
0
 42
0.0000001
 43
0.0000001
 44
0.0000000001
 40
0.0
 40
0.0
 40
0.0
 40
0.0
 40
0.0637063626
 40
0.1269335788
 40
0.189268967
 40
0.2503303854
 40
0.3099920428
 40
0.3684240059
 40
0.4836856709
 40
0.6018240333
 40
0.7269439521
 40
0.8601405567
 40
1.0
 40
1.0
 40
1.0
 40
1.0
 10
153.4985406373
 20
211.4781361411
 30
0.0
 10
153.4985406373
 20
211.5721009974
 30
0.0
 10
153.5147922796
 20
211.7597271576
 30
0.0
 10
153.5863017001
 20
212.0308871662
 30
0.0
 10
153.6997507199
 20
212.2830144461
 30
0.0
 10
153.8479588778
 20
212.5099013875
 30
0.0
 10
154.0228560879
 20
212.7090638995
 30
0.0
 10
154.2814492571
 20
212.9373601449
 30
0.0
 10
154.6489117183
 20
213.1670711192
 30
0.0
 10
155.137998307
 20
213.3720351326
 30
0.0
 10
155.6729365729
 20
213.5246825397
 30
0.0
 10
156.2509499077
 20
213.6324130528
 30
0.0
 10
156.6519061245
 20
213.6747956402
 30
0.0
 10
156.8576880605
 20
213.6892395552
 30
0.0
  0
SPLINE
  5
458
100
AcDbEntity
  8
0
100
AcDbSpline
 62
7
  6
CONTINUOUS
 70
0
 71
3
 72
18
 73
14
 74
0
 42
0.0000001
 43
0.0000001
 44
0.0000000001
 40
0.0
 40
0.0
 40
0.0
 40
0.0
 40
0.1398662761
 40
0.2730678484
 40
0.3981895959
 40
0.516330561
 40
0.6315887076
 40
0.6900193059
 40
0.749674957
 40
0.8107339303
 40
0.8730648594
 40
0.9362900229
 40
1.0
 40
1.0
 40
1.0
 40
1.0
 10
158.114992125
 20
213.6892397015
 30
0.0
 10
158.3207844001
 20
213.6747954357
 30
0.0
 10
158.72175868
 20
213.6324108901
 30
0.0
 10
159.2997909083
 20
213.5246700325
 30
0.0
 10
159.8347459644
 20
213.372027402
 30
0.0
 10
160.3238307815
 20
213.167053683
 30
0.0
 10
160.6912870699
 20
212.9373348782
 30
0.0
 10
160.9498488934
 20
212.7090277761
 30
0.0
 10
161.1247430645
 20
212.5098821181
 30
0.0
 10
161.272934321
 20
212.2830058476
 30
0.0
 10
161.3863782114
 20
212.0308910761
 30
0.0
 10
161.4578880142
 20
211.7597351713
 30
0.0
 10
161.4741406373
 20
211.5721064471
 30
0.0
 10
161.4741406373
 20
211.4781361411
 30
0.0
  0
SPLINE
  5
459
100
AcDbEntity
  8
0
100
AcDbSpline
 62
7
  6
CONTINUOUS
 70
0
 71
3
 72
9
 73
5
 74
0
 42
0.0000001
 43
0.0000001
 44
0.0000000001
 40
0.0
 40
0.0
 40
0.0
 40
0.0
 40
0.2475656415
 40
1.0
 40
1.0
 40
1.0
 40
1.0
 10
153.4985428566
 20
210.5592107273
 30
0.0
 10
153.498542875
 20
210.5481341169
 30
0.0
 10
153.500130987
 20
210.5034003445
 30
0.0
 10
153.5082016574
 20
210.4589432441
 30
0.0
 10
153.5174478596
 20
210.426572363
 30
0.0
  0
SPLINE
  5
45A
100
AcDbEntity
  8
0
100
AcDbSpline
 62
7
  6
CONTINUOUS
 70
0
 71
3
 72
9
 73
5
 74
0
 42
0.0000001
 43
0.0000001
 44
0.0000000001
 40
0.0
 40
0.0
 40
0.0
 40
0.0
 40
0.2341888601
 40
1.0
 40
1.0
 40
1.0
 40
1.0
 10
153.5331509868
 20
210.3799124607
 30
0.0
 10
153.5401742695
 20
210.3617964322
 30
0.0
 10
153.5741987239
 20
210.2859988073
 30
0.0
 10
153.6230215671
 20
210.2174202628
 30
0.0
 10
153.6647717226
 20
210.1695264327
 30
0.0
  0
SPLINE
  5
45B
100
AcDbEntity
  8
0
100
AcDbSpline
 62
7
  6
CONTINUOUS
 70
0
 71
3
 72
11
 73
7
 74
0
 42
0.0000001
 43
0.0000001
 44
0.0000000001
 40
0.0
 40
0.0
 40
0.0
 40
0.0
 40
0.2070392223
 40
0.4420948749
 40
0.7064457369
 40
1.0
 40
1.0
 40
1.0
 40
1.0
 10
153.6647717226
 20
210.1695264327
 30
0.0
 10
153.7053729811
 20
210.1229505634
 30
0.0
 10
153.8016261104
 20
210.0317278346
 30
0.0
 10
153.9735240921
 20
209.9088849423
 30
0.0
 10
154.1800581092
 20
209.792600921
 30
0.0
 10
154.331838631
 20
209.7236894345
 30
0.0
 10
154.4127906331
 20
209.690195669
 30
0.0
  0
SPLINE
  5
45C
100
AcDbEntity
  8
0
100
AcDbSpline
 62
7
  6
CONTINUOUS
 70
0
 71
3
 72
10
 73
6
 74
0
 42
0.0000001
 43
0.0000001
 44
0.0000000001
 40
0.0
 40
0.0
 40
0.0
 40
0.0
 40
0.2248644384
 40
0.4675898017
 40
1.0
 40
1.0
 40
1.0
 40
1.0
 10
154.4147991905
 20
209.6893653
 30
0.0
 10
154.5007395419
 20
209.6538647928
 30
0.0
 10
154.6821463723
 20
209.5864791394
 30
0.0
 10
155.0777029221
 20
209.4654303144
 30
0.0
 10
155.3911829201
 20
209.3956837719
 30
0.0
 10
155.607757283
 20
209.3561240018
 30
0.0
  0
SPLINE
  5
45D
100
AcDbEntity
  8
0
100
AcDbSpline
 62
7
  6
CONTINUOUS
 70
0
 71
3
 72
9
 73
5
 74
0
 42
0.0000001
 43
0.0000001
 44
0.0000000001
 40
0.0
 40
0.0
 40
0.0
 40
0.0
 40
0.4864988105
 40
1.0
 40
1.0
 40
1.0
 40
1.0
 10
155.607757283
 20
209.3561240018
 30
0.0
 10
155.9088352556
 20
209.3011286864
 30
0.0
 10
156.5339270564
 20
209.2211461268
 30
0.0
 10
157.1632937467
 20
209.1953027997
 30
0.0
 10
157.4863406373
 20
209.1953027997
 30
0.0
  0
SPLINE
  5
45E
100
AcDbEntity
  8
0
100
AcDbSpline
 62
7
  6
CONTINUOUS
 70
0
 71
3
 72
31
 73
27
 74
0
 42
0.0000001
 43
0.0000001
 44
0.0000000001
 40
0.0
 40
0.0
 40
0.0
 40
0.0
 40
0.0900945209
 40
0.1747896696
 40
0.2521729269
 40
0.3206602623
 40
0.3512237628
 40
0.3792159192
 40
0.4046286905
 40
0.4275326013
 40
0.4481088881
 40
0.466679375
 40
0.4837474549
 40
0.5000000817
 40
0.5162526966
 40
0.5333207333
 40
0.5518911369
 40
0.572467278
 40
0.5953710086
 40
0.6207835325
 40
0.6487754751
 40
0.6793387264
 40
0.7478258294
 40
0.8252091646
 40
0.9099048406
 40
1.0
 40
1.0
 40
1.0
 40
1.0
 10
158.1149906373
 20
213.605747179
 30
0.0
 10
158.2557872949
 20
213.5940671739
 30
0.0
 10
158.5283692075
 20
213.5634546786
 30
0.0
 10
158.9179534286
 20
213.4938032465
 30
0.0
 10
159.2684178225
 20
213.4034459392
 30
0.0
 10
159.5294132804
 20
213.309802754
 30
0.0
 10
159.7097981351
 20
213.2249075028
 30
0.0
 10
159.8246184133
 20
213.1601657656
 30
0.0
 10
159.9234391777
 20
213.0923554529
 30
0.0
 10
160.005617936
 20
213.0218358867
 30
0.0
 10
160.0706239112
 20
212.9489551558
 30
0.0
 10
160.1178903124
 20
212.8739629644
 30
0.0
 10
160.1467869467
 20
212.7971919039
 30
0.0
 10
160.1565279325
 20
212.7192817781
 30
0.0
 10
160.1467867834
 20
212.6413717459
 30
0.0
 10
160.1178901185
 20
212.5646009328
 30
0.0
 10
160.0706238707
 20
212.4896091638
 30
0.0
 10
160.0056184257
 20
212.4167288232
 30
0.0
 10
159.9234403162
 20
212.3462098906
 30
0.0
 10
159.8246206198
 20
212.2783998072
 30
0.0
 10
159.7098012905
 20
212.2136586494
 30
0.0
 10
159.5294177391
 20
212.1287632156
 30
0.0
 10
159.2684229381
 20
212.0351199987
 30
0.0
 10
158.9179581347
 20
211.9447619773
 30
0.0
 10
158.5283720111
 20
211.8751100233
 30
0.0
 10
158.2557882927
 20
211.8444972182
 30
0.0
 10
158.1149906373
 20
211.8328171304
 30
0.0
  0
SPLINE
  5
45F
100
AcDbEntity
  8
0
100
AcDbSpline
 62
7
  6
CONTINUOUS
 70
0
 71
3
 72
20
 73
16
 74
0
 42
0.0000001
 43
0.0000001
 44
0.0000000001
 40
0.0
 40
0.0
 40
0.0
 40
0.0
 40
0.1787701888
 40
0.3481901599
 40
0.5038556377
 40
0.5753568388
 40
0.6421032142
 40
0.7037940301
 40
0.7602304447
 40
0.8113388687
 40
0.8572124667
 40
0.89817745
 40
0.9348677565
 40
0.9683193929
 40
1.0
 40
1.0
 40
1.0
 40
1.0
 10
156.8514133392
 20
210.1316264318
 30
0.0
 10
156.6239535647
 20
210.1441724634
 30
0.0
 10
156.1815106573
 20
210.1819516285
 30
0.0
 10
155.5463029617
 20
210.2786008562
 30
0.0
 10
155.0531235208
 20
210.3919710852
 30
0.0
 10
154.6948657656
 20
210.5016562495
 30
0.0
 10
154.455408157
 20
210.5890829933
 30
0.0
 10
154.2393127816
 20
210.6833317862
 30
0.0
 10
154.0481828414
 20
210.7836964691
 30
0.0
 10
153.8834052714
 20
210.889459483
 30
0.0
 10
153.7461593246
 20
210.9999586489
 30
0.0
 10
153.6374247039
 20
211.1145832341
 30
0.0
 10
153.5581749953
 20
211.2329334579
 30
0.0
 10
153.5096084573
 20
211.354422205
 30
0.0
 10
153.4985406373
 20
211.4377657806
 30
0.0
 10
153.4985406373
 20
211.4781361411
 30
0.0
  0
SPLINE
  5
460
100
AcDbEntity
  8
0
100
AcDbSpline
 62
7
  6
CONTINUOUS
 70
0
 71
3
 72
31
 73
27
 74
0
 42
0.0000001
 43
0.0000001
 44
0.0000000001
 40
0.0
 40
0.0
 40
0.0
 40
0.0
 40
0.0900945209
 40
0.1747896696
 40
0.2521729269
 40
0.3206602623
 40
0.3512237628
 40
0.3792159192
 40
0.4046286905
 40
0.4275326013
 40
0.4481088881
 40
0.466679375
 40
0.4837474549
 40
0.5000000817
 40
0.5162526966
 40
0.5333207333
 40
0.5518911369
 40
0.572467278
 40
0.5953710086
 40
0.6207835325
 40
0.6487754751
 40
0.6793387264
 40
0.7478258294
 40
0.8252091646
 40
0.9099048406
 40
1.0
 40
1.0
 40
1.0
 40
1.0
 10
156.8576906373
 20
211.8328171304
 30
0.0
 10
156.7168939797
 20
211.8444971354
 30
0.0
 10
156.4443120671
 20
211.8751096308
 30
0.0
 10
156.054727846
 20
211.9447610628
 30
0.0
 10
155.7042634521
 20
212.0351183701
 30
0.0
 10
155.4432679942
 20
212.1287615554
 30
0.0
 10
155.2628831395
 20
212.2136568065
 30
0.0
 10
155.1480628613
 20
212.2783985438
 30
0.0
 10
155.0492420969
 20
212.3462088564
 30
0.0
 10
154.9670633387
 20
212.4167284226
 30
0.0
 10
154.9020573634
 20
212.4896091536
 30
0.0
 10
154.8547909623
 20
212.5646013449
 30
0.0
 10
154.8258943279
 20
212.6413724054
 30
0.0
 10
154.8161533421
 20
212.7192825312
 30
0.0
 10
154.8258944912
 20
212.7971925635
 30
0.0
 10
154.8547911561
 20
212.8739633766
 30
0.0
 10
154.9020574039
 20
212.9489551455
 30
0.0
 10
154.9670628489
 20
213.0218354862
 30
0.0
 10
155.0492409585
 20
213.0923544188
 30
0.0
 10
155.1480606548
 20
213.1601645021
 30
0.0
 10
155.2628799841
 20
213.2249056599
 30
0.0
 10
155.4432635356
 20
213.3098010938
 30
0.0
 10
155.7042583365
 20
213.4034443107
 30
0.0
 10
156.0547231399
 20
213.4938023321
 30
0.0
 10
156.4443092635
 20
213.5634542861
 30
0.0
 10
156.7168929819
 20
213.5940670912
 30
0.0
 10
156.8576906373
 20
213.605747179
 30
0.0
  0
SPLINE
  5
461
100
AcDbEntity
  8
0
100
AcDbSpline
 62
7
  6
CONTINUOUS
 70
0
 71
3
 72
20
 73
16
 74
0
 42
0.0000001
 43
0.0000001
 44
0.0000000001
 40
0.0
 40
0.0
 40
0.0
 40
0.0
 40
0.0316806071
 40
0.0651322435
 40
0.10182255
 40
0.1427875333
 40
0.1886611313
 40
0.2397695553
 40
0.2962059699
 40
0.3578967858
 40
0.4246431612
 40
0.4961443623
 40
0.6518098401
 40
0.8212298112
 40
1.0
 40
1.0
 40
1.0
 40
1.0
 10
161.4741406373
 20
211.4781361411
 30
0.0
 10
161.4741406373
 20
211.4377657806
 30
0.0
 10
161.4630728173
 20
211.354422205
 30
0.0
 10
161.4145062793
 20
211.2329334579
 30
0.0
 10
161.3352565708
 20
211.1145832341
 30
0.0
 10
161.2265219501
 20
210.9999586489
 30
0.0
 10
161.0892760032
 20
210.889459483
 30
0.0
 10
160.9244984332
 20
210.7836964691
 30
0.0
 10
160.7333684931
 20
210.6833317862
 30
0.0
 10
160.5172731176
 20
210.5890829933
 30
0.0
 10
160.277815509
 20
210.5016562495
 30
0.0
 10
159.9195577539
 20
210.3919710852
 30
0.0
 10
159.426378313
 20
210.2786008562
 30
0.0
 10
158.7911706173
 20
210.1819516285
 30
0.0
 10
158.3487277099
 20
210.1441724634
 30
0.0
 10
158.1212679354
 20
210.1316264318
 30
0.0
  0
SPLINE
  5
462
100
AcDbEntity
  8
0
100
AcDbSpline
 62
7
  6
CONTINUOUS
 70
0
 71
3
 72
15
 73
11
 74
0
 42
0.0000001
 43
0.0000001
 44
0.0000000001
 40
0.0
 40
0.0
 40
0.0
 40
0.0
 40
0.1249543854
 40
0.2499082776
 40
0.3749325677
 40
0.5000038163
 40
0.6250792488
 40
0.7501116832
 40
0.8750711277
 40
1.0
 40
1.0
 40
1.0
 40
1.0
 10
42.424306428
 20
228.3780392083
 30
0.0
 10
42.4241818341
 20
227.9724745262
 30
0.0
 10
42.2646167197
 20
227.1527341983
 30
0.0
 10
41.5810186661
 20
226.1105470414
 30
0.0
 10
40.554623622
 20
225.4004874379
 30
0.0
 10
39.3363270264
 20
225.128882481
 30
0.0
 10
38.1052609887
 20
225.3350955481
 30
0.0
 10
37.0423303444
 20
225.9893331352
 30
0.0
 10
36.3041051379
 20
226.9934478877
 30
0.0
 10
36.1006383974
 20
227.8033584398
 30
0.0
 10
36.0788959009
 20
228.2082569824
 30
0.0
  0
SPLINE
  5
463
100
AcDbEntity
  8
0
100
AcDbSpline
 62
7
  6
CONTINUOUS
 70
0
 71
3
 72
15
 73
11
 74
0
 42
0.0000001
 43
0.0000001
 44
0.0000000001
 40
0.0
 40
0.0
 40
0.0
 40
0.0
 40
0.1249334252
 40
0.2498751173
 40
0.3748934456
 40
0.4999675457
 40
0.6250479286
 40
0.7500876501
 40
0.875054755
 40
1.0
 40
1.0
 40
1.0
 40
1.0
 10
36.8398026376
 20
228.2091247155
 30
0.0
 10
36.8229950265
 20
228.5221236043
 30
0.0
 10
36.9145195006
 20
229.1617630301
 30
0.0
 10
37.4076868833
 20
229.9902023554
 30
0.0
 10
38.1809030944
 20
230.5685609915
 30
0.0
 10
39.1167301708
 20
230.8068947008
 30
0.0
 10
40.0727165117
 20
230.6699089816
 30
0.0
 10
40.9034385826
 20
230.1774664547
 30
0.0
 10
41.4825391259
 20
229.4064713453
 30
0.0
 10
41.6420694357
 20
228.7802221842
 30
0.0
 10
41.658878637
 20
228.4671936828
 30
0.0
  0
SPLINE
  5
464
100
AcDbEntity
  8
0
100
AcDbSpline
 62
7
  6
CONTINUOUS
 70
0
 71
3
 72
15
 73
11
 74
0
 42
0.0000001
 43
0.0000001
 44
0.0000000001
 40
0.0
 40
0.0
 40
0.0
 40
0.0
 40
0.1249334252
 40
0.2498751173
 40
0.3748934456
 40
0.4999675457
 40
0.6250479286
 40
0.7500876501
 40
0.875054755
 40
1.0
 40
1.0
 40
1.0
 40
1.0
 10
41.658878637
 20
228.4671936828
 30
0.0
 10
41.6756862481
 20
228.1541947939
 30
0.0
 10
41.584161774
 20
227.5145553681
 30
0.0
 10
41.0909943913
 20
226.6861160428
 30
0.0
 10
40.3177781802
 20
226.1077574067
 30
0.0
 10
39.3819511038
 20
225.8694236974
 30
0.0
 10
38.425964763
 20
226.0064094166
 30
0.0
 10
37.5952426921
 20
226.4988519436
 30
0.0
 10
37.0161421487
 20
227.2698470529
 30
0.0
 10
36.8566118389
 20
227.8960962141
 30
0.0
 10
36.8398026376
 20
228.2091247155
 30
0.0
  0
SPLINE
  5
465
100
AcDbEntity
  8
0
100
AcDbSpline
 62
7
  6
CONTINUOUS
 70
0
 71
3
 72
15
 73
11
 74
0
 42
0.0000001
 43
0.0000001
 44
0.0000000001
 40
0.0
 40
0.0
 40
0.0
 40
0.0
 40
0.1249543854
 40
0.2499082776
 40
0.3749325677
 40
0.5000038163
 40
0.6250792488
 40
0.7501116832
 40
0.8750711277
 40
1.0
 40
1.0
 40
1.0
 40
1.0
 10
36.0743748467
 20
228.3780391873
 30
0.0
 10
36.0744994405
 20
228.7836038693
 30
0.0
 10
36.2340645549
 20
229.6033441973
 30
0.0
 10
36.9176626085
 20
230.6455313542
 30
0.0
 10
37.9440576526
 20
231.3555909577
 30
0.0
 10
39.1623542482
 20
231.6271959145
 30
0.0
 10
40.3934202859
 20
231.4209828474
 30
0.0
 10
41.4563509302
 20
230.7667452604
 30
0.0
 10
42.1945761367
 20
229.7626305078
 30
0.0
 10
42.3980428772
 20
228.9527199557
 30
0.0
 10
42.4197853737
 20
228.5478214131
 30
0.0
  0
SPLINE
  5
466
100
AcDbEntity
  8
0
100
AcDbSpline
 62
7
  6
CONTINUOUS
 70
0
 71
3
 72
11
 73
7
 74
0
 42
0.0000001
 43
0.0000001
 44
0.0000000001
 40
0.0
 40
0.0
 40
0.0
 40
0.0
 40
0.2495589198
 40
0.4993757519
 40
0.7495408032
 40
1.0
 40
1.0
 40
1.0
 40
1.0
 10
105.4417406373
 20
197.7423743307
 30
0.0
 10
105.4417406373
 20
198.1538016448
 30
0.0
 10
105.6072542073
 20
198.9861184093
 30
0.0
 10
106.3142045189
 20
200.037461234
 30
0.0
 10
107.3695074855
 20
200.7408975229
 30
0.0
 10
108.2038291103
 20
200.9052924971
 30
0.0
 10
108.6167406373
 20
200.9052924971
 30
0.0
  0
SPLINE
  5
467
100
AcDbEntity
  8
0
100
AcDbSpline
 62
7
  6
CONTINUOUS
 70
0
 71
3
 72
11
 73
7
 74
0
 42
0.0000001
 43
0.0000001
 44
0.0000000001
 40
0.0
 40
0.0
 40
0.0
 40
0.0
 40
0.2504591968
 40
0.5006242481
 40
0.7504410802
 40
1.0
 40
1.0
 40
1.0
 40
1.0
 10
108.6167406373
 20
200.9052924971
 30
0.0
 10
109.0296521643
 20
200.9052924971
 30
0.0
 10
109.8639737892
 20
200.7408975229
 30
0.0
 10
110.9192767557
 20
200.037461234
 30
0.0
 10
111.6262270673
 20
198.9861184093
 30
0.0
 10
111.7917406373
 20
198.1538016448
 30
0.0
 10
111.7917406373
 20
197.7423743307
 30
0.0
  0
SPLINE
  5
468
100
AcDbEntity
  8
0
100
AcDbSpline
 62
7
  6
CONTINUOUS
 70
0
 71
3
 72
15
 73
11
 74
0
 42
0.0000001
 43
0.0000001
 44
0.0000000001
 40
0.0
 40
0.0
 40
0.0
 40
0.0
 40
0.1252357821
 40
0.250309765
 40
0.3752128603
 40
0.499991521
 40
0.6247694418
 40
0.7496769689
 40
0.8747594109
 40
1.0
 40
1.0
 40
1.0
 40
1.0
 10
108.6167406373
 20
200.2126048131
 30
0.0
 10
108.9305665201
 20
200.2126048131
 30
0.0
 10
109.5646567721
 20
200.0876067784
 30
0.0
 10
110.3665896552
 20
199.5532542471
 30
0.0
 10
110.9039757119
 20
198.7531770367
 30
0.0
 10
111.0924877705
 20
197.8088577429
 30
0.0
 10
110.9040320568
 20
196.8645127636
 30
0.0
 10
110.3666536948
 20
196.0643916454
 30
0.0
 10
109.5647044117
 20
195.529978755
 30
0.0
 10
108.9305785657
 20
195.4049692001
 30
0.0
 10
108.6167406373
 20
195.4049692001
 30
0.0
  0
SPLINE
  5
469
100
AcDbEntity
  8
0
100
AcDbSpline
 62
7
  6
CONTINUOUS
 70
0
 71
3
 72
15
 73
11
 74
0
 42
0.0000001
 43
0.0000001
 44
0.0000000001
 40
0.0
 40
0.0
 40
0.0
 40
0.0
 40
0.1252357821
 40
0.250309765
 40
0.3752128603
 40
0.499991521
 40
0.6247694418
 40
0.7496769689
 40
0.8747594109
 40
1.0
 40
1.0
 40
1.0
 40
1.0
 10
108.6167406373
 20
195.4049692001
 30
0.0
 10
108.3029147546
 20
195.4049692001
 30
0.0
 10
107.6688245025
 20
195.5299672349
 30
0.0
 10
106.8668916195
 20
196.0643197662
 30
0.0
 10
106.3295055628
 20
196.8643969766
 30
0.0
 10
106.1409935041
 20
197.8087162703
 30
0.0
 10
106.3294492178
 20
198.7530612497
 30
0.0
 10
106.8668275799
 20
199.5531823679
 30
0.0
 10
107.6687768629
 20
200.0875952583
 30
0.0
 10
108.3029027089
 20
200.2126048131
 30
0.0
 10
108.6167406373
 20
200.2126048131
 30
0.0
  0
SPLINE
  5
46A
100
AcDbEntity
  8
0
100
AcDbSpline
 62
7
  6
CONTINUOUS
 70
0
 71
3
 72
11
 73
7
 74
0
 42
0.0000001
 43
0.0000001
 44
0.0000000001
 40
0.0
 40
0.0
 40
0.0
 40
0.0
 40
0.2504591968
 40
0.5006242481
 40
0.7504410802
 40
1.0
 40
1.0
 40
1.0
 40
1.0
 10
108.6167406373
 20
194.5794561642
 30
0.0
 10
108.2038291103
 20
194.5794561642
 30
0.0
 10
107.3695074855
 20
194.7438511384
 30
0.0
 10
106.3142045189
 20
195.4472874273
 30
0.0
 10
105.6072542073
 20
196.498630252
 30
0.0
 10
105.4417406373
 20
197.3309470165
 30
0.0
 10
105.4417406373
 20
197.7423743307
 30
0.0
  0
SPLINE
  5
46B
100
AcDbEntity
  8
0
100
AcDbSpline
 62
7
  6
CONTINUOUS
 70
0
 71
3
 72
11
 73
7
 74
0
 42
0.0000001
 43
0.0000001
 44
0.0000000001
 40
0.0
 40
0.0
 40
0.0
 40
0.0
 40
0.2495589198
 40
0.4993757519
 40
0.7495408032
 40
1.0
 40
1.0
 40
1.0
 40
1.0
 10
111.7917406373
 20
197.7423743307
 30
0.0
 10
111.7917406373
 20
197.3309470165
 30
0.0
 10
111.6262270673
 20
196.498630252
 30
0.0
 10
110.9192767557
 20
195.4472874273
 30
0.0
 10
109.8639737892
 20
194.7438511384
 30
0.0
 10
109.0296521643
 20
194.5794561642
 30
0.0
 10
108.6167406373
 20
194.5794561642
 30
0.0
  0
SPLINE
  5
46C
100
AcDbEntity
  8
0
100
AcDbSpline
 62
7
  6
CONTINUOUS
 70
0
 71
3
 72
9
 73
5
 74
0
 42
0.0000001
 43
0.0000001
 44
0.0000000001
 40
0.0
 40
0.0
 40
0.0
 40
0.0
 40
0.4998624483
 40
1.0
 40
1.0
 40
1.0
 40
1.0
 10
43.9632151966
 20
246.9908158829
 30
0.0
 10
43.6706043994
 20
247.613602071
 30
0.0
 10
42.8264234634
 20
248.7535145799
 30
0.0
 10
41.6029438546
 20
249.4710821184
 30
0.0
 10
40.9522075563
 20
249.6959093845
 30
0.0
  0
SPLINE
  5
46D
100
AcDbEntity
  8
0
100
AcDbSpline
 62
7
  6
CONTINUOUS
 70
0
 71
3
 72
15
 73
11
 74
0
 42
0.0000001
 43
0.0000001
 44
0.0000000001
 40
0.0
 40
0.0
 40
0.0
 40
0.0
 40
0.1247661786
 40
0.2495679977
 40
0.3744356481
 40
0.4993892493
 40
0.6244357028
 40
0.7495692997
 40
0.8747622112
 40
1.0
 40
1.0
 40
1.0
 40
1.0
 10
105.4417406373
 20
196.8554103431
 30
0.0
 10
105.4417406373
 20
196.6487227886
 30
0.0
 10
105.4826909857
 20
196.2341349215
 30
0.0
 10
105.6645814163
 20
195.6371005946
 30
0.0
 10
105.9599287518
 20
195.0866690188
 30
0.0
 10
106.357372938
 20
194.6043092113
 30
0.0
 10
106.8416067943
 20
194.2084672349
 30
0.0
 10
107.3940837975
 20
193.9143715704
 30
0.0
 10
107.9932655759
 20
193.7332516778
 30
0.0
 10
108.4092718136
 20
193.6924921767
 30
0.0
 10
108.6167406373
 20
193.6924921767
 30
0.0
  0
SPLINE
  5
46E
100
AcDbEntity
  8
0
100
AcDbSpline
 62
7
  6
CONTINUOUS
 70
0
 71
3
 72
9
 73
5
 74
0
 42
0.0000001
 43
0.0000001
 44
0.0000000001
 40
0.0
 40
0.0
 40
0.0
 40
0.0
 40
0.2514020637
 40
1.0
 40
1.0
 40
1.0
 40
1.0
 10
113.4285942871
 20
193.7616827205
 30
0.0
 10
113.5645825679
 20
193.9963250366
 30
0.0
 10
114.103765947
 20
194.9306664797
 30
0.0
 10
114.6362956018
 20
195.8688360513
 30
0.0
 10
115.0325455037
 20
196.5724883941
 30
0.0
  0
SPLINE
  5
46F
100
AcDbEntity
  8
0
100
AcDbSpline
 62
7
  6
CONTINUOUS
 70
0
 71
3
 72
9
 73
5
 74
0
 42
0.0000001
 43
0.0000001
 44
0.0000000001
 40
0.0
 40
0.0
 40
0.0
 40
0.0
 40
0.2475455359
 40
1.0
 40
1.0
 40
1.0
 40
1.0
 10
102.2009357709
 20
196.5724883941
 30
0.0
 10
102.3319671635
 20
196.3398055697
 30
0.0
 10
102.8623197449
 20
195.4004276262
 30
0.0
 10
103.3978699552
 20
194.4639742606
 30
0.0
 10
103.8048869875
 20
193.7616827206
 30
0.0
  0
SPLINE
  5
470
100
AcDbEntity
  8
0
100
AcDbSpline
 62
7
  6
CONTINUOUS
 70
0
 71
3
 72
9
 73
5
 74
0
 42
0.0000001
 43
0.0000001
 44
0.0000000001
 40
0.0
 40
0.0
 40
0.0
 40
0.0
 40
0.4946353397
 40
1.0
 40
1.0
 40
1.0
 40
1.0
 10
105.4088382041
 20
191.0373816028
 30
0.0
 10
105.9376435984
 20
191.02407702
 30
0.0
 10
107.006861402
 20
191.0021530768
 30
0.0
 10
108.076293754
 20
190.9941293249
 30
0.0
 10
108.6167406373
 20
190.9941293249
 30
0.0
  0
SPLINE
  5
471
100
AcDbEntity
  8
0
100
AcDbSpline
 62
7
  6
CONTINUOUS
 70
0
 71
3
 72
9
 73
5
 74
0
 42
0.0000001
 43
0.0000001
 44
0.0000000001
 40
0.0
 40
0.0
 40
0.0
 40
0.0
 40
0.255722542
 40
1.0
 40
1.0
 40
1.0
 40
1.0
 10
103.8048869875
 20
193.7616827206
 30
0.0
 10
103.9400134162
 20
193.5285274958
 30
0.0
 10
104.4701041615
 20
192.6177503661
 30
0.0
 10
105.0068107964
 20
191.7108339714
 30
0.0
 10
105.4088382041
 20
191.0373816028
 30
0.0
  0
SPLINE
  5
472
100
AcDbEntity
  8
0
100
AcDbSpline
 62
7
  6
CONTINUOUS
 70
0
 71
3
 72
9
 73
5
 74
0
 42
0.0000001
 43
0.0000001
 44
0.0000000001
 40
0.0
 40
0.0
 40
0.0
 40
0.0
 40
0.505364711
 40
1.0
 40
1.0
 40
1.0
 40
1.0
 10
108.6167406373
 20
190.9941293249
 30
0.0
 10
109.1571875749
 20
190.9941293249
 30
0.0
 10
110.2266199264
 20
191.002153112
 30
0.0
 10
111.2958377305
 20
191.0240770213
 30
0.0
 10
111.8246430705
 20
191.0373816028
 30
0.0
  0
SPLINE
  5
473
100
AcDbEntity
  8
0
100
AcDbSpline
 62
7
  6
CONTINUOUS
 70
0
 71
3
 72
9
 73
5
 74
0
 42
0.0000001
 43
0.0000001
 44
0.0000000001
 40
0.0
 40
0.0
 40
0.0
 40
0.0
 40
0.2436179243
 40
1.0
 40
1.0
 40
1.0
 40
1.0
 10
111.8246430705
 20
191.0373816028
 30
0.0
 10
111.9562351532
 20
191.257816822
 30
0.0
 10
112.4953065219
 20
192.1633037811
 30
0.0
 10
113.0289144495
 20
193.0720512154
 30
0.0
 10
113.4285942871
 20
193.7616827205
 30
0.0
  0
SPLINE
  5
474
100
AcDbEntity
  8
0
100
AcDbSpline
 62
7
  6
CONTINUOUS
 70
0
 71
3
 72
9
 73
5
 74
0
 42
0.0000001
 43
0.0000001
 44
0.0000000001
 40
0.0
 40
0.0
 40
0.0
 40
0.0
 40
0.2514020607
 40
1.0
 40
1.0
 40
1.0
 40
1.0
 10
113.4285942871
 20
199.6421354268
 30
0.0
 10
113.5645825663
 20
199.4074931136
 30
0.0
 10
114.1037659449
 20
198.4731516702
 30
0.0
 10
114.6362956002
 20
197.534982099
 30
0.0
 10
115.0325455037
 20
196.8313297534
 30
0.0
  0
SPLINE
  5
475
100
AcDbEntity
  8
0
100
AcDbSpline
 62
7
  6
CONTINUOUS
 70
0
 71
3
 72
9
 73
5
 74
0
 42
0.0000001
 43
0.0000001
 44
0.0000000001
 40
0.0
 40
0.0
 40
0.0
 40
0.0
 40
0.5053647281
 40
1.0
 40
1.0
 40
1.0
 40
1.0
 10
108.6167406373
 20
202.4096888225
 30
0.0
 10
109.1571875932
 20
202.4096888225
 30
0.0
 10
110.2266199451
 20
202.4016650691
 30
0.0
 10
111.2958377488
 20
202.3797411257
 30
0.0
 10
111.8246430705
 20
202.3664365447
 30
0.0
  0
SPLINE
  5
476
100
AcDbEntity
  8
0
100
AcDbSpline
 62
7
  6
CONTINUOUS
 70
0
 71
3
 72
9
 73
5
 74
0
 42
0.0000001
 43
0.0000001
 44
0.0000000001
 40
0.0
 40
0.0
 40
0.0
 40
0.0
 40
0.2436179191
 40
1.0
 40
1.0
 40
1.0
 40
1.0
 10
111.8246430705
 20
202.3664365447
 30
0.0
 10
111.9562351504
 20
202.1460013301
 30
0.0
 10
112.4953065298
 20
201.2405143774
 30
0.0
 10
113.0289144468
 20
200.3317669368
 30
0.0
 10
113.4285942871
 20
199.6421354268
 30
0.0
  0
SPLINE
  5
477
100
AcDbEntity
  8
0
100
AcDbSpline
 62
7
  6
CONTINUOUS
 70
0
 71
3
 72
9
 73
5
 74
0
 42
0.0000001
 43
0.0000001
 44
0.0000000001
 40
0.0
 40
0.0
 40
0.0
 40
0.0
 40
0.2557225387
 40
1.0
 40
1.0
 40
1.0
 40
1.0
 10
103.8048869875
 20
199.6421354269
 30
0.0
 10
103.9400134144
 20
199.8752906486
 30
0.0
 10
104.4701041602
 20
200.7860677781
 30
0.0
 10
105.0068107946
 20
201.6929841731
 30
0.0
 10
105.4088382041
 20
202.3664365447
 30
0.0
  0
SPLINE
  5
478
100
AcDbEntity
  8
0
100
AcDbSpline
 62
7
  6
CONTINUOUS
 70
0
 71
3
 72
9
 73
5
 74
0
 42
0.0000001
 43
0.0000001
 44
0.0000000001
 40
0.0
 40
0.0
 40
0.0
 40
0.0
 40
0.4946353484
 40
1.0
 40
1.0
 40
1.0
 40
1.0
 10
105.4088382041
 20
202.3664365447
 30
0.0
 10
105.9376436076
 20
202.3797411277
 30
0.0
 10
107.0068614117
 20
202.4016650379
 30
0.0
 10
108.0762937632
 20
202.4096888225
 30
0.0
 10
108.6167406373
 20
202.4096888225
 30
0.0
  0
SPLINE
  5
479
100
AcDbEntity
  8
0
100
AcDbSpline
 62
7
  6
CONTINUOUS
 70
0
 71
3
 72
9
 73
5
 74
0
 42
0.0000001
 43
0.0000001
 44
0.0000000001
 40
0.0
 40
0.0
 40
0.0
 40
0.0
 40
0.2475455355
 40
1.0
 40
1.0
 40
1.0
 40
1.0
 10
102.2009357709
 20
196.8313297534
 30
0.0
 10
102.3319671633
 20
197.0640125775
 30
0.0
 10
102.8623197344
 20
198.0033905268
 30
0.0
 10
103.397869955
 20
198.9398438866
 30
0.0
 10
103.8048869875
 20
199.6421354269
 30
0.0
  0
SPLINE
  5
47A
100
AcDbEntity
  8
0
100
AcDbSpline
 62
7
  6
CONTINUOUS
 70
0
 71
3
 72
15
 73
11
 74
0
 42
0.0000001
 43
0.0000001
 44
0.0000000001
 40
0.0
 40
0.0
 40
0.0
 40
0.0
 40
0.1252377888
 40
0.2504307003
 40
0.3755642972
 40
0.5006107507
 40
0.6255643519
 40
0.7504320023
 40
0.8752338214
 40
1.0
 40
1.0
 40
1.0
 40
1.0
 10
108.6167406373
 20
193.6924921767
 30
0.0
 10
108.824209461
 20
193.6924921767
 30
0.0
 10
109.2402156987
 20
193.7332516778
 30
0.0
 10
109.8393974771
 20
193.9143715704
 30
0.0
 10
110.3918744804
 20
194.2084672349
 30
0.0
 10
110.8761083366
 20
194.6043092113
 30
0.0
 10
111.2735525228
 20
195.0866690188
 30
0.0
 10
111.5688998583
 20
195.6371005946
 30
0.0
 10
111.7507902889
 20
196.2341349215
 30
0.0
 10
111.7917406373
 20
196.6487227886
 30
0.0
 10
111.7917406373
 20
196.8554103431
 30
0.0
  0
SPLINE
  5
47B
100
AcDbEntity
  8
0
100
AcDbSpline
 62
7
  6
CONTINUOUS
 70
0
 71
3
 72
9
 73
5
 74
0
 42
0.0000001
 43
0.0000001
 44
0.0000000001
 40
0.0
 40
0.0
 40
0.0
 40
0.0
 40
0.2514020607
 40
1.0
 40
1.0
 40
1.0
 40
1.0
 10
113.4285942871
 20
194.1070286357
 30
0.0
 10
113.2926060079
 20
193.8723863224
 30
0.0
 10
112.7534226293
 20
192.938044879
 30
0.0
 10
112.220892974
 20
191.9998753078
 30
0.0
 10
111.8246430705
 20
191.2962229621
 30
0.0
  0
SPLINE
  5
47C
100
AcDbEntity
  8
0
100
AcDbSpline
 62
7
  6
CONTINUOUS
 70
0
 71
3
 72
9
 73
5
 74
0
 42
0.0000001
 43
0.0000001
 44
0.0000000001
 40
0.0
 40
0.0
 40
0.0
 40
0.0
 40
0.4946353484
 40
1.0
 40
1.0
 40
1.0
 40
1.0
 10
111.8246430705
 20
191.2962229621
 30
0.0
 10
111.295837667
 20
191.3095275452
 30
0.0
 10
110.2266198629
 20
191.3314514554
 30
0.0
 10
109.1571875114
 20
191.33947524
 30
0.0
 10
108.6167406373
 20
191.33947524
 30
0.0
  0
SPLINE
  5
47D
100
AcDbEntity
  8
0
100
AcDbSpline
 62
7
  6
CONTINUOUS
 70
0
 71
3
 72
9
 73
5
 74
0
 42
0.0000001
 43
0.0000001
 44
0.0000000001
 40
0.0
 40
0.0
 40
0.0
 40
0.0
 40
0.2436179191
 40
1.0
 40
1.0
 40
1.0
 40
1.0
 10
115.0325455037
 20
196.8313297534
 30
0.0
 10
114.9009534238
 20
196.6108945389
 30
0.0
 10
114.3618820444
 20
195.7054075861
 30
0.0
 10
113.8282741275
 20
194.7966601456
 30
0.0
 10
113.4285942871
 20
194.1070286357
 30
0.0
  0
SPLINE
  5
47E
100
AcDbEntity
  8
0
100
AcDbSpline
 62
7
  6
CONTINUOUS
 70
0
 71
3
 72
9
 73
5
 74
0
 42
0.0000001
 43
0.0000001
 44
0.0000000001
 40
0.0
 40
0.0
 40
0.0
 40
0.0
 40
0.2557225387
 40
1.0
 40
1.0
 40
1.0
 40
1.0
 10
103.8048869875
 20
194.1070286357
 30
0.0
 10
103.6697605606
 20
194.3401838575
 30
0.0
 10
103.1396698148
 20
195.2509609869
 30
0.0
 10
102.6029631804
 20
196.1578773818
 30
0.0
 10
102.2009357709
 20
196.8313297534
 30
0.0
  0
SPLINE
  5
47F
100
AcDbEntity
  8
0
100
AcDbSpline
 62
7
  6
CONTINUOUS
 70
0
 71
3
 72
9
 73
5
 74
0
 42
0.0000001
 43
0.0000001
 44
0.0000000001
 40
0.0
 40
0.0
 40
0.0
 40
0.0
 40
0.5053647281
 40
1.0
 40
1.0
 40
1.0
 40
1.0
 10
108.6167406373
 20
191.33947524
 30
0.0
 10
108.0762936814
 20
191.33947524
 30
0.0
 10
107.0068613295
 20
191.3314514866
 30
0.0
 10
105.9376435259
 20
191.3095275431
 30
0.0
 10
105.4088382041
 20
191.2962229621
 30
0.0
  0
SPLINE
  5
480
100
AcDbEntity
  8
0
100
AcDbSpline
 62
7
  6
CONTINUOUS
 70
0
 71
3
 72
9
 73
5
 74
0
 42
0.0000001
 43
0.0000001
 44
0.0000000001
 40
0.0
 40
0.0
 40
0.0
 40
0.0
 40
0.2475455355
 40
1.0
 40
1.0
 40
1.0
 40
1.0
 10
105.4088382041
 20
191.2962229621
 30
0.0
 10
105.2778068118
 20
191.5289057862
 30
0.0
 10
104.7474542406
 20
192.4682837356
 30
0.0
 10
104.21190402
 20
193.4047370954
 30
0.0
 10
103.8048869875
 20
194.1070286357
 30
0.0
  0
SPLINE
  5
481
100
AcDbEntity
  8
0
100
AcDbSpline
 62
7
  6
CONTINUOUS
 70
0
 71
3
 72
15
 73
11
 74
0
 42
0.0000001
 43
0.0000001
 44
0.0000000001
 40
0.0
 40
0.0
 40
0.0
 40
0.0
 40
0.1248102038
 40
0.2496804773
 40
0.3746129096
 40
0.4996053508
 40
0.6246515693
 40
0.7497416786
 40
0.8748628116
 40
1.0
 40
1.0
 40
1.0
 40
1.0
 10
113.4285942872
 20
194.1070286359
 30
0.0
 10
113.3074351285
 20
193.8979733744
 30
0.0
 10
113.0372692991
 20
193.4951774106
 30
0.0
 10
112.5567199094
 20
192.9493683744
 30
0.0
 10
112.0087014962
 20
192.4706181451
 30
0.0
 10
111.4026722562
 20
192.0672552286
 30
0.0
 10
110.7489920289
 20
191.7461385486
 30
0.0
 10
110.0588069509
 20
191.5127679804
 30
0.0
 10
109.344083487
 20
191.3711300722
 30
0.0
 10
108.8590007416
 20
191.33947524
 30
0.0
 10
108.6167406373
 20
191.33947524
 30
0.0
  0
SPLINE
  5
482
100
AcDbEntity
  8
0
100
AcDbSpline
 62
7
  6
CONTINUOUS
 70
0
 71
3
 72
15
 73
11
 74
0
 42
0.0000001
 43
0.0000001
 44
0.0000000001
 40
0.0
 40
0.0
 40
0.0
 40
0.0
 40
0.1251371884
 40
0.2502583214
 40
0.3753484307
 40
0.5003946492
 40
0.6253870904
 40
0.7503195227
 40
0.8751897962
 40
1.0
 40
1.0
 40
1.0
 40
1.0
 10
108.6167406373
 20
191.33947524
 30
0.0
 10
108.374480533
 20
191.33947524
 30
0.0
 10
107.8893977876
 20
191.3711300722
 30
0.0
 10
107.1746743237
 20
191.5127679804
 30
0.0
 10
106.4844892457
 20
191.7461385486
 30
0.0
 10
105.8308090184
 20
192.0672552286
 30
0.0
 10
105.2247797784
 20
192.4706181451
 30
0.0
 10
104.6767613652
 20
192.9493683744
 30
0.0
 10
104.1962119755
 20
193.4951774106
 30
0.0
 10
103.9260461461
 20
193.8979733744
 30
0.0
 10
103.8048869874
 20
194.1070286359
 30
0.0
  0
SPLINE
  5
483
100
AcDbEntity
  8
0
100
AcDbSpline
 62
7
  6
CONTINUOUS
 70
0
 71
3
 72
15
 73
11
 74
0
 42
0.0000001
 43
0.0000001
 44
0.0000000001
 40
0.0
 40
0.0
 40
0.0
 40
0.0
 40
0.1248102038
 40
0.2496804773
 40
0.3746129096
 40
0.4996053508
 40
0.6246515693
 40
0.7497416786
 40
0.8748628116
 40
1.0
 40
1.0
 40
1.0
 40
1.0
 10
103.8048869874
 20
199.6421354266
 30
0.0
 10
103.9260461461
 20
199.8511906882
 30
0.0
 10
104.1962119755
 20
200.253986652
 30
0.0
 10
104.6767613652
 20
200.7997956881
 30
0.0
 10
105.2247797784
 20
201.2785459174
 30
0.0
 10
105.8308090184
 20
201.6819088339
 30
0.0
 10
106.4844892457
 20
202.0030255139
 30
0.0
 10
107.1746743237
 20
202.2363960821
 30
0.0
 10
107.8893977876
 20
202.3780339903
 30
0.0
 10
108.374480533
 20
202.4096888225
 30
0.0
 10
108.6167406373
 20
202.4096888225
 30
0.0
  0
SPLINE
  5
484
100
AcDbEntity
  8
0
100
AcDbSpline
 62
7
  6
CONTINUOUS
 70
0
 71
3
 72
15
 73
11
 74
0
 42
0.0000001
 43
0.0000001
 44
0.0000000001
 40
0.0
 40
0.0
 40
0.0
 40
0.0
 40
0.1251371884
 40
0.2502583214
 40
0.3753484307
 40
0.5003946492
 40
0.6253870904
 40
0.7503195227
 40
0.8751897962
 40
1.0
 40
1.0
 40
1.0
 40
1.0
 10
108.6167406373
 20
202.4096888225
 30
0.0
 10
108.8590007416
 20
202.4096888225
 30
0.0
 10
109.344083487
 20
202.3780339903
 30
0.0
 10
110.0588069509
 20
202.2363960821
 30
0.0
 10
110.7489920289
 20
202.0030255139
 30
0.0
 10
111.4026722562
 20
201.6819088339
 30
0.0
 10
112.0087014962
 20
201.2785459174
 30
0.0
 10
112.5567199094
 20
200.7997956881
 30
0.0
 10
113.0372692991
 20
200.253986652
 30
0.0
 10
113.3074351285
 20
199.8511906882
 30
0.0
 10
113.4285942872
 20
199.6421354266
 30
0.0
  0
SPLINE
  5
485
100
AcDbEntity
  8
0
100
AcDbSpline
 62
7
  6
CONTINUOUS
 70
0
 71
3
 72
23
 73
19
 74
0
 42
0.0000001
 43
0.0000001
 44
0.0000000001
 40
0.0
 40
0.0
 40
0.0
 40
0.0
 40
0.0626410655
 40
0.1252801428
 40
0.1878958413
 40
0.2504893812
 40
0.3130531988
 40
0.375586072
 40
0.4380857591
 40
0.5005546214
 40
0.5629969312
 40
0.6254190453
 40
0.687828897
 40
0.7502353742
 40
0.8126476257
 40
0.8750743489
 40
0.9375231655
 40
1.0
 40
1.0
 40
1.0
 40
1.0
 10
108.6167406373
 20
193.3321136849
 30
0.0
 10
108.7806660435
 20
193.3321136849
 30
0.0
 10
109.1089596118
 20
193.3547759509
 30
0.0
 10
109.591638924
 20
193.4560628711
 30
0.0
 10
110.055772138
 20
193.6227645129
 30
0.0
 10
110.4923628234
 20
193.8516335269
 30
0.0
 10
110.8930929597
 20
194.1383445395
 30
0.0
 10
111.2502950693
 20
194.4773915126
 30
0.0
 10
111.5571272192
 20
194.8623057113
 30
0.0
 10
111.8077168041
 20
195.2857186934
 30
0.0
 10
111.9972638662
 20
195.7395337088
 30
0.0
 10
112.1221404086
 20
196.2150666594
 30
0.0
 10
112.1799574436
 20
196.7032175053
 30
0.0
 10
112.1696077449
 20
197.1946473235
 30
0.0
 10
112.0912954505
 20
197.6799456088
 30
0.0
 10
111.9465016809
 20
198.1498540477
 30
0.0
 10
111.7380692407
 20
198.5952819922
 30
0.0
 10
111.5592156452
 20
198.8704163948
 30
0.0
 10
111.4608329811
 20
199.0009984472
 30
0.0
  0
SPLINE
  5
486
100
AcDbEntity
  8
0
100
AcDbSpline
 62
7
  6
CONTINUOUS
 70
0
 71
3
 72
23
 73
19
 74
0
 42
0.0000001
 43
0.0000001
 44
0.0000000001
 40
0.0
 40
0.0
 40
0.0
 40
0.0
 40
0.0624778141
 40
0.1249275029
 40
0.1873548874
 40
0.249767549
 40
0.3121741829
 40
0.374583929
 40
0.4370056615
 40
0.499447324
 40
0.561915374
 40
0.6244142015
 40
0.6869462831
 40
0.7495094907
 40
0.8121027245
 40
0.874718334
 40
0.9373581625
 40
1.0
 40
1.0
 40
1.0
 40
1.0
 10
105.7714425212
 20
198.9993964999
 30
0.0
 10
105.673157044
 20
198.8687902049
 30
0.0
 10
105.4944985552
 20
198.5936236031
 30
0.0
 10
105.2863468908
 20
198.1481962595
 30
0.0
 10
105.1418158576
 20
197.6783334779
 30
0.0
 10
105.063740975
 20
197.1931213339
 30
0.0
 10
105.0535974954
 20
196.7018120585
 30
0.0
 10
105.1115847703
 20
196.213809212
 30
0.0
 10
105.2365920405
 20
195.7384440514
 30
0.0
 10
105.4262282223
 20
195.2848082423
 30
0.0
 10
105.6768643948
 20
194.8615766117
 30
0.0
 10
105.9837028285
 20
194.4768371853
 30
0.0
 10
106.34087479
 20
194.137950583
 30
0.0
 10
106.7415435872
 20
193.8513786979
 30
0.0
 10
107.1780477631
 20
193.6226226903
 30
0.0
 10
107.642076791
 20
193.4560022721
 30
0.0
 10
108.1246413549
 20
193.3547656584
 30
0.0
 10
108.4528549774
 20
193.3321136849
 30
0.0
 10
108.6167406373
 20
193.3321136849
 30
0.0
  0
SPLINE
  5
487
100
AcDbEntity
  8
0
100
AcDbSpline
 62
7
  6
CONTINUOUS
 70
0
 71
3
 72
15
 73
11
 74
0
 42
0.0000001
 43
0.0000001
 44
0.0000000001
 40
0.0
 40
0.0
 40
0.0
 40
0.0
 40
0.1247659578
 40
0.2495674471
 40
0.374434758
 40
0.4993880635
 40
0.6244344901
 40
0.749567492
 40
0.874761806
 40
1.0
 40
1.0
 40
1.0
 40
1.0
 10
101.5047546902
 20
182.9102100296
 30
0.0
 10
101.5047544971
 20
182.4472308325
 30
0.0
 10
101.5964687209
 20
181.5185557455
 30
0.0
 10
102.0038929791
 20
180.1811972807
 30
0.0
 10
102.665485096
 20
178.9482420776
 30
0.0
 10
103.5557564829
 20
177.8677593239
 30
0.0
 10
104.6404254239
 20
176.9810606532
 30
0.0
 10
105.8779768007
 20
176.3222838135
 30
0.0
 10
107.2201491191
 20
175.9165790082
 30
0.0
 10
108.1520090748
 20
175.825273337
 30
0.0
 10
108.6167406373
 20
175.825273337
 30
0.0
  0
SPLINE
  5
488
100
AcDbEntity
  8
0
100
AcDbSpline
 62
7
  6
CONTINUOUS
 70
0
 71
3
 72
15
 73
11
 74
0
 42
0.0000001
 43
0.0000001
 44
0.0000000001
 40
0.0
 40
0.0
 40
0.0
 40
0.0
 40
0.1247626548
 40
0.2495682703
 40
0.3744430085
 40
0.499403474
 40
0.624451415
 40
0.7495828012
 40
0.8747706298
 40
1.0
 40
1.0
 40
1.0
 40
1.0
 10
104.3069810708
 20
184.5927880508
 30
0.0
 10
104.3237078431
 20
184.3232179108
 30
0.0
 10
104.4085670781
 20
183.7857815927
 30
0.0
 10
104.685076187
 20
183.0188836566
 30
0.0
 10
105.1010944745
 20
182.3169806506
 30
0.0
 10
105.6418181934
 20
181.7053556745
 30
0.0
 10
106.2880202453
 20
181.2055730183
 30
0.0
 10
107.0168750457
 20
180.8354059193
 30
0.0
 10
107.8021548159
 20
180.6078939327
 30
0.0
 10
108.3456416949
 20
180.5567464854
 30
0.0
 10
108.6167406373
 20
180.5567464854
 30
0.0
  0
SPLINE
  5
489
100
AcDbEntity
  8
0
100
AcDbSpline
 62
7
  6
CONTINUOUS
 70
0
 71
3
 72
15
 73
11
 74
0
 42
0.0000001
 43
0.0000001
 44
0.0000000001
 40
0.0
 40
0.0
 40
0.0
 40
0.0
 40
0.1252377887
 40
0.2504307005
 40
0.3755642972
 40
0.5006107508
 40
0.6255643519
 40
0.7504320023
 40
0.8752338214
 40
1.0
 40
1.0
 40
1.0
 40
1.0
 10
108.6167406373
 20
178.4446297949
 30
0.0
 10
108.2349980021
 20
178.4446297949
 30
0.0
 10
107.469546524
 20
178.519627279
 30
0.0
 10
106.3670520506
 20
178.852887877
 30
0.0
 10
105.3504943627
 20
179.394023898
 30
0.0
 10
104.4595040691
 20
180.1223731379
 30
0.0
 10
103.7282067765
 20
181.0099151905
 30
0.0
 10
103.1847676644
 20
182.0227092845
 30
0.0
 10
102.8500892831
 20
183.1212524432
 30
0.0
 10
102.77474059
 20
183.8840941208
 30
0.0
 10
102.7747406373
 20
184.2643992211
 30
0.0
  0
SPLINE
  5
48A
100
AcDbEntity
  8
0
100
AcDbSpline
 62
7
  6
CONTINUOUS
 70
0
 71
3
 72
15
 73
11
 74
0
 42
0.0000001
 43
0.0000001
 44
0.0000000001
 40
0.0
 40
0.0
 40
0.0
 40
0.0
 40
0.1252662737
 40
0.2504784243
 40
0.3756097346
 40
0.5006391662
 40
0.6255633531
 40
0.7504045112
 40
0.8752008267
 40
1.0
 40
1.0
 40
1.0
 40
1.0
 10
108.6167406373
 20
177.2927755717
 30
0.0
 10
108.1382158636
 20
177.2927755717
 30
0.0
 10
107.177871521
 20
177.401431564
 30
0.0
 10
105.813524884
 20
177.8821029025
 30
0.0
 10
104.591590566
 20
178.6559434251
 30
0.0
 10
103.5754530179
 20
179.6835031365
 30
0.0
 10
102.8168746527
 20
180.9122729891
 30
0.0
 10
102.3548618893
 20
182.279683665
 30
0.0
 10
102.212787463
 20
183.7148599585
 30
0.0
 10
102.336832551
 20
184.6700490897
 30
0.0
 10
102.4513582045
 20
185.1328290637
 30
0.0
  0
SPLINE
  5
48B
100
AcDbEntity
  8
0
100
AcDbSpline
 62
7
  6
CONTINUOUS
 70
0
 71
3
 72
15
 73
11
 74
0
 42
0.0000001
 43
0.0000001
 44
0.0000000001
 40
0.0
 40
0.0
 40
0.0
 40
0.0
 40
0.1247661786
 40
0.2495679977
 40
0.3744356481
 40
0.4993892492
 40
0.6244357028
 40
0.7495692995
 40
0.8747622113
 40
1.0
 40
1.0
 40
1.0
 40
1.0
 10
103.2827406373
 20
184.3270137864
 30
0.0
 10
103.2827405941
 20
183.9797786948
 30
0.0
 10
103.3515372269
 20
183.2832710761
 30
0.0
 10
103.6571131403
 20
182.2802534094
 30
0.0
 10
104.1532966775
 20
181.3555283671
 30
0.0
 10
104.8210029011
 20
180.5451638842
 30
0.0
 10
105.6345157779
 20
179.8801493609
 30
0.0
 10
106.5626771451
 20
179.3860686461
 30
0.0
 10
107.5693025338
 20
179.0817872305
 30
0.0
 10
108.2681930138
 20
179.0133112667
 30
0.0
 10
108.6167406373
 20
179.0133112667
 30
0.0
  0
SPLINE
  5
48C
100
AcDbEntity
  8
0
100
AcDbSpline
 62
7
  6
CONTINUOUS
 70
0
 71
3
 72
15
 73
11
 74
0
 42
0.0000001
 43
0.0000001
 44
0.0000000001
 40
0.0
 40
0.0
 40
0.0
 40
0.0
 40
0.1252374897
 40
0.250431055
 40
0.3755641978
 40
0.5006107525
 40
0.6255643581
 40
0.750432016
 40
0.87523381
 40
1.0
 40
1.0
 40
1.0
 40
1.0
 10
108.6167406373
 20
176.4672625381
 30
0.0
 10
108.1520115102
 20
176.4672625381
 30
0.0
 10
107.2201567525
 20
176.5585674273
 30
0.0
 10
105.8779873659
 20
176.9642664254
 30
0.0
 10
104.6404356103
 20
177.6230403082
 30
0.0
 10
103.5557632204
 20
178.5097387795
 30
0.0
 10
102.6654864354
 20
179.59022151
 30
0.0
 10
102.0038901392
 20
180.8231793108
 30
0.0
 10
101.5964650546
 20
182.1605417639
 30
0.0
 10
101.5047512155
 20
183.0892189948
 30
0.0
 10
101.5047498597
 20
183.552199231
 30
0.0
  0
SPLINE
  5
48D
100
AcDbEntity
  8
0
100
AcDbSpline
 62
7
  6
CONTINUOUS
 70
0
 71
3
 72
15
 73
11
 74
0
 42
0.0000001
 43
0.0000001
 44
0.0000000001
 40
0.0
 40
0.0
 40
0.0
 40
0.0
 40
0.1247659702
 40
0.2495673514
 40
0.3744346267
 40
0.4993882946
 40
0.6244348791
 40
0.7495670752
 40
0.8747607356
 40
1.0
 40
1.0
 40
1.0
 40
1.0
 10
102.7747453543
 20
183.6186119061
 30
0.0
 10
102.7747434929
 20
183.2383075951
 30
0.0
 10
102.8500935889
 20
182.4754681208
 30
0.0
 10
103.184769349
 20
181.3769282422
 30
0.0
 10
103.7282058832
 20
180.3641358121
 30
0.0
 10
104.459500632
 20
179.4765931954
 30
0.0
 10
105.3504854217
 20
178.7482434838
 30
0.0
 10
106.3670406517
 20
178.2071076813
 30
0.0
 10
107.4695354988
 20
177.8738412342
 30
0.0
 10
108.2349936588
 20
177.7988424807
 30
0.0
 10
108.6167406373
 20
177.7988424807
 30
0.0
  0
SPLINE
  5
48E
100
AcDbEntity
  8
0
100
AcDbSpline
 62
7
  6
CONTINUOUS
 70
0
 71
3
 72
15
 73
11
 74
0
 42
0.0000001
 43
0.0000001
 44
0.0000000001
 40
0.0
 40
0.0
 40
0.0
 40
0.0
 40
0.125229064
 40
0.2504163911
 40
0.3755471886
 40
0.5005961441
 40
0.6255565176
 40
0.7504311161
 40
0.8752367133
 40
1.0
 40
1.0
 40
1.0
 40
1.0
 10
108.6167406373
 20
179.5446126721
 30
0.0
 10
108.2793198421
 20
179.5446126721
 30
0.0
 10
107.6028484461
 20
179.6087610052
 30
0.0
 10
106.6259834324
 20
179.894048814
 30
0.0
 10
105.7203865763
 20
180.358051046
 30
0.0
 10
104.9191422316
 20
180.9841737645
 30
0.0
 10
104.2509986823
 20
181.7498299042
 30
0.0
 10
103.740089422
 20
182.6276005293
 30
0.0
 10
103.4048432905
 20
183.5853786154
 30
0.0
 10
103.306465682
 20
184.255471406
 30
0.0
 10
103.2894949724
 20
184.5912085567
 30
0.0
  0
SPLINE
  5
48F
100
AcDbEntity
  8
0
100
AcDbSpline
 62
7
  6
CONTINUOUS
 70
0
 71
3
 72
9
 73
5
 74
0
 42
0.0000001
 43
0.0000001
 44
0.0000000001
 40
0.0
 40
0.0
 40
0.0
 40
0.0
 40
0.2448603615
 40
1.0
 40
1.0
 40
1.0
 40
1.0
 10
38.9057864812
 20
235.4783612812
 30
0.0
 10
38.6855372259
 20
235.3391166619
 30
0.0
 10
37.7867131614
 20
234.7693974491
 30
0.0
 10
36.8912343898
 20
234.1943866406
 30
0.0
 10
36.2175358759
 20
233.7563193299
 30
0.0
  0
SPLINE
  5
490
100
AcDbEntity
  8
0
100
AcDbSpline
 62
7
  6
CONTINUOUS
 70
0
 71
3
 72
9
 73
5
 74
0
 42
0.0000001
 43
0.0000001
 44
0.0000000001
 40
0.0
 40
0.0
 40
0.0
 40
0.0
 40
0.2542151139
 40
1.0
 40
1.0
 40
1.0
 40
1.0
 10
41.7658141646
 20
234.0534382067
 30
0.0
 10
41.5243405597
 20
234.1759380614
 30
0.0
 10
40.5735121684
 20
234.655942118
 30
0.0
 10
39.6190029816
 20
235.1286316583
 30
0.0
 10
38.9057864812
 20
235.4783612812
 30
0.0
  0
SPLINE
  5
491
100
AcDbEntity
  8
0
100
AcDbSpline
 62
7
  6
CONTINUOUS
 70
0
 71
3
 72
9
 73
5
 74
0
 42
0.0000001
 43
0.0000001
 44
0.0000000001
 40
0.0
 40
0.0
 40
0.0
 40
0.0
 40
0.2527253892
 40
1.0
 40
1.0
 40
1.0
 40
1.0
 10
36.2175358759
 20
233.7563193299
 30
0.0
 10
35.9900667623
 20
233.6084092769
 30
0.0
 10
35.0910894331
 20
233.0214770388
 30
0.0
 10
34.1963314388
 20
232.4281000051
 30
0.0
 10
33.5292852706
 20
231.9823324521
 30
0.0
  0
SPLINE
  5
492
100
AcDbEntity
  8
0
100
AcDbSpline
 62
7
  6
CONTINUOUS
 70
0
 71
3
 72
9
 73
5
 74
0
 42
0.0000001
 43
0.0000001
 44
0.0000000001
 40
0.0
 40
0.0
 40
0.0
 40
0.0
 40
0.2469433555
 40
1.0
 40
1.0
 40
1.0
 40
1.0
 10
44.969396004
 20
226.1787503013
 30
0.0
 10
44.9553539319
 20
226.4442099174
 30
0.0
 10
44.8984137621
 20
227.5191876714
 30
0.0
 10
44.8410873065
 20
228.5941449988
 30
0.0
 10
44.797618926
 20
229.4036327168
 30
0.0
  0
SPLINE
  5
493
100
AcDbEntity
  8
0
100
AcDbSpline
 62
7
  6
CONTINUOUS
 70
0
 71
3
 72
9
 73
5
 74
0
 42
0.0000001
 43
0.0000001
 44
0.0000000001
 40
0.0
 40
0.0
 40
0.0
 40
0.0
 40
0.2550505782
 40
1.0
 40
1.0
 40
1.0
 40
1.0
 10
44.797618926
 20
229.4036327168
 30
0.0
 10
44.7831332075
 20
229.6733922766
 30
0.0
 10
44.7262125712
 20
230.7310563988
 30
0.0
 10
44.6688005664
 20
231.7886940398
 30
0.0
 10
44.625841848
 20
232.5765702058
 30
0.0
  0
SPLINE
  5
494
100
AcDbEntity
  8
0
100
AcDbSpline
 62
7
  6
CONTINUOUS
 70
0
 71
3
 72
9
 73
5
 74
0
 42
0.0000001
 43
0.0000001
 44
0.0000000001
 40
0.0
 40
0.0
 40
0.0
 40
0.0
 40
0.2462186766
 40
1.0
 40
1.0
 40
1.0
 40
1.0
 10
44.625841848
 20
232.5765702058
 30
0.0
 10
44.3918648564
 20
232.699231932
 30
0.0
 10
43.4409851078
 20
233.1962690784
 30
0.0
 10
42.4870804378
 20
233.6875389452
 30
0.0
 10
41.7658141646
 20
234.0534382067
 30
0.0
  0
SPLINE
  5
495
100
AcDbEntity
  8
0
100
AcDbSpline
 62
7
  6
CONTINUOUS
 70
0
 71
3
 72
9
 73
5
 74
0
 42
0.0000001
 43
0.0000001
 44
0.0000000001
 40
0.0
 40
0.0
 40
0.0
 40
0.0
 40
0.2520606038
 40
1.0
 40
1.0
 40
1.0
 40
1.0
 10
33.7010623486
 20
228.6020189701
 30
0.0
 10
33.6865127575
 20
228.8729679949
 30
0.0
 10
33.6289182017
 20
229.947910902
 30
0.0
 10
33.5718157487
 20
231.0228801349
 30
0.0
 10
33.5292852706
 20
231.8269013855
 30
0.0
  0
SPLINE
  5
496
100
AcDbEntity
  8
0
100
AcDbSpline
 62
7
  6
CONTINUOUS
 70
0
 71
3
 72
9
 73
5
 74
0
 42
0.0000001
 43
0.0000001
 44
0.0000000001
 40
0.0
 40
0.0
 40
0.0
 40
0.0
 40
0.2528621693
 40
1.0
 40
1.0
 40
1.0
 40
1.0
 10
36.7328671101
 20
223.9522134801
 30
0.0
 10
36.4909122048
 20
224.0749574991
 30
0.0
 10
35.5350060065
 20
224.5622664994
 30
0.0
 10
34.5828310201
 20
225.0568705477
 30
0.0
 10
33.8728394266
 20
225.429081481
 30
0.0
  0
SPLINE
  5
497
100
AcDbEntity
  8
0
100
AcDbSpline
 62
7
  6
CONTINUOUS
 70
0
 71
3
 72
9
 73
5
 74
0
 42
0.0000001
 43
0.0000001
 44
0.0000000001
 40
0.0
 40
0.0
 40
0.0
 40
0.0
 40
0.2442250387
 40
1.0
 40
1.0
 40
1.0
 40
1.0
 10
33.8728394266
 20
225.429081481
 30
0.0
 10
33.8587557931
 20
225.6873796701
 30
0.0
 10
33.8011694098
 20
226.7450077402
 30
0.0
 10
33.7439869456
 20
227.8026578322
 30
0.0
 10
33.7010623486
 20
228.6020189701
 30
0.0
  0
SPLINE
  5
498
100
AcDbEntity
  8
0
100
AcDbSpline
 62
7
  6
CONTINUOUS
 70
0
 71
3
 72
9
 73
5
 74
0
 42
0.0000001
 43
0.0000001
 44
0.0000000001
 40
0.0
 40
0.0
 40
0.0
 40
0.0
 40
0.2543558338
 40
1.0
 40
1.0
 40
1.0
 40
1.0
 10
42.2811453986
 20
224.2493323569
 30
0.0
 10
42.054221465
 20
224.101776803
 30
0.0
 10
41.1609958541
 20
223.5233135283
 30
0.0
 10
40.2635941127
 20
222.9513157729
 30
0.0
 10
39.5928947934
 20
222.5272904056
 30
0.0
  0
SPLINE
  5
499
100
AcDbEntity
  8
0
100
AcDbSpline
 62
7
  6
CONTINUOUS
 70
0
 71
3
 72
9
 73
5
 74
0
 42
0.0000001
 43
0.0000001
 44
0.0000000001
 40
0.0
 40
0.0
 40
0.0
 40
0.0
 40
0.2449887703
 40
1.0
 40
1.0
 40
1.0
 40
1.0
 10
39.5928947934
 20
222.5272904056
 30
0.0
 10
39.3586048398
 20
222.6421757694
 30
0.0
 10
38.4028575268
 20
223.1123008035
 30
0.0
 10
37.4500359202
 20
223.5883928666
 30
0.0
 10
36.7328671101
 20
223.9522134801
 30
0.0
  0
SPLINE
  5
49A
100
AcDbEntity
  8
0
100
AcDbSpline
 62
7
  6
CONTINUOUS
 70
0
 71
3
 72
9
 73
5
 74
0
 42
0.0000001
 43
0.0000001
 44
0.0000000001
 40
0.0
 40
0.0
 40
0.0
 40
0.0
 40
0.2463425484
 40
1.0
 40
1.0
 40
1.0
 40
1.0
 10
44.969396004
 20
226.0233192347
 30
0.0
 10
44.7495012777
 20
225.8763699848
 30
0.0
 10
43.8561909977
 20
225.2808543405
 30
0.0
 10
42.9594851626
 20
224.690417605
 30
0.0
 10
42.2811453986
 20
224.2493323569
 30
0.0
  0
SPLINE
  5
49B
100
AcDbEntity
  8
0
100
AcDbSpline
 62
7
  6
CONTINUOUS
 70
0
 71
3
 72
27
 73
23
 74
0
 42
0.0000001
 43
0.0000001
 44
0.0000000001
 40
0.0
 40
0.0
 40
0.0
 40
0.0
 40
0.062441604
 40
0.0936991732
 40
0.1249593288
 40
0.1874199744
 40
0.2498955704
 40
0.2811759957
 40
0.3124603589
 40
0.3749671013
 40
0.4374846487
 40
0.500007561
 40
0.5625295968
 40
0.6250446435
 40
0.687547613
 40
0.7188298047
 40
0.7501079951
 40
0.8125791723
 40
0.8750354852
 40
0.9062956686
 40
0.9375508993
 40
1.0
 40
1.0
 40
1.0
 40
1.0
 10
42.4197853737
 20
229.0804324262
 30
0.0
 10
42.4088640843
 20
229.2838135858
 30
0.0
 10
42.3627250937
 20
229.5884761963
 30
0.0
 10
42.2439505278
 20
229.9788576619
 30
0.0
 10
42.0880845285
 20
230.3561691149
 30
0.0
 10
41.825941827
 20
230.7969602655
 30
0.0
 10
41.4839123279
 20
231.1792067855
 30
0.0
 10
41.17053501
 20
231.4411192209
 30
0.0
 10
40.8333684715
 20
231.671764327
 30
0.0
 10
40.3723521224
 20
231.8974536549
 30
0.0
 10
39.7779399782
 20
232.0570540921
 30
0.0
 10
39.1638204427
 20
232.0999043242
 30
0.0
 10
38.5528761446
 20
232.0242995081
 30
0.0
 10
37.9678664323
 20
231.8331562687
 30
0.0
 10
37.5196117312
 20
231.5831364474
 30
0.0
 10
37.1952755653
 20
231.3348160697
 30
0.0
 10
36.896395516
 20
231.0565156222
 30
0.0
 10
36.5753322771
 20
230.6565450433
 30
0.0
 10
36.3371807684
 20
230.2023711455
 30
0.0
 10
36.2017794193
 20
229.8172653672
 30
0.0
 10
36.1040764795
 20
229.4210664607
 30
0.0
 10
36.0743604331
 20
229.1143488406
 30
0.0
 10
36.0743493461
 20
228.9106502104
 30
0.0
  0
SPLINE
  5
49C
100
AcDbEntity
  8
0
100
AcDbSpline
 62
7
  6
CONTINUOUS
 70
0
 71
3
 72
9
 73
5
 74
0
 42
0.0000001
 43
0.0000001
 44
0.0000000001
 40
0.0
 40
0.0
 40
0.0
 40
0.0
 40
0.2448603578
 40
1.0
 40
1.0
 40
1.0
 40
1.0
 10
33.5292852706
 20
231.8269013855
 30
0.0
 10
33.7495345226
 20
231.9661460027
 30
0.0
 10
34.6483585938
 20
232.5358652051
 30
0.0
 10
35.5438373588
 20
233.110876024
 30
0.0
 10
36.217535876
 20
233.5489433369
 30
0.0
  0
SPLINE
  5
49D
100
AcDbEntity
  8
0
100
AcDbSpline
 62
7
  6
CONTINUOUS
 70
0
 71
3
 72
9
 73
5
 74
0
 42
0.0000001
 43
0.0000001
 44
0.0000000001
 40
0.0
 40
0.0
 40
0.0
 40
0.0
 40
0.2542151107
 40
1.0
 40
1.0
 40
1.0
 40
1.0
 10
41.7658141646
 20
233.8460622137
 30
0.0
 10
42.0072877664
 20
233.7235623605
 30
0.0
 10
42.9581161581
 20
233.2435583044
 30
0.0
 10
43.9126253445
 20
232.7708687636
 30
0.0
 10
44.625841848
 20
232.4211391392
 30
0.0
  0
SPLINE
  5
49E
100
AcDbEntity
  8
0
100
AcDbSpline
 62
7
  6
CONTINUOUS
 70
0
 71
3
 72
9
 73
5
 74
0
 42
0.0000001
 43
0.0000001
 44
0.0000000001
 40
0.0
 40
0.0
 40
0.0
 40
0.0
 40
0.2469433042
 40
1.0
 40
1.0
 40
1.0
 40
1.0
 10
44.625841848
 20
232.4211391392
 30
0.0
 10
44.6398839172
 20
232.1556795782
 30
0.0
 10
44.6968240927
 20
231.0807018245
 30
0.0
 10
44.7541505426
 20
230.0057444968
 30
0.0
 10
44.797618926
 20
229.1962567237
 30
0.0
  0
SPLINE
  5
49F
100
AcDbEntity
  8
0
100
AcDbSpline
 62
7
  6
CONTINUOUS
 70
0
 71
3
 72
9
 73
5
 74
0
 42
0.0000001
 43
0.0000001
 44
0.0000000001
 40
0.0
 40
0.0
 40
0.0
 40
0.0
 40
0.2527253861
 40
1.0
 40
1.0
 40
1.0
 40
1.0
 10
36.217535876
 20
233.5489433369
 30
0.0
 10
36.4450049868
 20
233.6968533881
 30
0.0
 10
37.3439823156
 20
234.2837856266
 30
0.0
 10
38.2387403102
 20
234.8771626598
 30
0.0
 10
38.9057864812
 20
235.3229302146
 30
0.0
  0
SPLINE
  5
4A0
100
AcDbEntity
  8
0
100
AcDbSpline
 62
7
  6
CONTINUOUS
 70
0
 71
3
 72
9
 73
5
 74
0
 42
0.0000001
 43
0.0000001
 44
0.0000000001
 40
0.0
 40
0.0
 40
0.0
 40
0.0
 40
0.2462186747
 40
1.0
 40
1.0
 40
1.0
 40
1.0
 10
38.9057864812
 20
235.3229302146
 30
0.0
 10
39.139763471
 20
235.2002684894
 30
0.0
 10
40.0906432135
 20
234.7032313316
 30
0.0
 10
41.0445478895
 20
234.2119614762
 30
0.0
 10
41.7658141646
 20
233.8460622137
 30
0.0
  0
SPLINE
  5
4A1
100
AcDbEntity
  8
0
100
AcDbSpline
 62
7
  6
CONTINUOUS
 70
0
 71
3
 72
9
 73
5
 74
0
 42
0.0000001
 43
0.0000001
 44
0.0000000001
 40
0.0
 40
0.0
 40
0.0
 40
0.0
 40
0.2550505612
 40
1.0
 40
1.0
 40
1.0
 40
1.0
 10
44.797618926
 20
229.1962567237
 30
0.0
 10
44.8121046435
 20
228.9264971819
 30
0.0
 10
44.8690252817
 20
227.8688330597
 30
0.0
 10
44.9264372847
 20
226.8111954186
 30
0.0
 10
44.969396004
 20
226.0233192347
 30
0.0
  0
SPLINE
  5
4A2
100
AcDbEntity
  8
0
100
AcDbSpline
 62
7
  6
CONTINUOUS
 70
0
 71
3
 72
15
 73
11
 74
0
 42
0.0000001
 43
0.0000001
 44
0.0000000001
 40
0.0
 40
0.0
 40
0.0
 40
0.0
 40
0.1250698533
 40
0.2501188393
 40
0.3751455781
 40
0.5001502021
 40
0.6251343528
 40
0.7501010679
 40
0.8750545733
 40
1.0
 40
1.0
 40
1.0
 40
1.0
 10
41.7658141643
 20
233.8460622138
 30
0.0
 10
41.9817900044
 20
233.7364974063
 30
0.0
 10
42.3998796369
 20
233.4888114713
 30
0.0
 10
42.9727325494
 20
233.0389388658
 30
0.0
 10
43.4819951016
 20
232.5181733484
 30
0.0
 10
43.9188078717
 20
231.9354946857
 30
0.0
 10
44.2757335704
 20
231.3008640229
 30
0.0
 10
44.5466552807
 20
230.6251016119
 30
0.0
 10
44.7269297116
 20
229.9199319648
 30
0.0
 10
44.784645947
 20
229.4378453693
 30
0.0
 10
44.797618926
 20
229.1962567237
 30
0.0
  0
SPLINE
  5
4A3
100
AcDbEntity
  8
0
100
AcDbSpline
 62
7
  6
CONTINUOUS
 70
0
 71
3
 72
15
 73
11
 74
0
 42
0.0000001
 43
0.0000001
 44
0.0000000001
 40
0.0
 40
0.0
 40
0.0
 40
0.0
 40
0.1250698533
 40
0.2501188393
 40
0.3751455781
 40
0.5001502021
 40
0.6251343528
 40
0.7501010679
 40
0.8750545733
 40
1.0
 40
1.0
 40
1.0
 40
1.0
 10
36.7328671103
 20
223.95221348
 30
0.0
 10
36.5168912702
 20
224.0617782875
 30
0.0
 10
36.0988016377
 20
224.3094642225
 30
0.0
 10
35.5259487252
 20
224.759336828
 30
0.0
 10
35.016686173
 20
225.2801023454
 30
0.0
 10
34.579873403
 20
225.8627810081
 30
0.0
 10
34.2229477043
 20
226.4974116708
 30
0.0
 10
33.9520259939
 20
227.1731740819
 30
0.0
 10
33.771751563
 20
227.878343729
 30
0.0
 10
33.7140353276
 20
228.3604303245
 30
0.0
 10
33.7010623486
 20
228.6020189701
 30
0.0
  0
SPLINE
  5
4A4
100
AcDbEntity
  8
0
100
AcDbSpline
 62
7
  6
CONTINUOUS
 70
0
 71
3
 72
27
 73
23
 74
0
 42
0.0000001
 43
0.0000001
 44
0.0000000001
 40
0.0
 40
0.0
 40
0.0
 40
0.0
 40
0.0624421531
 40
0.0937012456
 40
0.1249634709
 40
0.1874248489
 40
0.249902888
 40
0.2811860073
 40
0.312472932
 40
0.3749820728
 40
0.4375013696
 40
0.5000250951
 40
0.5625468259
 40
0.6250604176
 40
0.6875610162
 40
0.7188430424
 40
0.7501210949
 40
0.8125892921
 40
0.8750425891
 40
0.9063017924
 40
0.937558866
 40
1.0
 40
1.0
 40
1.0
 40
1.0
 10
42.8002387421
 20
229.0892939281
 30
0.0
 10
42.7877952818
 20
229.3210216386
 30
0.0
 10
42.7346268189
 20
229.6681615962
 30
0.0
 10
42.5974228087
 20
230.1124092145
 30
0.0
 10
42.4173012126
 20
230.5412924553
 30
0.0
 10
42.1143526366
 20
231.0411301867
 30
0.0
 10
41.7194633978
 20
231.4721595522
 30
0.0
 10
41.3581599356
 20
231.7654921425
 30
0.0
 10
40.9698286035
 20
232.0221627757
 30
0.0
 10
40.4397723865
 20
232.269664606
 30
0.0
 10
39.7585612239
 20
232.4367735906
 30
0.0
 10
39.0576882849
 20
232.4680321023
 30
0.0
 10
38.3641831936
 20
232.3621004407
 30
0.0
 10
37.7047773827
 20
232.1231968924
 30
0.0
 10
37.204265845
 20
231.8205035659
 30
0.0
 10
36.8456511296
 20
231.5238341103
 30
0.0
 10
36.5178375851
 20
231.1936005133
 30
0.0
 10
36.1713718108
 20
230.7228699228
 30
0.0
 10
35.9236909695
 20
230.193549203
 30
0.0
 10
35.7905320003
 20
229.7478945857
 30
0.0
 10
35.7016861181
 20
229.2915322641
 30
0.0
 10
35.6859992753
 20
228.9407056945
 30
0.0
 10
35.6984425325
 20
228.7089817657
 30
0.0
  0
SPLINE
  5
4A5
100
AcDbEntity
  8
0
100
AcDbSpline
 62
7
  6
CONTINUOUS
 70
0
 71
3
 72
15
 73
11
 74
0
 42
0.0000001
 43
0.0000001
 44
0.0000000001
 40
0.0
 40
0.0
 40
0.0
 40
0.0
 40
0.1247808601
 40
0.2496233868
 40
0.3745363155
 40
0.4995194076
 40
0.6245705079
 40
0.7496759863
 40
0.8748326539
 40
1.0
 40
1.0
 40
1.0
 40
1.0
 10
105.6466125921
 20
191.023826635
 30
0.0
 10
105.7031152232
 20
190.8748119807
 30
0.0
 10
105.8390230119
 20
190.5848205952
 30
0.0
 10
106.1060597784
 20
190.1858462861
 30
0.0
 10
106.4304245628
 20
189.8314070618
 30
0.0
 10
106.8046521382
 20
189.529709621
 30
0.0
 10
107.220214943
 20
189.2876183644
 30
0.0
 10
107.6676622255
 20
189.110621662
 30
0.0
 10
108.1366503975
 20
189.0028047242
 30
0.0
 10
108.4568797946
 20
188.9786538238
 30
0.0
 10
108.6167406373
 20
188.9786538238
 30
0.0
  0
SPLINE
  5
4A6
100
AcDbEntity
  8
0
100
AcDbSpline
 62
7
  6
CONTINUOUS
 70
0
 71
3
 72
15
 73
11
 74
0
 42
0.0000001
 43
0.0000001
 44
0.0000000001
 40
0.0
 40
0.0
 40
0.0
 40
0.0
 40
0.1249604583
 40
0.249954182
 40
0.3749738895
 40
0.500007182
 40
0.625039299
 40
0.7500558364
 40
0.8750449396
 40
1.0
 40
1.0
 40
1.0
 40
1.0
 10
35.1447548557
 20
235.5278931756
 30
0.0
 10
35.409962317
 20
235.8145695276
 30
0.0
 10
36.0027179966
 20
236.3337645243
 30
0.0
 10
37.0332602113
 20
236.9088535303
 30
0.0
 10
38.161666331
 20
237.2568941348
 30
0.0
 10
39.3378336027
 20
237.362124112
 30
0.0
 10
40.5101087363
 20
237.2200241765
 30
0.0
 10
41.6270014041
 20
236.8367250771
 30
0.0
 10
42.6389366596
 20
236.229571156
 30
0.0
 10
43.2150563229
 20
235.6920190853
 30
0.0
 10
43.4711053986
 20
235.3971563664
 30
0.0
  0
SPLINE
  5
4A7
100
AcDbEntity
  8
0
100
AcDbSpline
 62
7
  6
CONTINUOUS
 70
0
 71
3
 72
15
 73
11
 74
0
 42
0.0000001
 43
0.0000001
 44
0.0000000001
 40
0.0
 40
0.0
 40
0.0
 40
0.0
 40
0.1257988165
 40
0.2513843458
 40
0.3763154422
 40
0.500599468
 40
0.6246760677
 40
0.7491249765
 40
0.8742773301
 40
1.0
 40
1.0
 40
1.0
 40
1.0
 10
38.5000406373
 20
236.5528367549
 30
0.0
 10
38.5000406373
 20
236.6978824649
 30
0.0
 10
38.5290035808
 20
236.9885293604
 30
0.0
 10
38.656308646
 20
237.4060751761
 30
0.0
 10
38.8608703775
 20
237.7898261443
 30
0.0
 10
39.1339673774
 20
238.1259167541
 30
0.0
 10
39.4659674429
 20
238.4031504201
 30
0.0
 10
39.8463773853
 20
238.6113566707
 30
0.0
 10
40.2620744583
 20
238.741199425
 30
0.0
 10
40.5521827241
 20
238.7706557045
 30
0.0
 10
40.6971406373
 20
238.7706557045
 30
0.0
  0
SPLINE
  5
4A8
100
AcDbEntity
  8
0
100
AcDbSpline
 62
7
  6
CONTINUOUS
 70
0
 71
3
 72
15
 73
11
 74
0
 42
0.0000001
 43
0.0000001
 44
0.0000000001
 40
0.0
 40
0.0
 40
0.0
 40
0.0
 40
0.1257211895
 40
0.2508716494
 40
0.3753194445
 40
0.4993959106
 40
0.6236795428
 40
0.7486116067
 40
0.87419917
 40
1.0
 40
1.0
 40
1.0
 40
1.0
 10
40.6971406373
 20
238.7706557045
 30
0.0
 10
40.842096851
 20
238.7706557045
 30
0.0
 10
41.1322012316
 20
238.7412002219
 30
0.0
 10
41.5478936934
 20
238.6113604567
 30
0.0
 10
41.9283018859
 20
238.4031586421
 30
0.0
 10
42.2603023527
 20
238.1259284138
 30
0.0
 10
42.5334026406
 20
237.7898398015
 30
0.0
 10
42.7379680835
 20
237.4060872754
 30
0.0
 10
42.8652768857
 20
236.9885364288
 30
0.0
 10
42.8942406373
 20
236.6978847939
 30
0.0
 10
42.8942406373
 20
236.5528367549
 30
0.0
  0
SPLINE
  5
4A9
100
AcDbEntity
  8
0
100
AcDbSpline
 62
7
  6
CONTINUOUS
 70
0
 71
3
 72
9
 73
5
 74
0
 42
0.0000001
 43
0.0000001
 44
0.0000000001
 40
0.0
 40
0.0
 40
0.0
 40
0.0
 40
0.4998307812
 40
1.0
 40
1.0
 40
1.0
 40
1.0
 10
100.6970449144
 20
182.3085111855
 30
0.0
 10
100.6970449144
 20
183.1183316271
 30
0.0
 10
100.9505874209
 20
184.7484772983
 30
0.0
 10
101.6922373406
 20
186.221989626
 30
0.0
 10
102.1631067117
 20
186.8815194478
 30
0.0
  0
SPLINE
  5
4AA
100
AcDbEntity
  8
0
100
AcDbSpline
 62
7
  6
CONTINUOUS
 70
0
 71
3
 72
15
 73
11
 74
0
 42
0.0000001
 43
0.0000001
 44
0.0000000001
 40
0.0
 40
0.0
 40
0.0
 40
0.0
 40
0.1252362369
 40
0.2504308962
 40
0.3755648175
 40
0.5006109939
 40
0.6255646806
 40
0.7504322318
 40
0.8752339474
 40
1.0
 40
1.0
 40
1.0
 40
1.0
 10
108.6167406373
 20
174.4189281112
 30
0.0
 10
108.0992372523
 20
174.4189281112
 30
0.0
 10
107.0615520667
 20
174.5205976149
 30
0.0
 10
105.5669477024
 20
174.9723699735
 30
0.0
 10
104.1888462851
 20
175.7059742092
 30
0.0
 10
102.9809890765
 20
176.6933784422
 30
0.0
 10
101.9895972171
 20
177.8965662017
 30
0.0
 10
101.2528816756
 20
179.2695613307
 30
0.0
 10
100.7991827064
 20
180.7588042009
 30
0.0
 10
100.6970449144
 20
181.7929507042
 30
0.0
 10
100.6970449144
 20
182.3085111855
 30
0.0
  0
SPLINE
  5
4AB
100
AcDbEntity
  8
0
100
AcDbSpline
 62
7
  6
CONTINUOUS
 70
0
 71
3
 72
9
 73
5
 74
0
 42
0.0000001
 43
0.0000001
 44
0.0000000001
 40
0.0
 40
0.0
 40
0.0
 40
0.0
 40
0.5000572289
 40
1.0
 40
1.0
 40
1.0
 40
1.0
 10
36.6994750126
 20
243.9478211983
 30
0.0
 10
36.5405287301
 20
244.147023754
 30
0.0
 10
36.2880450987
 20
244.6022824575
 30
0.0
 10
36.2013406373
 20
245.1156114846
 30
0.0
 10
36.2013406373
 20
245.3703973783
 30
0.0
  0
LINE
  5
4AC
100
AcDbEntity
  8
0
100
AcDbLine
 62
7
  6
CONTINUOUS
 10
94.9785725785
 20
179.762858251
 11
95.3019808608
 21
179.1975525391
  0
LINE
  5
4AD
100
AcDbEntity
  8
0
100
AcDbLine
 62
7
  6
CONTINUOUS
 10
94.9785725785
 20
180.5076758532
 11
95.0904758035
 21
180.7033412778
  0
LINE
  5
4AE
100
AcDbEntity
  8
0
100
AcDbLine
 62
7
  6
CONTINUOUS
 10
95.1938400599
 20
180.1411468241
 11
94.9785725785
 21
180.5076758532
  0
SPLINE
  5
4AF
100
AcDbEntity
  8
0
100
AcDbSpline
 62
7
  6
CONTINUOUS
 70
0
 71
3
 72
9
 73
5
 74
0
 42
0.0000001
 43
0.0000001
 44
0.0000000001
 40
0.0
 40
0.0
 40
0.0
 40
0.0
 40
0.4971337711
 40
1.0
 40
1.0
 40
1.0
 40
1.0
 10
115.6850661251
 20
169.4984950732
 30
0.0
 10
115.6454927099
 20
169.5882720619
 30
0.0
 10
115.5470105709
 20
169.7610762263
 30
0.0
 10
115.4160149201
 20
169.910624867
 30
0.0
 10
115.3436923963
 20
169.9785858089
 30
0.0
  0
SPLINE
  5
4B0
100
AcDbEntity
  8
0
100
AcDbSpline
 62
7
  6
CONTINUOUS
 70
0
 71
3
 72
9
 73
5
 74
0
 42
0.0000001
 43
0.0000001
 44
0.0000000001
 40
0.0
 40
0.0
 40
0.0
 40
0.0
 40
0.5028662289
 40
1.0
 40
1.0
 40
1.0
 40
1.0
 10
111.1674474908
 20
173.9029723292
 30
0.0
 10
110.9831417044
 20
174.0761631167
 30
0.0
 10
110.6493140781
 20
174.4572709429
 30
0.0
 10
110.3983434659
 20
174.897642846
 30
0.0
 10
110.2974950851
 20
175.1264293655
 30
0.0
  0
SPLINE
  5
4B1
100
AcDbEntity
  8
0
100
AcDbSpline
 62
7
  6
CONTINUOUS
 70
0
 71
3
 72
9
 73
5
 74
0
 42
0.0000001
 43
0.0000001
 44
0.0000000001
 40
0.0
 40
0.0
 40
0.0
 40
0.0
 40
0.5012286812
 40
1.0
 40
1.0
 40
1.0
 40
1.0
 10
110.2974950851
 20
175.1264293655
 30
0.0
 10
110.1975458297
 20
175.3531761124
 30
0.0
 10
110.0439654392
 20
175.8272732749
 30
0.0
 10
109.992008425
 20
176.3230120275
 30
0.0
 10
109.992008425
 20
176.5695953388
 30
0.0
  0
SPLINE
  5
4B2
100
AcDbEntity
  8
0
100
AcDbSpline
 62
7
  6
CONTINUOUS
 70
0
 71
3
 72
9
 73
5
 74
0
 42
0.0000001
 43
0.0000001
 44
0.0000000001
 40
0.0
 40
0.0
 40
0.0
 40
0.0
 40
0.4987713188
 40
1.0
 40
1.0
 40
1.0
 40
1.0
 10
118.2433406373
 20
181.9631568988
 30
0.0
 10
118.2433406373
 20
182.2097402101
 30
0.0
 10
118.1913836231
 20
182.7054789627
 30
0.0
 10
118.0378032326
 20
183.1795761252
 30
0.0
 10
117.9378539772
 20
183.4063228721
 30
0.0
  0
SPLINE
  5
4B3
100
AcDbEntity
  8
0
100
AcDbSpline
 62
7
  6
CONTINUOUS
 70
0
 71
3
 72
9
 73
5
 74
0
 42
0.0000001
 43
0.0000001
 44
0.0000000001
 40
0.0
 40
0.0
 40
0.0
 40
0.0
 40
0.4971337711
 40
1.0
 40
1.0
 40
1.0
 40
1.0
 10
117.9378539772
 20
183.4063228721
 30
0.0
 10
117.8370055964
 20
183.6351093916
 30
0.0
 10
117.5860349843
 20
184.0754812947
 30
0.0
 10
117.252207358
 20
184.4565891208
 30
0.0
 10
117.0679015716
 20
184.6297799083
 30
0.0
  0
SPLINE
  5
4B4
100
AcDbEntity
  8
0
100
AcDbSpline
 62
7
  6
CONTINUOUS
 70
0
 71
3
 72
9
 73
5
 74
0
 42
0.0000001
 43
0.0000001
 44
0.0000000001
 40
0.0
 40
0.0
 40
0.0
 40
0.0
 40
0.5012286812
 40
1.0
 40
1.0
 40
1.0
 40
1.0
 10
117.9378539772
 20
170.3753554114
 30
0.0
 10
118.0378032326
 20
170.1486086645
 30
0.0
 10
118.1913836231
 20
169.674511502
 30
0.0
 10
118.2433406373
 20
169.1787727494
 30
0.0
 10
118.2433406373
 20
168.9321894381
 30
0.0
  0
SPLINE
  5
4B5
100
AcDbEntity
  8
0
100
AcDbSpline
 62
7
  6
CONTINUOUS
 70
0
 71
3
 72
9
 73
5
 74
0
 42
0.0000001
 43
0.0000001
 44
0.0000000001
 40
0.0
 40
0.0
 40
0.0
 40
0.0
 40
0.4971337711
 40
1.0
 40
1.0
 40
1.0
 40
1.0
 10
112.5502829372
 20
176.0032897037
 30
0.0
 10
112.5898563525
 20
175.913512715
 30
0.0
 10
112.6883384914
 20
175.7407085505
 30
0.0
 10
112.8193341423
 20
175.5911599098
 30
0.0
 10
112.8916566661
 20
175.5231989678
 30
0.0
  0
SPLINE
  5
4B6
100
AcDbEntity
  8
0
100
AcDbSpline
 62
7
  6
CONTINUOUS
 70
0
 71
3
 72
9
 73
5
 74
0
 42
0.0000001
 43
0.0000001
 44
0.0000000001
 40
0.0
 40
0.0
 40
0.0
 40
0.0
 40
0.5028662289
 40
1.0
 40
1.0
 40
1.0
 40
1.0
 10
117.0679015716
 20
171.5988124475
 30
0.0
 10
117.252207358
 20
171.4256216601
 30
0.0
 10
117.5860349843
 20
171.0445138339
 30
0.0
 10
117.8370055964
 20
170.6041419309
 30
0.0
 10
117.9378539772
 20
170.3753554114
 30
0.0
  0
SPLINE
  5
4B7
100
AcDbEntity
  8
0
100
AcDbSpline
 62
7
  6
CONTINUOUS
 70
0
 71
3
 72
9
 73
5
 74
0
 42
0.0000001
 43
0.0000001
 44
0.0000000001
 40
0.0
 40
0.0
 40
0.0
 40
0.0
 40
0.2485011476
 40
1.0
 40
1.0
 40
1.0
 40
1.0
 10
108.6167406373
 20
167.4760622323
 30
0.0
 10
109.1028496078
 20
167.7490951729
 30
0.0
 10
111.0579853913
 20
168.8496412132
 30
0.0
 10
113.0080249232
 20
169.9592601894
 30
0.0
 10
114.46967726
 20
170.7997311418
 30
0.0
  0
SPLINE
  5
4B8
100
AcDbEntity
  8
0
100
AcDbSpline
 62
7
  6
CONTINUOUS
 70
0
 71
3
 72
9
 73
5
 74
0
 42
0.0000001
 43
0.0000001
 44
0.0000000001
 40
0.0
 40
0.0
 40
0.0
 40
0.0
 40
0.2513437743
 40
1.0
 40
1.0
 40
1.0
 40
1.0
 10
102.7112406357
 20
170.8299594875
 30
0.0
 10
103.2044744305
 20
170.5462744541
 30
0.0
 10
105.1685145619
 20
169.4204743415
 30
0.0
 10
107.1390528094
 20
168.3060355046
 30
0.0
 10
108.6167406373
 20
167.4760622323
 30
0.0
  0
SPLINE
  5
4B9
100
AcDbEntity
  8
0
100
AcDbSpline
 62
7
  6
CONTINUOUS
 70
0
 71
3
 72
9
 73
5
 74
0
 42
0.0000001
 43
0.0000001
 44
0.0000000001
 40
0.0
 40
0.0
 40
0.0
 40
0.0
 40
0.2495505569
 40
1.0
 40
1.0
 40
1.0
 40
1.0
 10
96.8057406373
 20
174.2691975883
 30
0.0
 10
97.2956435119
 20
173.9808229643
 30
0.0
 10
99.2598459088
 20
172.827054064
 30
0.0
 10
101.2293427411
 20
171.6822779179
 30
0.0
 10
102.7112406357
 20
170.8299594875
 30
0.0
  0
SPLINE
  5
4BA
100
AcDbEntity
  8
0
100
AcDbSpline
 62
7
  6
CONTINUOUS
 70
0
 71
3
 72
15
 73
11
 74
0
 42
0.0000001
 43
0.0000001
 44
0.0000000001
 40
0.0
 40
0.0
 40
0.0
 40
0.0
 40
0.1247364183
 40
0.2495160228
 40
0.3743857371
 40
0.4993630362
 40
0.6244454131
 40
0.7496079502
 40
0.8748094507
 40
1.0
 40
1.0
 40
1.0
 40
1.0
 10
100.6792406373
 20
181.830649282
 30
0.0
 10
100.6792406373
 20
181.2218009737
 30
0.0
 10
100.8217356732
 20
179.9991777577
 30
0.0
 10
101.4514617144
 20
178.2669415387
 30
0.0
 10
102.463491377
 20
176.7240144525
 30
0.0
 10
103.8037178941
 20
175.4539240464
 30
0.0
 10
105.4005074161
 20
174.5240187452
 30
0.0
 10
107.1689759055
 20
173.9839600451
 30
0.0
 10
109.0136355891
 20
173.8620954353
 30
0.0
 10
110.231903417
 20
174.0648798209
 30
0.0
 10
110.8191438109
 20
174.2338446165
 30
0.0
  0
SPLINE
  5
4BB
100
AcDbEntity
  8
0
100
AcDbSpline
 62
7
  6
CONTINUOUS
 70
0
 71
3
 72
9
 73
5
 74
0
 42
0.0000001
 43
0.0000001
 44
0.0000000001
 40
0.0
 40
0.0
 40
0.0
 40
0.0
 40
0.249538693
 40
1.0
 40
1.0
 40
1.0
 40
1.0
 10
96.8057406373
 20
188.6002859024
 30
0.0
 10
97.2325552312
 20
188.8515244732
 30
0.0
 10
98.943780388
 20
189.8569570675
 30
0.0
 10
100.6589046184
 20
190.855766614
 30
0.0
 10
101.9489313906
 20
191.6003140769
 30
0.0
  0
SPLINE
  5
4BC
100
AcDbEntity
  8
0
100
AcDbSpline
 62
7
  6
CONTINUOUS
 70
0
 71
3
 72
9
 73
5
 74
0
 42
0.0000001
 43
0.0000001
 44
0.0000000001
 40
0.0
 40
0.0
 40
0.0
 40
0.0
 40
0.2513437743
 40
1.0
 40
1.0
 40
1.0
 40
1.0
 10
102.7112406357
 20
171.6601179372
 30
0.0
 10
102.2180068413
 20
171.9438029704
 30
0.0
 10
100.2539667107
 20
173.0696030819
 30
0.0
 10
98.2834284645
 20
174.1840419187
 30
0.0
 10
96.8057406373
 20
175.0140151905
 30
0.0
  0
SPLINE
  5
4BD
100
AcDbEntity
  8
0
100
AcDbSpline
 62
7
  6
CONTINUOUS
 70
0
 71
3
 72
11
 73
7
 74
0
 42
0.0000001
 43
0.0000001
 44
0.0000000001
 40
0.0
 40
0.0
 40
0.0
 40
0.0
 40
0.2501704878
 40
0.5002039946
 40
0.7501228759
 40
1.0
 40
1.0
 40
1.0
 40
1.0
 10
102.2094797635
 20
187.1347468695
 30
0.0
 10
101.9042256309
 20
186.7674668889
 30
0.0
 10
101.3562843117
 20
185.9785789218
 30
0.0
 10
100.7517060407
 20
184.6728420774
 30
0.0
 10
100.3813325755
 20
183.2829886235
 30
0.0
 10
100.2982406373
 20
182.3268325817
 30
0.0
 10
100.2982406373
 20
181.8498209702
 30
0.0
  0
SPLINE
  5
4BE
100
AcDbEntity
  8
0
100
AcDbSpline
 62
7
  6
CONTINUOUS
 70
0
 71
3
 72
15
 73
11
 74
0
 42
0.0000001
 43
0.0000001
 44
0.0000000001
 40
0.0
 40
0.0
 40
0.0
 40
0.0
 40
0.1247527592
 40
0.2495832753
 40
0.3745048103
 40
0.4995143721
 40
0.6245972533
 40
0.7497280456
 40
0.8748739557
 40
1.0
 40
1.0
 40
1.0
 40
1.0
 10
100.7503188514
 20
179.155175904
 30
0.0
 10
100.9239071948
 20
178.6523331144
 30
0.0
 10
101.3697916557
 20
177.6773530969
 30
0.0
 10
102.306164245
 20
176.3720602388
 30
0.0
 10
103.4763981872
 20
175.2691388696
 30
0.0
 10
104.8369162607
 20
174.4101668027
 30
0.0
 10
106.3373063469
 20
173.8266631907
 30
0.0
 10
107.9222105674
 20
173.5403083033
 30
0.0
 10
109.5322434071
 20
173.5614770841
 30
0.0
 10
110.5846219052
 20
173.7806773782
 30
0.0
 10
111.094136836
 20
173.9390261726
 30
0.0
  0
SPLINE
  5
4BF
100
AcDbEntity
  8
0
100
AcDbSpline
 62
7
  6
CONTINUOUS
 70
0
 71
3
 72
9
 73
5
 74
0
 42
0.0000001
 43
0.0000001
 44
0.0000000001
 40
0.0
 40
0.0
 40
0.0
 40
0.0
 40
0.2502759943
 40
1.0
 40
1.0
 40
1.0
 40
1.0
 10
113.9227678892
 20
171.3148555218
 30
0.0
 10
113.4788835805
 20
171.058853735
 30
0.0
 10
111.7066451002
 20
170.0336506765
 30
0.0
 10
109.9395672711
 20
168.9995436329
 30
0.0
 10
108.6167406373
 20
168.2208798346
 30
0.0
  0
SPLINE
  5
4C0
100
AcDbEntity
  8
0
100
AcDbSpline
 62
7
  6
CONTINUOUS
 70
0
 71
3
 72
9
 73
5
 74
0
 42
0.0000001
 43
0.0000001
 44
0.0000000001
 40
0.0
 40
0.0
 40
0.0
 40
0.0
 40
0.2495505564
 40
1.0
 40
1.0
 40
1.0
 40
1.0
 10
108.6167406373
 20
168.2208798346
 30
0.0
 10
108.1268377634
 20
168.5092544582
 30
0.0
 10
106.1626353744
 20
169.6630233744
 30
0.0
 10
104.1931385321
 20
170.8077995058
 30
0.0
 10
102.7112406357
 20
171.6601179372
 30
0.0
  0
SPLINE
  5
4C1
100
AcDbEntity
  8
0
100
AcDbSpline
 62
7
  6
CONTINUOUS
 70
0
 71
3
 72
15
 73
11
 74
0
 42
0.0000001
 43
0.0000001
 44
0.0000000001
 40
0.0
 40
0.0
 40
0.0
 40
0.0
 40
0.1251902021
 40
0.2503203032
 40
0.375388154
 40
0.500395844
 40
0.6253495698
 40
0.7502592157
 40
0.8751376801
 40
1.0
 40
1.0
 40
1.0
 40
1.0
 10
102.7112406394
 20
171.660117935
 30
0.0
 10
102.2653508609
 20
171.9165729025
 30
0.0
 10
101.4062474068
 20
172.4883444355
 30
0.0
 10
100.2415328843
 20
173.5058757978
 30
0.0
 10
99.219866378
 20
174.6663265343
 30
0.0
 10
98.3590352375
 20
175.9496815971
 30
0.0
 10
97.6736984458
 20
177.334005601
 30
0.0
 10
97.1756139006
 20
178.7956915993
 30
0.0
 10
96.8733073127
 20
180.3093800444
 30
0.0
 10
96.8057406373
 20
181.33678811
 30
0.0
 10
96.8057406373
 20
181.8498209702
 30
0.0
  0
SPLINE
  5
4C2
100
AcDbEntity
  8
0
100
AcDbSpline
 62
7
  6
CONTINUOUS
 70
0
 71
3
 72
15
 73
11
 74
0
 42
0.0000001
 43
0.0000001
 44
0.0000000001
 40
0.0
 40
0.0
 40
0.0
 40
0.0
 40
0.1248751803
 40
0.2497698321
 40
0.37468593
 40
0.4996426538
 40
0.624645329
 40
0.7497037113
 40
0.8748128481
 40
1.0
 40
1.0
 40
1.0
 40
1.0
 10
96.8057406373
 20
181.8498209702
 30
0.0
 10
96.8057406373
 20
182.3230541308
 30
0.0
 10
96.8632146635
 20
183.2705948834
 30
0.0
 10
97.1205375206
 20
184.67037995
 30
0.0
 10
97.5452817337
 20
186.0293048196
 30
0.0
 10
98.1312021138
 20
187.3272989536
 30
0.0
 10
98.869780608
 20
188.5455452714
 30
0.0
 10
99.7503093545
 20
189.6662871523
 30
0.0
 10
100.7597448974
 20
190.6731743788
 30
0.0
 10
101.5092704508
 20
191.2589271867
 30
0.0
 10
101.899987141
 20
191.5280191083
 30
0.0
  0
SPLINE
  5
4C3
100
AcDbEntity
  8
0
100
AcDbSpline
 62
7
  6
CONTINUOUS
 70
0
 71
3
 72
9
 73
5
 74
0
 42
0.0000001
 43
0.0000001
 44
0.0000000001
 40
0.0
 40
0.0
 40
0.0
 40
0.0
 40
0.5001048163
 40
1.0
 40
1.0
 40
1.0
 40
1.0
 10
96.6947362088
 20
174.4783519854
 30
0.0
 10
96.2087202521
 20
175.4097438908
 30
0.0
 10
95.454597603
 20
177.3941546712
 30
0.0
 10
95.1885527662
 20
179.5003385776
 30
0.0
 10
95.1805469759
 20
180.5504400958
 30
0.0
  0
SPLINE
  5
4C4
100
AcDbEntity
  8
0
100
AcDbSpline
 62
7
  6
CONTINUOUS
 70
0
 71
3
 72
9
 73
5
 74
0
 42
0.0000001
 43
0.0000001
 44
0.0000000001
 40
0.0
 40
0.0
 40
0.0
 40
0.0
 40
0.4999011879
 40
1.0
 40
1.0
 40
1.0
 40
1.0
 10
95.1801591762
 20
180.9178297538
 30
0.0
 10
95.1801594343
 20
179.8823427069
 30
0.0
 10
95.4231263228
 20
177.8038157756
 30
0.0
 10
96.1418123515
 20
175.8384659681
 30
0.0
 10
96.6078994086
 20
174.9133474829
 30
0.0
  0
SPLINE
  5
4C5
100
AcDbEntity
  8
0
100
AcDbSpline
 62
7
  6
CONTINUOUS
 70
0
 71
3
 72
11
 73
7
 74
0
 42
0.0000001
 43
0.0000001
 44
0.0000000001
 40
0.0
 40
0.0
 40
0.0
 40
0.0
 40
0.2497698665
 40
0.4996965949
 40
0.7497789632
 40
1.0
 40
1.0
 40
1.0
 40
1.0
 10
97.1216243827
 20
173.9870012283
 30
0.0
 10
97.5080656944
 20
173.3509397356
 30
0.0
 10
98.3894107235
 20
172.1407087527
 30
0.0
 10
99.9937424097
 20
170.571502171
 30
0.0
 10
101.8370502763
 20
169.2891334324
 30
0.0
 10
103.1924054248
 20
168.6490484999
 30
0.0
 10
103.8906920397
 20
168.3876870097
 30
0.0
  0
SPLINE
  5
4C6
100
AcDbEntity
  8
0
100
AcDbSpline
 62
7
  6
CONTINUOUS
 70
0
 71
3
 72
15
 73
11
 74
0
 42
0.0000001
 43
0.0000001
 44
0.0000000001
 40
0.0
 40
0.0
 40
0.0
 40
0.0
 40
0.1251459515
 40
0.2502576949
 40
0.375340464
 40
0.5003816904
 40
0.6253721668
 40
0.750306636
 40
0.8751821497
 40
1.0
 40
1.0
 40
1.0
 40
1.0
 10
108.2973345702
 20
167.6379835625
 30
0.0
 10
107.7433712832
 20
167.6511287687
 30
0.0
 10
106.6359993431
 20
167.7457849232
 30
0.0
 10
105.0062075895
 20
168.0909780715
 30
0.0
 10
103.4314592772
 20
168.6339723213
 30
0.0
 10
101.936099607
 20
169.3665040249
 30
0.0
 10
100.5429476619
 20
170.2773598883
 30
0.0
 10
99.2732921772
 20
171.3526701805
 30
0.0
 10
98.1467477335
 20
172.575714268
 30
0.0
 10
97.5020324036
 20
173.4779827776
 30
0.0
 10
97.2092005612
 20
173.9466934949
 30
0.0
  0
SPLINE
  5
4C7
100
AcDbEntity
  8
0
100
AcDbSpline
 62
7
  6
CONTINUOUS
 70
0
 71
3
 72
9
 73
5
 74
0
 42
0.0000001
 43
0.0000001
 44
0.0000000001
 40
0.0
 40
0.0
 40
0.0
 40
0.0
 40
0.5001018082
 40
1.0
 40
1.0
 40
1.0
 40
1.0
 10
96.6492057724
 20
174.9338847632
 30
0.0
 10
96.1776061682
 20
175.8542496881
 30
0.0
 10
95.4464108031
 20
177.8111331704
 30
0.0
 10
95.1884277582
 20
179.8842190776
 30
0.0
 10
95.1805469759
 20
180.9179235695
 30
0.0
  0
SPLINE
  5
4C8
100
AcDbEntity
  8
0
100
AcDbSpline
 62
7
  6
CONTINUOUS
 70
0
 71
3
 72
9
 73
5
 74
0
 42
0.0000001
 43
0.0000001
 44
0.0000000001
 40
0.0
 40
0.0
 40
0.0
 40
0.0
 40
0.4997414158
 40
1.0
 40
1.0
 40
1.0
 40
1.0
 10
97.4407406373
 20
163.192870768
 30
0.0
 10
97.4407406373
 20
162.9953837618
 30
0.0
 10
97.5197360449
 20
162.5962480415
 30
0.0
 10
97.7470547654
 20
162.2588629291
 30
0.0
 10
97.8871099028
 20
162.1193407438
 30
0.0
  0
SPLINE
  5
4C9
100
AcDbEntity
  8
0
100
AcDbSpline
 62
7
  6
CONTINUOUS
 70
0
 71
3
 72
9
 73
5
 74
0
 42
0.0000001
 43
0.0000001
 44
0.0000000001
 40
0.0
 40
0.0
 40
0.0
 40
0.0
 40
0.4997427007
 40
1.0
 40
1.0
 40
1.0
 40
1.0
 10
97.8871099028
 20
162.1193407438
 30
0.0
 10
98.0273695108
 20
161.9796148659
 30
0.0
 10
98.3664706619
 20
161.7531519635
 30
0.0
 10
98.7665567764
 20
161.6746700481
 30
0.0
 10
98.9647406372
 20
161.6746700481
 30
0.0
  0
SPLINE
  5
4CA
100
AcDbEntity
  8
0
100
AcDbSpline
 62
7
  6
CONTINUOUS
 70
0
 71
3
 72
9
 73
5
 74
0
 42
0.0000001
 43
0.0000001
 44
0.0000000001
 40
0.0
 40
0.0
 40
0.0
 40
0.0
 40
0.4997414158
 40
1.0
 40
1.0
 40
1.0
 40
1.0
 10
97.4407406373
 20
191.9295451239
 30
0.0
 10
97.4407406373
 20
192.1270321301
 30
0.0
 10
97.5197360449
 20
192.5261678504
 30
0.0
 10
97.7470547654
 20
192.8635529628
 30
0.0
 10
97.8871099028
 20
193.0030751481
 30
0.0
  0
SPLINE
  5
4CB
100
AcDbEntity
  8
0
100
AcDbSpline
 62
7
  6
CONTINUOUS
 70
0
 71
3
 72
9
 73
5
 74
0
 42
0.0000001
 43
0.0000001
 44
0.0000000001
 40
0.0
 40
0.0
 40
0.0
 40
0.0
 40
0.4997427007
 40
1.0
 40
1.0
 40
1.0
 40
1.0
 10
97.8871099028
 20
193.0030751481
 30
0.0
 10
98.0273695108
 20
193.1428010261
 30
0.0
 10
98.366470662
 20
193.3692639285
 30
0.0
 10
98.7665567765
 20
193.4477458438
 30
0.0
 10
98.9647406373
 20
193.4477458438
 30
0.0
  0
SPLINE
  5
4CC
100
AcDbEntity
  8
0
100
AcDbSpline
 62
7
  6
CONTINUOUS
 70
0
 71
3
 72
9
 73
5
 74
0
 42
0.0000001
 43
0.0000001
 44
0.0000000001
 40
0.0
 40
0.0
 40
0.0
 40
0.0
 40
0.2919276362
 40
1.0
 40
1.0
 40
1.0
 40
1.0
 10
121.4454093851
 20
193.5444548528
 30
0.0
 10
121.4867770757
 20
193.5456061876
 30
0.0
 10
121.6284765944
 20
193.5496917916
 30
0.0
 10
121.7701682349
 20
193.5544760935
 30
0.0
 10
121.8705334856
 20
193.5559757235
 30
0.0
  0
SPLINE
  5
4CD
100
AcDbEntity
  8
0
100
AcDbSpline
 62
7
  6
CONTINUOUS
 70
0
 71
3
 72
9
 73
5
 74
0
 42
0.0000001
 43
0.0000001
 44
0.0000000001
 40
0.0
 40
0.0
 40
0.0
 40
0.0
 40
0.2858559891
 40
1.0
 40
1.0
 40
1.0
 40
1.0
 10
121.8705334856
 20
193.5559757235
 30
0.0
 10
121.8816370115
 20
193.5561416293
 30
0.0
 10
121.9204799248
 20
193.5565967287
 30
0.0
 10
121.9593419227
 20
193.5565774148
 30
0.0
 10
121.9870708737
 20
193.5557058075
 30
0.0
  0
SPLINE
  5
4CE
100
AcDbEntity
  8
0
100
AcDbSpline
 62
7
  6
CONTINUOUS
 70
0
 71
3
 72
9
 73
5
 74
0
 42
0.0000001
 43
0.0000001
 44
0.0000000001
 40
0.0
 40
0.0
 40
0.0
 40
0.0
 40
0.5002572993
 40
1.0
 40
1.0
 40
1.0
 40
1.0
 10
98.9647406374
 20
161.907114414
 30
0.0
 10
98.7665567765
 20
161.907114414
 30
0.0
 10
98.366470662
 20
161.9855963293
 30
0.0
 10
98.0273695109
 20
162.2120592318
 30
0.0
 10
97.8871099028
 20
162.3517851097
 30
0.0
  0
SPLINE
  5
4CF
100
AcDbEntity
  8
0
100
AcDbSpline
 62
7
  6
CONTINUOUS
 70
0
 71
3
 72
9
 73
5
 74
0
 42
0.0000001
 43
0.0000001
 44
0.0000000001
 40
0.0
 40
0.0
 40
0.0
 40
0.0
 40
0.5002585842
 40
1.0
 40
1.0
 40
1.0
 40
1.0
 10
97.8871099028
 20
162.3517851097
 30
0.0
 10
97.7470547654
 20
162.491307295
 30
0.0
 10
97.5197360449
 20
162.8286924074
 30
0.0
 10
97.4407406373
 20
163.2278281277
 30
0.0
 10
97.4407406373
 20
163.4253151339
 30
0.0
  0
SPLINE
  5
4D0
100
AcDbEntity
  8
0
100
AcDbSpline
 62
7
  6
CONTINUOUS
 70
0
 71
3
 72
9
 73
5
 74
0
 42
0.0000001
 43
0.0000001
 44
0.0000000001
 40
0.0
 40
0.0
 40
0.0
 40
0.0
 40
0.4999621002
 40
1.0
 40
1.0
 40
1.0
 40
1.0
 10
37.4713106242
 20
265.8975203449
 30
0.0
 10
37.4713106242
 20
266.8320866786
 30
0.0
 10
37.2634807884
 20
268.7071673908
 30
0.0
 10
36.6475116604
 20
270.4903215072
 30
0.0
 10
36.2469389655
 20
271.3348454006
 30
0.0
  0
SPLINE
  5
4D1
100
AcDbEntity
  8
0
100
AcDbSpline
 62
7
  6
CONTINUOUS
 70
0
 71
3
 72
9
 73
5
 74
0
 42
0.0000001
 43
0.0000001
 44
0.0000000001
 40
0.0
 40
0.0
 40
0.0
 40
0.0
 40
0.1976658122
 40
1.0
 40
1.0
 40
1.0
 40
1.0
 10
36.2013406373
 20
278.3127690929
 30
0.0
 10
36.138066286
 20
278.308222191
 30
0.0
 10
35.817719727
 20
278.2885829348
 30
0.0
 10
35.4969208686
 20
278.2774351999
 30
0.0
 10
35.2395330263
 20
278.2699852593
 30
0.0
  0
SPLINE
  5
4D2
100
AcDbEntity
  8
0
100
AcDbSpline
 62
7
  6
CONTINUOUS
 70
0
 71
3
 72
9
 73
5
 74
0
 42
0.0000001
 43
0.0000001
 44
0.0000000001
 40
0.0
 40
0.0
 40
0.0
 40
0.0
 40
0.1978999884
 40
1.0
 40
1.0
 40
1.0
 40
1.0
 10
36.2013406373
 20
250.9507392185
 30
0.0
 10
36.1381124444
 20
250.9439255711
 30
0.0
 10
35.818083999
 20
250.914498196
 30
0.0
 10
35.4970417557
 20
250.8977570802
 30
0.0
 10
35.2395330263
 20
250.886579759
 30
0.0
  0
SPLINE
  5
4D3
100
AcDbEntity
  8
0
100
AcDbSpline
 62
7
  6
CONTINUOUS
 70
0
 71
3
 72
15
 73
11
 74
0
 42
0.0000001
 43
0.0000001
 44
0.0000000001
 40
0.0
 40
0.0
 40
0.0
 40
0.0
 40
0.1747670398
 40
0.3437580341
 40
0.5011235414
 40
0.6420925137
 40
0.7627538184
 40
0.8609965806
 40
0.9378287233
 40
1.0
 40
1.0
 40
1.0
 40
1.0
 10
167.0113406373
 20
212.6500443368
 30
0.0
 10
167.2178635412
 20
212.6500443368
 30
0.0
 10
167.6242210009
 20
212.636549708
 30
0.0
 10
168.213829784
 20
212.5765310847
 30
0.0
 10
168.7580394916
 20
212.4790531752
 30
0.0
 10
169.2363775659
 20
212.3482063831
 30
0.0
 10
169.6322087397
 20
212.1890080303
 30
0.0
 10
169.9324202949
 20
212.0062767948
 30
0.0
 10
170.1321669424
 20
211.8023460914
 30
0.0
 10
170.1863406373
 20
211.637598426
 30
0.0
 10
170.1863406373
 20
211.5641303818
 30
0.0
  0
SPLINE
  5
4D4
100
AcDbEntity
  8
0
100
AcDbSpline
 62
7
  6
CONTINUOUS
 70
0
 71
3
 72
15
 73
11
 74
0
 42
0.0000001
 43
0.0000001
 44
0.0000000001
 40
0.0
 40
0.0
 40
0.0
 40
0.0
 40
0.0621712542
 40
0.1390033517
 40
0.2372460791
 40
0.3579073537
 40
0.4988763135
 40
0.6562418332
 40
0.825232911
 40
1.0
 40
1.0
 40
1.0
 40
1.0
 10
170.1863406373
 20
205.0486466514
 30
0.0
 10
170.1863406373
 20
204.9751786335
 30
0.0
 10
170.2405142253
 20
204.810431025
 30
0.0
 10
170.4402608021
 20
204.6065004029
 30
0.0
 10
170.7404721962
 20
204.4237691706
 30
0.0
 10
171.1363032708
 20
204.2645707961
 30
0.0
 10
171.6146412977
 20
204.1337239618
 30
0.0
 10
172.1588510997
 20
204.0362459949
 30
0.0
 10
172.7484600567
 20
203.9762273582
 30
0.0
 10
173.1548176743
 20
203.9627326964
 30
0.0
 10
173.3613406373
 20
203.9627326964
 30
0.0
  0
SPLINE
  5
4D5
100
AcDbEntity
  8
0
100
AcDbSpline
 62
7
  6
CONTINUOUS
 70
0
 71
3
 72
15
 73
11
 74
0
 42
0.0000001
 43
0.0000001
 44
0.0000000001
 40
0.0
 40
0.0
 40
0.0
 40
0.0
 40
0.1747670398
 40
0.3437580341
 40
0.5011235414
 40
0.6420925137
 40
0.7627538184
 40
0.8609965806
 40
0.9378287233
 40
1.0
 40
1.0
 40
1.0
 40
1.0
 10
192.4113406373
 20
203.9627326964
 30
0.0
 10
192.6178635412
 20
203.9627326964
 30
0.0
 10
193.0242210009
 20
203.9762273252
 30
0.0
 10
193.613829784
 20
204.0362459485
 30
0.0
 10
194.1580394916
 20
204.1337238581
 30
0.0
 10
194.6363775659
 20
204.2645706502
 30
0.0
 10
195.0322087397
 20
204.423769003
 30
0.0
 10
195.3324202949
 20
204.6065002384
 30
0.0
 10
195.5321669424
 20
204.8104309418
 30
0.0
 10
195.5863406373
 20
204.9751786073
 30
0.0
 10
195.5863406373
 20
205.0486466514
 30
0.0
  0
SPLINE
  5
4D6
100
AcDbEntity
  8
0
100
AcDbSpline
 62
7
  6
CONTINUOUS
 70
0
 71
3
 72
15
 73
11
 74
0
 42
0.0000001
 43
0.0000001
 44
0.0000000001
 40
0.0
 40
0.0
 40
0.0
 40
0.0
 40
0.0621712542
 40
0.1390033517
 40
0.2372460791
 40
0.3579073537
 40
0.4988763135
 40
0.6562418332
 40
0.825232911
 40
1.0
 40
1.0
 40
1.0
 40
1.0
 10
195.5863406373
 20
211.5641303818
 30
0.0
 10
195.5863406373
 20
211.6375983997
 30
0.0
 10
195.6405142253
 20
211.8023460083
 30
0.0
 10
195.8402608021
 20
212.0062766303
 30
0.0
 10
196.1404721962
 20
212.1890078627
 30
0.0
 10
196.5363032708
 20
212.3482062371
 30
0.0
 10
197.0146412977
 20
212.4790530714
 30
0.0
 10
197.5588510997
 20
212.5765310384
 30
0.0
 10
198.1484600567
 20
212.636549675
 30
0.0
 10
198.5548176743
 20
212.6500443368
 30
0.0
 10
198.7613406373
 20
212.6500443368
 30
0.0
  0
SPLINE
  5
4D7
100
AcDbEntity
  8
0
100
AcDbSpline
 62
7
  6
CONTINUOUS
 70
0
 71
3
 72
21
 73
17
 74
0
 42
0.0000001
 43
0.0000001
 44
0.0000000001
 40
0.0
 40
0.0
 40
0.0
 40
0.0
 40
0.0310871368
 40
0.0695161788
 40
0.1186454553
 40
0.1789901576
 40
0.2494814005
 40
0.3281926723
 40
0.4999877698
 40
0.6717836138
 40
0.7504983622
 40
0.8209948722
 40
0.8813463042
 40
0.9304803862
 40
0.968912348
 40
1.0
 40
1.0
 40
1.0
 40
1.0
 10
155.0225406373
 20
208.4975093727
 30
0.0
 10
155.0225406373
 20
208.4405075993
 30
0.0
 10
155.0646251482
 20
208.3126828582
 30
0.0
 10
155.2195595717
 20
208.1543909664
 30
0.0
 10
155.4525445186
 20
208.0125874052
 30
0.0
 10
155.7597037622
 20
207.8891041164
 30
0.0
 10
156.1308963727
 20
207.7875047289
 30
0.0
 10
156.7109069903
 20
207.6837928472
 30
0.0
 10
157.4862737668
 20
207.6350249279
 30
0.0
 10
158.2616475652
 20
207.6837778716
 30
0.0
 10
158.8416778883
 20
207.787480335
 30
0.0
 10
159.2128985555
 20
207.8890832482
 30
0.0
 10
159.5200927602
 20
208.0125626397
 30
0.0
 10
159.7531029783
 20
208.1543766679
 30
0.0
 10
159.9080512744
 20
208.3126761773
 30
0.0
 10
159.9501406373
 20
208.4405066546
 30
0.0
 10
159.9501406373
 20
208.4975093727
 30
0.0
  0
SPLINE
  5
4D8
100
AcDbEntity
  8
0
100
AcDbSpline
 62
7
  6
CONTINUOUS
 70
0
 71
3
 72
21
 73
17
 74
0
 42
0.0000001
 43
0.0000001
 44
0.0000000001
 40
0.0
 40
0.0
 40
0.0
 40
0.0
 40
0.0310871368
 40
0.0695161788
 40
0.1186454553
 40
0.1789901576
 40
0.2494814005
 40
0.3281926723
 40
0.4999877698
 40
0.6717836138
 40
0.7504983622
 40
0.8209948722
 40
0.8813463042
 40
0.9304803862
 40
0.968912348
 40
1.0
 40
1.0
 40
1.0
 40
1.0
 10
205.8225406373
 20
208.4975093727
 30
0.0
 10
205.8225406373
 20
208.4405075993
 30
0.0
 10
205.8646251482
 20
208.3126828582
 30
0.0
 10
206.0195595717
 20
208.1543909664
 30
0.0
 10
206.2525445186
 20
208.0125874052
 30
0.0
 10
206.5597037622
 20
207.8891041164
 30
0.0
 10
206.9308963727
 20
207.7875047289
 30
0.0
 10
207.5109069903
 20
207.6837928472
 30
0.0
 10
208.2862737668
 20
207.6350249279
 30
0.0
 10
209.0616475652
 20
207.6837778716
 30
0.0
 10
209.6416778883
 20
207.787480335
 30
0.0
 10
210.0128985555
 20
207.8890832482
 30
0.0
 10
210.3200927602
 20
208.0125626397
 30
0.0
 10
210.5531029783
 20
208.1543766679
 30
0.0
 10
210.7080512744
 20
208.3126761773
 30
0.0
 10
210.7501406373
 20
208.4405066546
 30
0.0
 10
210.7501406373
 20
208.4975093727
 30
0.0
  0
SPLINE
  5
4D9
100
AcDbEntity
  8
0
100
AcDbSpline
 62
7
  6
CONTINUOUS
 70
0
 71
3
 72
13
 73
9
 74
0
 42
0.0000001
 43
0.0000001
 44
0.0000000001
 40
0.0
 40
0.0
 40
0.0
 40
0.0
 40
0.1214271701
 40
0.2434798627
 40
0.366602475
 40
0.4911536975
 40
0.7435113478
 40
1.0
 40
1.0
 40
1.0
 40
1.0
 10
247.5293406373
 20
205.1315636779
 30
0.0
 10
247.5293406373
 20
205.6231318162
 30
0.0
 10
247.4254754592
 20
206.6118559157
 30
0.0
 10
246.9654210139
 20
208.0334478043
 30
0.0
 10
246.2183791368
 20
209.3428046184
 30
0.0
 10
244.8779206412
 20
210.8751952791
 30
0.0
 10
242.6462879397
 20
212.2680116843
 30
0.0
 10
240.5666720845
 20
212.6500443368
 30
0.0
 10
239.5283406373
 20
212.6500443368
 30
0.0
  0
SPLINE
  5
4DA
100
AcDbEntity
  8
0
100
AcDbSpline
 62
7
  6
CONTINUOUS
 70
0
 71
3
 72
13
 73
9
 74
0
 42
0.0000001
 43
0.0000001
 44
0.0000000001
 40
0.0
 40
0.0
 40
0.0
 40
0.0
 40
0.2564886522
 40
0.5088463025
 40
0.633397525
 40
0.7565201373
 40
0.8785728299
 40
1.0
 40
1.0
 40
1.0
 40
1.0
 10
126.2443406373
 20
212.6500443368
 30
0.0
 10
125.2060091902
 20
212.6500443368
 30
0.0
 10
123.1263933349
 20
212.2680116843
 30
0.0
 10
120.8947606334
 20
210.8751952791
 30
0.0
 10
119.5543021378
 20
209.3428046184
 30
0.0
 10
118.8072602607
 20
208.0334478043
 30
0.0
 10
118.3472058154
 20
206.6118559157
 30
0.0
 10
118.2433406373
 20
205.6231318162
 30
0.0
 10
118.2433406373
 20
205.1315636779
 30
0.0
  0
SPLINE
  5
4DB
100
AcDbEntity
  8
0
100
AcDbSpline
 62
7
  6
CONTINUOUS
 70
0
 71
3
 72
11
 73
7
 74
0
 42
0.0000001
 43
0.0000001
 44
0.0000000001
 40
0.0
 40
0.0
 40
0.0
 40
0.0
 40
0.2563810249
 40
0.5082611303
 40
0.7555326515
 40
1.0
 40
1.0
 40
1.0
 40
1.0
 10
124.6961494204
 20
196.37065708
 30
0.0
 10
124.2307472414
 20
196.2216254932
 30
0.0
 10
123.3455573436
 20
195.787693331
 30
0.0
 10
122.2858864023
 20
194.7794948035
 30
0.0
 10
121.601568047
 20
193.5109834884
 30
0.0
 10
121.4437406373
 20
192.5665693484
 30
0.0
 10
121.4437406373
 20
192.1005962172
 30
0.0
  0
SPLINE
  5
4DC
100
AcDbEntity
  8
0
100
AcDbSpline
 62
7
  6
CONTINUOUS
 70
0
 71
3
 72
13
 73
9
 74
0
 42
0.0000001
 43
0.0000001
 44
0.0000000001
 40
0.0
 40
0.0
 40
0.0
 40
0.0
 40
0.1213996613
 40
0.2434896271
 40
0.3665973079
 40
0.4911523212
 40
0.7434993324
 40
1.0
 40
1.0
 40
1.0
 40
1.0
 10
244.3289406373
 20
192.1005962172
 30
0.0
 10
244.3289406373
 20
192.3954694186
 30
0.0
 10
244.2665086682
 20
192.9887060124
 30
0.0
 10
243.9906346454
 20
193.8416948744
 30
0.0
 10
243.5423195247
 20
194.627333893
 30
0.0
 10
242.73814689
 20
195.5467774217
 30
0.0
 10
241.3991217022
 20
196.382423873
 30
0.0
 10
240.1513668649
 20
196.6116846126
 30
0.0
 10
239.5283406373
 20
196.6116846126
 30
0.0
  0
SPLINE
  5
4DD
100
AcDbEntity
  8
0
100
AcDbSpline
 62
7
  6
CONTINUOUS
 70
0
 71
3
 72
13
 73
9
 74
0
 42
0.0000001
 43
0.0000001
 44
0.0000000001
 40
0.0
 40
0.0
 40
0.0
 40
0.0
 40
0.1218415481
 40
0.2442133491
 40
0.3674057077
 40
0.4917907041
 40
0.7436099449
 40
1.0
 40
1.0
 40
1.0
 40
1.0
 10
118.2433406373
 20
192.1005962172
 30
0.0
 10
118.2433406373
 20
192.5330337103
 30
0.0
 10
118.3236186786
 20
193.4018646714
 30
0.0
 10
118.6799366002
 20
194.66336683
 30
0.0
 10
119.2624588155
 20
195.848317663
 30
0.0
 10
120.3177661033
 20
197.2823756043
 30
0.0
 10
122.1081177841
 20
198.7125507526
 30
0.0
 10
123.8449296667
 20
199.3241581931
 30
0.0
 10
124.7405702351
 20
199.4850343211
 30
0.0
  0
SPLINE
  5
4DE
100
AcDbEntity
  8
0
100
AcDbSpline
 62
7
  6
CONTINUOUS
 70
0
 71
3
 72
13
 73
9
 74
0
 42
0.0000001
 43
0.0000001
 44
0.0000000001
 40
0.0
 40
0.0
 40
0.0
 40
0.0
 40
0.2564886522
 40
0.5088463025
 40
0.633397525
 40
0.7565201373
 40
0.8785728299
 40
1.0
 40
1.0
 40
1.0
 40
1.0
 10
239.5283406373
 20
199.6190768761
 30
0.0
 10
240.5666720845
 20
199.6190768761
 30
0.0
 10
242.6462879397
 20
199.2370442236
 30
0.0
 10
244.8779206412
 20
197.8442278184
 30
0.0
 10
246.2183791368
 20
196.3118371577
 30
0.0
 10
246.9654210139
 20
195.0024803436
 30
0.0
 10
247.4254754592
 20
193.580888455
 30
0.0
 10
247.5293406373
 20
192.5921643555
 30
0.0
 10
247.5293406373
 20
192.1005962172
 30
0.0
  0
ENDSEC
  0
SECTION
  2
OBJECTS
  0
DICTIONARY
  5
C
100
AcDbDictionary
280
0
281
1
  3
ACAD_GROUP
350
D
  3
ACAD_MLINESTYLE
350
17
  3
ACAD_LAYOUT
350
1A
  3
ACAD_PLOTSETTINGS
350
19
  3
ACAD_PLOTSTYLENAME
350
E
  0
DICTIONARY
  5
D
102
{ACAD_REACTORS
330
C
102
}
100
AcDbDictionary
280
0
281
1
  0
ACDBDICTIONARYWDFLT
  5
E
102
{ACAD_REACTORS
330
C
102
}
100
AcDbDictionary
281
1
  3
Normal
350
F
100
AcDbDictionaryWithDefault
340
F
  0
DICTIONARY
  5
17
102
{ACAD_REACTORS
330
C
102
}
100
AcDbDictionary
280
0
281
1
  3
Standard
350
18
  0
DICTIONARY
  5
19
102
{ACAD_REACTORS
330
C
102
}
100
AcDbDictionary
281
1
  0
DICTIONARY
  5
1A
102
{ACAD_REACTORS
330
C
102
}
100
AcDbDictionary
281
1
  3
Model
350
4DF
  3
Layout1
350
4E0
  0
ACDBPLACEHOLDER
  5
F
102
{ACAD_REACTORS
330
E
102
}
  0
MLINESTYLE
  5
18
102
{ACAD_REACTORS
330
17
102
}
100
AcDbMlineStyle
  2
STANDARD
 70
0
  3

 62
256
 51
90.0
 52
90.0
 71
2
 49
0.5
 62
256
  6
BYLAYER
 49
-0.5
 62
256
  6
BYLAYER
  0
LAYOUT
  5
4DF
102
{ACAD_REACTORS
330
1A
102
}
100
AcDbPlotSettings
  1

  2
none_device
  4

  6

 40
0.0
 41
0.0
 42
0.0
 43
0.0
 44
210.0
 45
297.0
 46
0.0
 47
0.0
 48
0.0
 49
0.0
140
0.0
141
0.0
142
1.0
143
1.0
 70
1024
 72
1
 73
0
 74
0
  7

 75
0
147
1.0
148
0.0
149
0.0
100
AcDbLayout
  1
Model
 70
0
 71
0
 10
0.0
 20
0.0
 11
210.0
 21
297.0
 12
0.0
 22
0.0
 32
0.0
 14
0.0
 24
0.0
 34
0.0
 15
0.0
 25
0.0
 35
0.0
146
0.0
 13
0.0
 23
0.0
 33
0.0
 16
1.0
 26
0.0
 36
0.0
 17
0.0
 27
1.0
 37
0.0
 76
0
330
210
345
0
346
0
  0
LAYOUT
  5
4E0
102
{ACAD_REACTORS
330
1A
102
}
100
AcDbPlotSettings
  1

  2
none_device
  4

  6

 40
0.0
 41
0.0
 42
0.0
 43
0.0
 44
210.0
 45
297.0
 46
0.0
 47
0.0
 48
0.0
 49
0.0
140
0.0
141
0.0
142
1.0
143
1.0
 70
0
 72
1
 73
0
 74
0
  7

 75
0
147
1.0
148
0.0
149
0.0
100
AcDbLayout
  1
Layout1
 70
0
 71
1
 10
0.0
 20
0.0
 11
210.0
 21
297.0
 12
0.0
 22
0.0
 32
0.0
 14
0.0
 24
0.0
 34
0.0
 15
0.0
 25
0.0
 35
0.0
146
0.0
 13
0.0
 23
0.0
 33
0.0
 16
1.0
 26
0.0
 36
0.0
 17
0.0
 27
1.0
 37
0.0
 76
0
330
211
345
0
346
0
  0
ENDSEC
  0
EOF
