999
DXF file: C:\Users\sesa63760\Dev\_Creo\CAD\MCADPD0005317_3D-CAD\drw0001_3.dxf
999
Pro/ENGINEER 2019471 by Parametric Technology Corporation
  0
SECTION
  2
HEADER
  9
$ACADVER
  1
AC1024
  9
$DWGCODEPAGE
  3
ANSI_1252
  9
$EXTMAX
 10
273.6848338457
 20
387.0685507246
 30
0.0
  9
$EXTMIN
 10
0.0
 20
0.0
 30
0.0
  9
$LIMMIN
 10
0.0
 20
0.0
  9
$LIMMAX
 10
273.6848338457
 20
387.0685507246
  9
$VIEWCTR
 10
136.8424169229
 20
193.5342753623
  9
$VIEWSIZE
 40
387.0685507246
  9
$CLAYER
  8
0
  9
$LTSCALE
 40
25.2311351583
  9
$CELTYPE
  6
BYLAYER
  9
$DIMSCALE
 40
1.0
  9
$DIMASZ
 40
3.2581527839
  9
$DIMEXO
 40
1.0
  9
$DIMDLI
 40
17.4324206549
  9
$DIMEXE
 40
1.0
  9
$DIMCEN
 40
4.1287312077
  9
$DIMLFAC
 40
1.0
  9
$DIMBLK
  1
_FILLED
  9
$DIMALT
 70
0
  9
$DIMALTF
 40
0.0393700787
  9
$DIMTXT
 40
4.5614138974
  9
$DIMTOL
 70
1
  9
$DIMLIM
 70
0
  9
$DIMTFAC
 40
1.0
  9
$DIMTP
 40
0.01
  9
$DIMTM
 40
0.01
  9
$DIMGAP
 40
0.625
  9
$DIMDSEP
 70
46
  9
$AUNITS
 70
0
  9
$PDMODE
 70
3
  9
$PDSIZE
 40
0.3125
  9
$HANDSEED
  5
29D
  9
$TILEMODE
 70
1
  9
$MEASUREMENT
 70
1
  9
$INSUNITS
 70
4
  0
ENDSEC
  0
SECTION
  2
CLASSES
  0
CLASS
  1
ACDBDICTIONARYWDFLT
  2
AcDbDictionaryWithDefault
  3
AutoCAD 2000
 90
0
 91
1
280
0
281
0
  0
CLASS
  1
ACDBPLACEHOLDER
  2
AcDbPlaceHolder
  3
AutoCAD 2000
 90
0
 91
1
280
0
281
0
  0
CLASS
  1
LAYOUT
  2
AcDbLayout
  3
AutoCAD 2000
 90
0
 91
0
280
0
281
0
  0
ENDSEC
  0
SECTION
  2
TABLES
  0
TABLE
  2
VPORT
  5
8
100
AcDbSymbolTable
 70
2
  0
VPORT
  5
1F4
100
AcDbSymbolTableRecord
100
AcDbViewportTableRecord
  2
*ACTIVE
 70
0
 10
0.0
 20
0.0
 11
1.0
 21
1.0
 12
136.8424169229
 22
193.5342753623
 13
0.0
 23
0.0
 14
1.0
 24
1.0
 15
0.0
 25
0.0
 16
0.0
 26
0.0
 36
1.0
 17
0.0
 27
0.0
 37
0.0
 40
387.0685507246
 41
0.7070707071
 42
50.0
 43
0.0
 44
0.0
 50
0.0
 51
0.0
 71
0
 72
100
 73
1
 74
1
 75
0
 76
0
 77
0
 78
0
  0
ENDTAB
  0
TABLE
  2
LTYPE
  5
5
100
AcDbSymbolTable
 70
6
  0
LTYPE
  5
14
100
AcDbSymbolTableRecord
100
AcDbLinetypeTableRecord
  2
BYBLOCK
 70
0
  3

 72
65
 73
0
 40
0.0
  0
LTYPE
  5
15
100
AcDbSymbolTableRecord
100
AcDbLinetypeTableRecord
  2
BYLAYER
 70
0
  3

 72
65
 73
0
 40
0.0
  0
LTYPE
  5
16
100
AcDbSymbolTableRecord
100
AcDbLinetypeTableRecord
  2
CONTINUOUS
 70
64
  3
Solid line
 72
65
 73
0
 40
0.0
  0
LTYPE
  5
1F5
100
AcDbSymbolTableRecord
100
AcDbLinetypeTableRecord
  2
CENTER
 70
64
  3
____ _ ____ _ ____ _ ____ _ ____ _ ____ _ ____
 72
65
 73
4
 40
0.6
 49
0.375
 74
0
 49
-0.075
 74
0
 49
0.075
 74
0
 49
-0.075
 74
0
  0
LTYPE
  5
1F6
100
AcDbSymbolTableRecord
100
AcDbLinetypeTableRecord
  2
HIDDEN
 70
64
  3
- - - - - - - - - - - - - - - - - - - -
 72
65
 73
2
 40
0.2
 49
0.1
 74
0
 49
-0.1
 74
0
  0
LTYPE
  5
1F7
100
AcDbSymbolTableRecord
100
AcDbLinetypeTableRecord
  2
PHANTOM
 70
64
  3
_____ _ _ _____ _ _ _____ _ _ _____
 72
65
 73
6
 40
0.8
 49
0.45
 74
0
 49
-0.05
 74
0
 49
0.1
 74
0
 49
-0.05
 74
0
 49
0.1
 74
0
 49
-0.05
 74
0
  0
LTYPE
  5
1F8
100
AcDbSymbolTableRecord
100
AcDbLinetypeTableRecord
  2
DOT
 70
64
  3
. . . . . . . . . . . . . . . . . . . .
 72
65
 73
2
 40
0.2
 49
0.1
 74
0
 49
-0.1
 74
0
  0
LTYPE
  5
1F9
100
AcDbSymbolTableRecord
100
AcDbLinetypeTableRecord
  2
DASHED
 70
64
  3
- - - - - - - - - - - - - - - - - - - -
 72
65
 73
2
 40
0.2
 49
0.1
 74
0
 49
-0.1
 74
0
  0
ENDTAB
  0
TABLE
  2
LAYER
  5
2
100
AcDbSymbolTable
 70
36
  0
LAYER
  5
10
100
AcDbSymbolTableRecord
100
AcDbLayerTableRecord
  2
0
 70
0
 62
7
  6
CONTINUOUS
370
-3
390
F
  0
LAYER
  5
1FA
100
AcDbSymbolTableRecord
100
AcDbLayerTableRecord
  2
DEFAULT_1
 70
0
 62
7
  6
CENTER
370
-3
390
F
  0
LAYER
  5
1FB
100
AcDbSymbolTableRecord
100
AcDbLayerTableRecord
  2
DEFAULT_2
 70
0
 62
7
  6
HIDDEN
370
-3
390
F
  0
LAYER
  5
1FC
100
AcDbSymbolTableRecord
100
AcDbLayerTableRecord
  2
DEFAULT_3
 70
0
 62
7
  6
PHANTOM
370
-3
390
F
  0
LAYER
  5
1FD
100
AcDbSymbolTableRecord
100
AcDbLayerTableRecord
  2
00_COMPONENTS
 70
0
 62
7
  6
CONTINUOUS
370
-3
390
F
  0
LAYER
  5
1FE
100
AcDbSymbolTableRecord
100
AcDbLayerTableRecord
  2
01_1_DEFAULT_DATUMS
 70
0
 62
7
  6
CONTINUOUS
370
-3
390
F
  0
LAYER
  5
1FF
100
AcDbSymbolTableRecord
100
AcDbLayerTableRecord
  2
01_PLANES
 70
0
 62
7
  6
CONTINUOUS
370
-3
390
F
  0
LAYER
  5
200
100
AcDbSymbolTableRecord
100
AcDbLayerTableRecord
  2
02_COORD_SYS
 70
0
 62
7
  6
CONTINUOUS
370
-3
390
F
  0
LAYER
  5
201
100
AcDbSymbolTableRecord
100
AcDbLayerTableRecord
  2
03_AXES
 70
0
 62
7
  6
CONTINUOUS
370
-3
390
F
  0
LAYER
  5
202
100
AcDbSymbolTableRecord
100
AcDbLayerTableRecord
  2
04_POINTS
 70
0
 62
7
  6
CONTINUOUS
370
-3
390
F
  0
LAYER
  5
203
100
AcDbSymbolTableRecord
100
AcDbLayerTableRecord
  2
05_CURVES
 70
0
 62
7
  6
CONTINUOUS
370
-3
390
F
  0
LAYER
  5
204
100
AcDbSymbolTableRecord
100
AcDbLayerTableRecord
  2
06_SURFS
 70
0
 62
7
  6
CONTINUOUS
370
-3
390
F
  0
LAYER
  5
205
100
AcDbSymbolTableRecord
100
AcDbLayerTableRecord
  2
07_COSMETICS
 70
0
 62
7
  6
CONTINUOUS
370
-3
390
F
  0
LAYER
  5
206
100
AcDbSymbolTableRecord
100
AcDbLayerTableRecord
  2
10_NOTES
 70
0
 62
7
  6
CONTINUOUS
370
-3
390
F
  0
LAYER
  5
207
100
AcDbSymbolTableRecord
100
AcDbLayerTableRecord
  2
11_NOTES_PUB
 70
0
 62
7
  6
CONTINUOUS
370
-3
390
F
  0
LAYER
  5
208
100
AcDbSymbolTableRecord
100
AcDbLayerTableRecord
  2
13_REF_GTOL
 70
0
 62
7
  6
CONTINUOUS
370
-3
390
F
  0
LAYER
  5
209
100
AcDbSymbolTableRecord
100
AcDbLayerTableRecord
  2
16_MISC
 70
0
 62
7
  6
CONTINUOUS
370
-3
390
F
  0
LAYER
  5
20A
100
AcDbSymbolTableRecord
100
AcDbLayerTableRecord
  2
17_NO_PRINT
 70
0
 62
7
  6
CONTINUOUS
370
-3
390
F
  0
LAYER
  5
20B
100
AcDbSymbolTableRecord
100
AcDbLayerTableRecord
  2
18_DATUM_CAMS_JOINTS
 70
0
 62
7
  6
CONTINUOUS
370
-3
390
F
  0
LAYER
  5
20C
100
AcDbSymbolTableRecord
100
AcDbLayerTableRecord
  2
19_DATUM_FUNCTIONAL
 70
0
 62
7
  6
CONTINUOUS
370
-3
390
F
  0
LAYER
  5
20D
100
AcDbSymbolTableRecord
100
AcDbLayerTableRecord
  2
20_DATUM_KINEMATIC_SCHEME
 70
0
 62
7
  6
CONTINUOUS
370
-3
390
F
  0
ENDTAB
  0
TABLE
  2
STYLE
  5
3
100
AcDbSymbolTable
 70
1
  0
STYLE
  5
11
100
AcDbSymbolTableRecord
100
AcDbTextStyleTableRecord
  2
STANDARD
 70
0
 40
0.0
 41
1.0
 50
0.0
 71
0
 42
0.2
  3
ARIAL.TTF
  4

  0
STYLE
  5
20E
100
AcDbSymbolTableRecord
100
AcDbTextStyleTableRecord
  2
TEXTSTYLE_1
 70
0
 40
0.0
 41
0.8
 50
0.0
 71
0
 42
0.2
  3
gdt
  4

  0
ENDTAB
  0
TABLE
  2
VIEW
  5
6
100
AcDbSymbolTable
 70
0
  0
ENDTAB
  0
TABLE
  2
UCS
  5
7
100
AcDbSymbolTable
 70
0
  0
ENDTAB
  0
TABLE
  2
APPID
  5
9
100
AcDbSymbolTable
 70
1
  0
APPID
  5
20F
100
AcDbSymbolTableRecord
100
AcDbRegAppTableRecord
  2
ACAD
 70
0
  0
ENDTAB
  0
TABLE
  2
BLOCK_RECORD
  5
1
100
AcDbSymbolTable
 70
0
  0
BLOCK_RECORD
  5
210
100
AcDbSymbolTableRecord
100
AcDbBlockTableRecord
  2
*Model_Space
  0
BLOCK_RECORD
  5
211
100
AcDbSymbolTableRecord
100
AcDbBlockTableRecord
  2
*Paper_Space
  0
BLOCK_RECORD
  5
212
100
AcDbSymbolTableRecord
100
AcDbBlockTableRecord
  2
_FILLED
  0
ENDTAB
  0
TABLE
  2
DIMSTYLE
  5
A
100
AcDbSymbolTable
 70
1
100
AcDbDimStyleTable
 71
0
  0
DIMSTYLE
105
213
100
AcDbSymbolTableRecord
100
AcDbDimStyleTableRecord
  2
STANDARD
 70
0
  3

  4

 40
1.0
 41
3.2581527839
 42
1.0
 43
0.38
 44
1.0
 45
0.0
 46
0.0
 47
0.01
 48
0.01
140
4.5614138974
141
0.09
142
0.0
143
25.4
144
1.0
145
0.0
146
1.0
147
0.625
 71
1
 72
0
 73
0
 74
0
 75
0
 76
0
 77
1
 78
8
 79
2
170
0
171
1
172
0
173
0
174
0
175
0
176
0
177
0
178
0
270
2
179
2
271
2
272
2
273
2
274
2
275
0
280
0
281
0
282
0
283
1
284
8
285
0
286
0
287
3
288
0
340
11
278
46
341
212
342
212
343
212
344
212
  0
ENDTAB
  0
ENDSEC
  0
SECTION
  2
BLOCKS
  0
BLOCK
  5
20
100
AcDbEntity
  8
0
100
AcDbBlockBegin
  2
*Model_Space
 70
0
 10
0.0
 20
0.0
 30
0.0
  3
*Model_Space
  1

  0
ENDBLK
  5
21
100
AcDbEntity
  8
0
100
AcDbBlockEnd
  0
BLOCK
  5
1C
100
AcDbEntity
  8
0
100
AcDbBlockBegin
  2
*Paper_Space
 70
0
 10
0.0
 20
0.0
 30
0.0
  3
*Paper_Space
  1

  0
ENDBLK
  5
1D
100
AcDbEntity
  8
0
100
AcDbBlockEnd
  0
BLOCK
  5
214
100
AcDbEntity
  8
0
100
AcDbBlockBegin
  2
_FILLED
 70
64
 10
0.0
 20
0.0
  3
_FILLED
  1

  0
SOLID
  5
215
100
AcDbEntity
  8
0
  6
BYBLOCK
 62
0
100
AcDbTrace
 10
0.0
 20
0.0
 11
-1.0
 21
0.25
 12
-1.0
 22
-0.25
 13
-1.0
 23
-0.25
  0
ENDBLK
  5
216
100
AcDbEntity
  8
0
  6
BYBLOCK
 62
0
100
AcDbBlockEnd
  0
ENDSEC
  0
SECTION
  2
ENTITIES
  0
LINE
  5
217
100
AcDbEntity
  8
0
100
AcDbLine
 62
7
  6
BYLAYER
 10
118.1325618504
 20
31.0318115942
 11
163.1325618504
 21
31.0318115942
  0
LINE
  5
218
100
AcDbEntity
  8
0
100
AcDbLine
 62
7
  6
BYLAYER
 10
139.0670276392
 20
34.7818115942
 11
127.1980960616
 21
34.7818115942
  0
LINE
  5
219
100
AcDbEntity
  8
0
100
AcDbLine
 62
7
  6
BYLAYER
 10
124.8378986494
 20
35.7818115942
 11
141.4272250514
 21
35.7818115942
  0
LINE
  5
21A
100
AcDbEntity
  8
0
100
AcDbLine
 62
7
  6
BYLAYER
 10
163.1325618504
 20
39.9318115942
 11
118.1325618504
 21
39.9318115942
  0
LINE
  5
21B
100
AcDbEntity
  8
0
100
AcDbLine
 62
7
  6
BYLAYER
 10
118.1325618504
 20
40.9318115942
 11
163.1325618504
 21
40.9318115942
  0
LINE
  5
21C
100
AcDbEntity
  8
0
100
AcDbLine
 62
7
  6
BYLAYER
 10
121.2325618504
 20
47.4318115942
 11
130.0325618504
 21
47.4318115942
  0
LINE
  5
21D
100
AcDbEntity
  8
0
100
AcDbLine
 62
7
  6
BYLAYER
 10
136.2325618504
 20
47.4318115942
 11
145.0325618504
 21
47.4318115942
  0
LINE
  5
21E
100
AcDbEntity
  8
0
100
AcDbLine
 62
7
  6
BYLAYER
 10
151.2325618504
 20
47.4318115942
 11
160.0325618504
 21
47.4318115942
  0
LINE
  5
21F
100
AcDbEntity
  8
0
100
AcDbLine
 62
7
  6
BYLAYER
 10
121.2325618504
 20
57.4318115942
 11
130.0325618504
 21
57.4318115942
  0
LINE
  5
220
100
AcDbEntity
  8
0
100
AcDbLine
 62
7
  6
BYLAYER
 10
136.2325618504
 20
57.4318115942
 11
145.0325618504
 21
57.4318115942
  0
LINE
  5
221
100
AcDbEntity
  8
0
100
AcDbLine
 62
7
  6
BYLAYER
 10
151.2325618504
 20
57.4318115942
 11
160.0325618504
 21
57.4318115942
  0
LINE
  5
222
100
AcDbEntity
  8
0
100
AcDbLine
 62
7
  6
BYLAYER
 10
163.1325618504
 20
70.5318115942
 11
118.1325618504
 21
70.5318115942
  0
LINE
  5
223
100
AcDbEntity
  8
0
100
AcDbLine
 62
7
  6
BYLAYER
 10
118.1325618504
 20
71.5318115942
 11
163.1325618504
 21
71.5318115942
  0
LINE
  5
224
100
AcDbEntity
  8
0
100
AcDbLine
 62
7
  6
BYLAYER
 10
126.6940549209
 20
82.2318115942
 11
154.5710687799
 21
82.2318115942
  0
LINE
  5
225
100
AcDbEntity
  8
0
100
AcDbLine
 62
7
  6
BYLAYER
 10
113.7075161356
 20
86.3318115942
 11
124.3552624676
 21
86.3318115942
  0
LINE
  5
226
100
AcDbEntity
  8
0
100
AcDbLine
 62
7
  6
BYLAYER
 10
156.910560316
 20
86.3318115942
 11
167.5476154031
 21
86.3318115942
  0
LINE
  5
227
100
AcDbEntity
  8
0
100
AcDbLine
 62
7
  6
BYLAYER
 10
126.6940549209
 20
89.2318115942
 11
154.5710687799
 21
89.2318115942
  0
LINE
  5
228
100
AcDbEntity
  8
0
100
AcDbLine
 62
7
  6
BYLAYER
 10
167.5902837154
 20
92.3318115942
 11
113.7075161356
 21
92.3318115942
  0
LINE
  5
229
100
AcDbEntity
  8
0
100
AcDbLine
 62
7
  6
BYLAYER
 10
159.6325618504
 20
93.3318115942
 11
121.6325618504
 21
93.3318115942
  0
LINE
  5
22A
100
AcDbEntity
  8
0
100
AcDbLine
 62
7
  6
BYLAYER
 10
134.8825618504
 20
154.7318115942
 11
146.3825618504
 21
154.7318115942
  0
LINE
  5
22B
100
AcDbEntity
  8
0
100
AcDbLine
 62
7
  6
BYLAYER
 10
134.3825618504
 20
155.2318115942
 11
146.8825618504
 21
155.2318115942
  0
LINE
  5
22C
100
AcDbEntity
  8
0
100
AcDbLine
 62
7
  6
BYLAYER
 10
146.8825618504
 20
156.0318115942
 11
134.3825618504
 21
156.0318115942
  0
LINE
  5
22D
100
AcDbEntity
  8
0
100
AcDbLine
 62
7
  6
BYLAYER
 10
121.6325618504
 20
156.5318115942
 11
159.6325618504
 21
156.5318115942
  0
LINE
  5
22E
100
AcDbEntity
  8
0
100
AcDbLine
 62
7
  6
BYLAYER
 10
159.6325618504
 20
157.5318115942
 11
121.6325618504
 21
157.5318115942
  0
LINE
  5
22F
100
AcDbEntity
  8
0
100
AcDbLine
 62
7
  6
BYLAYER
 10
109.1325618504
 20
311.3318115942
 11
109.1325618504
 21
312.6318115942
  0
LINE
  5
230
100
AcDbEntity
  8
0
100
AcDbLine
 62
7
  6
BYLAYER
 10
110.6325618504
 20
316.9318115942
 11
110.6325618504
 21
312.6318115942
  0
LINE
  5
231
100
AcDbEntity
  8
0
100
AcDbLine
 62
7
  6
BYLAYER
 10
110.9325618504
 20
305.0318115942
 11
110.9325618504
 21
311.3318115942
  0
LINE
  5
232
100
AcDbEntity
  8
0
100
AcDbLine
 62
7
  6
BYLAYER
 10
113.6325618504
 20
317.9318115942
 11
113.6325618504
 21
312.6318115942
  0
LINE
  5
233
100
AcDbEntity
  8
0
100
AcDbLine
 62
7
  6
BYLAYER
 10
113.7075161356
 20
86.3318115942
 11
113.7075161356
 21
92.3318115942
  0
LINE
  5
234
100
AcDbEntity
  8
0
100
AcDbLine
 62
7
  6
BYLAYER
 10
114.6325618504
 20
305.0318115942
 11
114.6325618504
 21
297.9318115942
  0
LINE
  5
235
100
AcDbEntity
  8
0
100
AcDbLine
 62
7
  6
BYLAYER
 10
115.9325618504
 20
311.3318115942
 11
115.9325618504
 21
305.0318115942
  0
LINE
  5
236
100
AcDbEntity
  8
0
100
AcDbLine
 62
7
  6
BYLAYER
 10
116.7325618504
 20
312.6318115942
 11
116.7325618504
 21
311.3318115942
  0
LINE
  5
237
100
AcDbEntity
  8
0
100
AcDbLine
 62
7
  6
BYLAYER
 10
118.1325618504
 20
355.9318115942
 11
118.1325618504
 21
317.9318115942
  0
LINE
  5
238
100
AcDbEntity
  8
0
100
AcDbLine
 62
7
  6
BYLAYER
 10
118.1325618504
 20
86.3318115942
 11
118.1325618504
 21
31.0318115942
  0
LINE
  5
239
100
AcDbEntity
  8
0
100
AcDbLine
 62
7
  6
BYLAYER
 10
118.1825618504
 20
92.3318115942
 11
118.1825618504
 21
86.3318115942
  0
LINE
  5
23A
100
AcDbEntity
  8
0
100
AcDbLine
 62
7
  6
BYLAYER
 10
118.479772102
 20
355.9318115942
 11
118.479772102
 21
339.9318113427
  0
LINE
  5
23B
100
AcDbEntity
  8
0
100
AcDbLine
 62
7
  6
BYLAYER
 10
118.6325618504
 20
305.0318115942
 11
118.6325618504
 21
297.9318115942
  0
LINE
  5
23C
100
AcDbEntity
  8
0
100
AcDbLine
 62
7
  6
BYLAYER
 10
120.9411931829
 20
357.9318115942
 11
120.9411931829
 21
339.9318115962
  0
LINE
  5
23D
100
AcDbEntity
  8
0
100
AcDbLine
 62
7
  6
BYLAYER
 10
121.2325618504
 20
47.4318115942
 11
121.2325618504
 21
57.4318115942
  0
LINE
  5
23E
100
AcDbEntity
  8
0
100
AcDbLine
 62
7
  6
BYLAYER
 10
121.6325618504
 20
157.5318115942
 11
121.6325618504
 21
156.5318115942
  0
LINE
  5
23F
100
AcDbEntity
  8
0
100
AcDbLine
 62
7
  6
BYLAYER
 10
121.6325618504
 20
93.3318115942
 11
121.6325618504
 21
92.3318115942
  0
LINE
  5
240
100
AcDbEntity
  8
0
100
AcDbLine
 62
7
  6
BYLAYER
 10
124.3552624676
 20
86.3318115942
 11
124.3552624676
 21
92.3318115942
  0
LINE
  5
241
100
AcDbEntity
  8
0
100
AcDbLine
 62
7
  6
BYLAYER
 10
124.8378986494
 20
31.0318115942
 11
124.8378986494
 21
35.7818115942
  0
LINE
  5
242
100
AcDbEntity
  8
0
100
AcDbLine
 62
7
  6
BYLAYER
 10
126.6940549209
 20
82.2318115942
 11
126.6940549209
 21
89.2318115942
  0
LINE
  5
243
100
AcDbEntity
  8
0
100
AcDbLine
 62
7
  6
BYLAYER
 10
128.1325618504
 20
301.0318115942
 11
128.1325618504
 21
305.0318115942
  0
LINE
  5
244
100
AcDbEntity
  8
0
100
AcDbLine
 62
7
  6
BYLAYER
 10
129.1325618504
 20
31.0318115942
 11
129.1325618504
 21
34.7818115942
  0
LINE
  5
245
100
AcDbEntity
  8
0
100
AcDbLine
 62
7
  6
BYLAYER
 10
130.0325618504
 20
57.4318115942
 11
130.0325618504
 21
47.4318115942
  0
LINE
  5
246
100
AcDbEntity
  8
0
100
AcDbLine
 62
7
  6
BYLAYER
 10
131.5825618504
 20
89.2318115942
 11
131.5825618504
 21
82.2318115942
  0
LINE
  5
247
100
AcDbEntity
  8
0
100
AcDbLine
 62
7
  6
BYLAYER
 10
132.6325618504
 20
244.5318115942
 11
132.6325618504
 21
301.0318115942
  0
LINE
  5
248
100
AcDbEntity
  8
0
100
AcDbLine
 62
7
  6
BYLAYER
 10
133.2163633633
 20
301.0318115942
 11
133.2163633633
 21
244.5318115942
  0
LINE
  5
249
100
AcDbEntity
  8
0
100
AcDbLine
 62
7
  6
BYLAYER
 10
134.0181835727
 20
244.5318115942
 11
134.0181835727
 21
301.0318115942
  0
LINE
  5
24A
100
AcDbEntity
  8
0
100
AcDbLine
 62
7
  6
BYLAYER
 10
134.3825618504
 20
155.2318115942
 11
134.3825618504
 21
156.0318115942
  0
LINE
  5
24B
100
AcDbEntity
  8
0
100
AcDbLine
 62
7
  6
BYLAYER
 10
135.2583794998
 20
301.0318115942
 11
135.2583794998
 21
244.5318115942
  0
LINE
  5
24C
100
AcDbEntity
  8
0
100
AcDbLine
 62
7
  6
BYLAYER
 10
136.1325618504
 20
280.0318115942
 11
136.1325618504
 21
305.0318115942
  0
LINE
  5
24D
100
AcDbEntity
  8
0
100
AcDbLine
 62
7
  6
BYLAYER
 10
136.2325618504
 20
47.4318115942
 11
136.2325618504
 21
57.4318115942
  0
LINE
  5
24E
100
AcDbEntity
  8
0
100
AcDbLine
 62
7
  6
BYLAYER
 10
136.3825618504
 20
156.5318115942
 11
136.3825618504
 21
154.7318115942
  0
LINE
  5
24F
100
AcDbEntity
  8
0
100
AcDbLine
 62
7
  6
BYLAYER
 10
136.7325576833
 20
280.0318115942
 11
136.7325576833
 21
244.5318115942
  0
LINE
  5
250
100
AcDbEntity
  8
0
100
AcDbLine
 62
7
  6
BYLAYER
 10
137.1325618504
 20
34.7818115942
 11
137.1325618504
 21
31.0318115942
  0
LINE
  5
251
100
AcDbEntity
  8
0
100
AcDbLine
 62
7
  6
BYLAYER
 10
137.6325618504
 20
280.0318115942
 11
137.6325618504
 21
157.5318115942
  0
LINE
  5
252
100
AcDbEntity
  8
0
100
AcDbLine
 62
7
  6
BYLAYER
 10
137.6325618504
 20
154.7318115942
 11
137.6325618504
 21
93.3318115942
  0
LINE
  5
253
100
AcDbEntity
  8
0
100
AcDbLine
 62
7
  6
BYLAYER
 10
140.6325618504
 20
280.0318115942
 11
140.6325618504
 21
305.0318115942
  0
LINE
  5
254
100
AcDbEntity
  8
0
100
AcDbLine
 62
7
  6
BYLAYER
 10
141.4272250514
 20
35.7818115942
 11
141.4272250514
 21
31.0318115942
  0
LINE
  5
255
100
AcDbEntity
  8
0
100
AcDbLine
 62
7
  6
BYLAYER
 10
143.6325618504
 20
154.7318115942
 11
143.6325618504
 21
93.3318115942
  0
LINE
  5
256
100
AcDbEntity
  8
0
100
AcDbLine
 62
7
  6
BYLAYER
 10
143.6325618504
 20
157.5318115942
 11
143.6325618504
 21
280.0318115942
  0
LINE
  5
257
100
AcDbEntity
  8
0
100
AcDbLine
 62
7
  6
BYLAYER
 10
144.5325711924
 20
280.0318115942
 11
144.5325711924
 21
244.5318115942
  0
LINE
  5
258
100
AcDbEntity
  8
0
100
AcDbLine
 62
7
  6
BYLAYER
 10
144.8825618504
 20
154.7318115942
 11
144.8825618504
 21
156.5318115942
  0
LINE
  5
259
100
AcDbEntity
  8
0
100
AcDbLine
 62
7
  6
BYLAYER
 10
145.0325618504
 20
57.4318115942
 11
145.0325618504
 21
47.4318115942
  0
LINE
  5
25A
100
AcDbEntity
  8
0
100
AcDbLine
 62
7
  6
BYLAYER
 10
146.006744201
 20
280.0318115942
 11
146.006744201
 21
244.5318115942
  0
LINE
  5
25B
100
AcDbEntity
  8
0
100
AcDbLine
 62
7
  6
BYLAYER
 10
146.8825618504
 20
156.0318115942
 11
146.8825618504
 21
155.2318115942
  0
LINE
  5
25C
100
AcDbEntity
  8
0
100
AcDbLine
 62
7
  6
BYLAYER
 10
147.246940128
 20
280.0318115942
 11
147.246940128
 21
244.5318115942
  0
LINE
  5
25D
100
AcDbEntity
  8
0
100
AcDbLine
 62
7
  6
BYLAYER
 10
148.0487603375
 20
244.5318115942
 11
148.0487603375
 21
280.0318115942
  0
LINE
  5
25E
100
AcDbEntity
  8
0
100
AcDbLine
 62
7
  6
BYLAYER
 10
148.6325618504
 20
244.5318115942
 11
148.6325618504
 21
280.0318115942
  0
LINE
  5
25F
100
AcDbEntity
  8
0
100
AcDbLine
 62
7
  6
BYLAYER
 10
149.6825618504
 20
82.2318115942
 11
149.6825618504
 21
89.2318115942
  0
LINE
  5
260
100
AcDbEntity
  8
0
100
AcDbLine
 62
7
  6
BYLAYER
 10
151.2325618504
 20
47.4318115942
 11
151.2325618504
 21
57.4318115942
  0
LINE
  5
261
100
AcDbEntity
  8
0
100
AcDbLine
 62
7
  6
BYLAYER
 10
154.1325618504
 20
355.9318115942
 11
154.1325618504
 21
357.9318115942
  0
LINE
  5
262
100
AcDbEntity
  8
0
100
AcDbLine
 62
7
  6
BYLAYER
 10
154.5325618504
 20
357.9318115942
 11
154.5325618504
 21
355.9318115942
  0
LINE
  5
263
100
AcDbEntity
  8
0
100
AcDbLine
 62
7
  6
BYLAYER
 10
154.5710687799
 20
89.2318115942
 11
154.5710687799
 21
82.2318115942
  0
LINE
  5
264
100
AcDbEntity
  8
0
100
AcDbLine
 62
7
  6
BYLAYER
 10
156.910560316
 20
86.3318115942
 11
156.910560316
 21
92.3318115942
  0
LINE
  5
265
100
AcDbEntity
  8
0
100
AcDbLine
 62
7
  6
BYLAYER
 10
159.6325618504
 20
157.5318115942
 11
159.6325618504
 21
156.5318115942
  0
LINE
  5
266
100
AcDbEntity
  8
0
100
AcDbLine
 62
7
  6
BYLAYER
 10
159.6325618504
 20
93.3318115942
 11
159.6325618504
 21
92.3318115942
  0
LINE
  5
267
100
AcDbEntity
  8
0
100
AcDbLine
 62
7
  6
BYLAYER
 10
160.0325618504
 20
57.4318115942
 11
160.0325618504
 21
47.4318115942
  0
LINE
  5
268
100
AcDbEntity
  8
0
100
AcDbLine
 62
7
  6
BYLAYER
 10
160.3239305176
 20
339.9318115984
 11
160.3239305179
 21
357.9318115942
  0
LINE
  5
269
100
AcDbEntity
  8
0
100
AcDbLine
 62
7
  6
BYLAYER
 10
162.6325618504
 20
305.0318115942
 11
162.6325618504
 21
297.9318115942
  0
LINE
  5
26A
100
AcDbEntity
  8
0
100
AcDbLine
 62
7
  6
BYLAYER
 10
162.7853515988
 20
339.9318113406
 11
162.7853515988
 21
355.9318115942
  0
LINE
  5
26B
100
AcDbEntity
  8
0
100
AcDbLine
 62
7
  6
BYLAYER
 10
163.0825618504
 20
86.3318115942
 11
163.0825618504
 21
92.3318115942
  0
LINE
  5
26C
100
AcDbEntity
  8
0
100
AcDbLine
 62
7
  6
BYLAYER
 10
163.1325618504
 20
355.9318115942
 11
163.1325618504
 21
317.9318115942
  0
LINE
  5
26D
100
AcDbEntity
  8
0
100
AcDbLine
 62
7
  6
BYLAYER
 10
163.1325618504
 20
31.0318115942
 11
163.1325618504
 21
86.3318115942
  0
LINE
  5
26E
100
AcDbEntity
  8
0
100
AcDbLine
 62
7
  6
BYLAYER
 10
164.5325618504
 20
311.3318115942
 11
164.5325618504
 21
312.6318115942
  0
LINE
  5
26F
100
AcDbEntity
  8
0
100
AcDbLine
 62
7
  6
BYLAYER
 10
165.3325618504
 20
305.0318115942
 11
165.3325618504
 21
311.3318115942
  0
LINE
  5
270
100
AcDbEntity
  8
0
100
AcDbLine
 62
7
  6
BYLAYER
 10
166.6325618504
 20
305.0318115942
 11
166.6325618504
 21
297.9318115942
  0
LINE
  5
271
100
AcDbEntity
  8
0
100
AcDbLine
 62
7
  6
BYLAYER
 10
167.5476154031
 20
86.3318115942
 11
167.5476154031
 21
92.3318115942
  0
LINE
  5
272
100
AcDbEntity
  8
0
100
AcDbLine
 62
7
  6
BYLAYER
 10
167.5902837154
 20
86.3318115942
 11
167.5902837154
 21
92.3318115942
  0
LINE
  5
273
100
AcDbEntity
  8
0
100
AcDbLine
 62
7
  6
BYLAYER
 10
167.6325618504
 20
312.6318115942
 11
167.6325618504
 21
317.9318115942
  0
LINE
  5
274
100
AcDbEntity
  8
0
100
AcDbLine
 62
7
  6
BYLAYER
 10
170.3325618504
 20
280.0318115942
 11
170.3325618504
 21
311.3318115942
  0
LINE
  5
275
100
AcDbEntity
  8
0
100
AcDbLine
 62
7
  6
BYLAYER
 10
170.6325618504
 20
316.9318115942
 11
170.6325618504
 21
312.6318115942
  0
LINE
  5
276
100
AcDbEntity
  8
0
100
AcDbLine
 62
7
  6
BYLAYER
 10
172.1325618504
 20
312.6318115942
 11
172.1325618504
 21
311.3318115942
  0
LINE
  5
277
100
AcDbEntity
  8
0
100
AcDbLine
 62
7
  6
BYLAYER
 10
132.6325618504
 20
244.5318115942
 11
148.6325618504
 21
244.5318115942
  0
LINE
  5
278
100
AcDbEntity
  8
0
100
AcDbLine
 62
7
  6
BYLAYER
 10
136.1325618504
 20
280.0318115942
 11
170.3325618504
 21
280.0318115942
  0
LINE
  5
279
100
AcDbEntity
  8
0
100
AcDbLine
 62
7
  6
BYLAYER
 10
114.6325618504
 20
297.9318115942
 11
118.6325618504
 21
297.9318115942
  0
LINE
  5
27A
100
AcDbEntity
  8
0
100
AcDbLine
 62
7
  6
BYLAYER
 10
162.6325618504
 20
297.9318115942
 11
166.6325618504
 21
297.9318115942
  0
LINE
  5
27B
100
AcDbEntity
  8
0
100
AcDbLine
 62
7
  6
BYLAYER
 10
128.1325618504
 20
301.0318115942
 11
136.1325618504
 21
301.0318115942
  0
LINE
  5
27C
100
AcDbEntity
  8
0
100
AcDbLine
 62
7
  6
BYLAYER
 10
110.9325618504
 20
305.0318115942
 11
136.1325618504
 21
305.0318115942
  0
LINE
  5
27D
100
AcDbEntity
  8
0
100
AcDbLine
 62
7
  6
BYLAYER
 10
140.6325618504
 20
305.0318115942
 11
170.3325618504
 21
305.0318115942
  0
LINE
  5
27E
100
AcDbEntity
  8
0
100
AcDbLine
 62
7
  6
BYLAYER
 10
109.1325618504
 20
311.3318115942
 11
172.1325618504
 21
311.3318115942
  0
LINE
  5
27F
100
AcDbEntity
  8
0
100
AcDbLine
 62
7
  6
BYLAYER
 10
172.1325618504
 20
312.6318115942
 11
109.1325618504
 21
312.6318115942
  0
LINE
  5
280
100
AcDbEntity
  8
0
100
AcDbLine
 62
7
  6
BYLAYER
 10
170.6325618504
 20
316.9318115942
 11
110.6325618504
 21
316.9318115942
  0
LINE
  5
281
100
AcDbEntity
  8
0
100
AcDbLine
 62
7
  6
BYLAYER
 10
111.6325618504
 20
317.9318115942
 11
169.6325618504
 21
317.9318115942
  0
LINE
  5
282
100
AcDbEntity
  8
0
100
AcDbLine
 62
7
  6
BYLAYER
 10
150.4400844845
 20
325.4318115942
 11
130.8250392216
 21
325.4318115942
  0
LINE
  5
283
100
AcDbEntity
  8
0
100
AcDbLine
 62
7
  6
BYLAYER
 10
149.3503597404
 20
327.9318115942
 11
131.9147639605
 21
327.9318115942
  0
LINE
  5
284
100
AcDbEntity
  8
0
100
AcDbLine
 62
7
  6
BYLAYER
 10
118.4797720994
 20
339.9318116057
 11
162.7853516013
 21
339.9318113899
  0
LINE
  5
285
100
AcDbEntity
  8
0
100
AcDbLine
 62
7
  6
BYLAYER
 10
163.1325618504
 20
355.9318115942
 11
118.1325618504
 21
355.9318115942
  0
LINE
  5
286
100
AcDbEntity
  8
0
100
AcDbLine
 62
7
  6
BYLAYER
 10
120.1326574546
 20
357.9318115942
 11
161.1324662462
 21
357.9318115942
  0
ARC
  5
287
100
AcDbEntity
  8
0
100
AcDbCircle
 62
7
  6
BYLAYER
 10
161.1325618504
 20
355.9318115942
 40
2.0
100
AcDbArc
 50
0.0
 51
90.0
  0
ARC
  5
288
100
AcDbEntity
  8
0
100
AcDbCircle
 62
7
  6
BYLAYER
 10
120.1325618504
 20
355.9318115942
 40
2.0
100
AcDbArc
 50
90.0
 51
180.0
  0
ARC
  5
289
100
AcDbEntity
  8
0
100
AcDbCircle
 62
7
  6
BYLAYER
 10
160.8153298874
 20
355.9914266596
 40
1.9403851364
100
AcDbArc
 50
81.1766810832
 51
89.97387219
  0
ARC
  5
28A
100
AcDbEntity
  8
0
100
AcDbCircle
 62
7
  6
BYLAYER
 10
120.4498107713
 20
355.9923251029
 40
1.9394867009
100
AcDbArc
 50
90.0266408785
 51
98.7645058046
  0
ARC
  5
28B
100
AcDbEntity
  8
0
100
AcDbCircle
 62
7
  6
BYLAYER
 10
169.6325618504
 20
316.9318115942
 40
1.0
100
AcDbArc
 50
0.0
 51
90.0
  0
ARC
  5
28C
100
AcDbEntity
  8
0
100
AcDbCircle
 62
7
  6
BYLAYER
 10
111.6325618504
 20
316.9318115942
 40
1.0
100
AcDbArc
 50
90.0
 51
180.0
  0
ARC
  5
28D
100
AcDbEntity
  8
0
100
AcDbCircle
 62
7
  6
BYLAYER
 10
133.8825618504
 20
156.0318115942
 40
0.5
100
AcDbArc
 50
0.0
 51
90.0
  0
ARC
  5
28E
100
AcDbEntity
  8
0
100
AcDbCircle
 62
7
  6
BYLAYER
 10
147.3825618504
 20
156.0318115942
 40
0.5
100
AcDbArc
 50
90.0
 51
180.0
  0
ARC
  5
28F
100
AcDbEntity
  8
0
100
AcDbCircle
 62
7
  6
BYLAYER
 10
134.8825618504
 20
155.2318115942
 40
0.5
100
AcDbArc
 50
180.0
 51
270.0
  0
ARC
  5
290
100
AcDbEntity
  8
0
100
AcDbCircle
 62
7
  6
BYLAYER
 10
146.3825618504
 20
155.2318115942
 40
0.5
100
AcDbArc
 50
270.0
 51
360.0
  0
SPLINE
  5
291
100
AcDbEntity
  8
0
100
AcDbSpline
 62
7
  6
BYLAYER
 70
0
 71
3
 72
14
 73
10
 74
0
 42
0.0000001
 43
0.0000001
 44
0.0000000001
 40
0.0
 40
0.0
 40
0.0
 40
0.0
 40
0.2261417758
 40
0.4728170665
 40
0.6016745389
 40
0.7331370166
 40
0.8665208063
 40
0.9337655705
 40
1.0
 40
1.0
 40
1.0
 40
1.0
 10
139.0670276392
 20
34.7818115942
 30
0.0
 10
139.2657846948
 20
34.7818115942
 30
0.0
 10
139.6803161056
 20
34.8521459982
 30
0.0
 10
140.1824494025
 20
35.0187204531
 30
0.0
 10
140.5946915065
 20
35.1890981999
 30
0.0
 10
140.9071595551
 20
35.3362214799
 30
0.0
 10
141.1644725035
 20
35.4801978339
 30
0.0
 10
141.3503426954
 20
35.6161977199
 30
0.0
 10
141.4272250514
 20
35.7235978469
 30
0.0
 10
141.4272250514
 20
35.7818115942
 30
0.0
  0
SPLINE
  5
292
100
AcDbEntity
  8
0
100
AcDbSpline
 62
7
  6
BYLAYER
 70
0
 71
3
 72
11
 73
7
 74
0
 42
0.0000001
 43
0.0000001
 44
0.0000000001
 40
0.0
 40
0.0
 40
0.0
 40
0.0
 40
0.2483344994
 40
0.4976373084
 40
0.7483322357
 40
1.0
 40
1.0
 40
1.0
 40
1.0
 10
161.1129617302
 20
357.9088493473
 30
0.0
 10
161.3423914251
 20
357.8732899637
 30
0.0
 10
161.7933538494
 20
357.7173741778
 30
0.0
 10
162.3425434027
 20
357.2609974531
 30
0.0
 10
162.7022555457
 20
356.6408956902
 30
0.0
 10
162.7853516013
 20
356.1670969
 30
0.0
 10
162.7853516014
 20
355.9318115942
 30
0.0
  0
SPLINE
  5
293
100
AcDbEntity
  8
0
100
AcDbSpline
 62
7
  6
BYLAYER
 70
0
 71
3
 72
18
 73
14
 74
0
 42
0.0000001
 43
0.0000001
 44
0.0000000001
 40
0.0
 40
0.0
 40
0.0
 40
0.0
 40
0.1469884798
 40
0.2849085014
 40
0.3482865146
 40
0.4074072604
 40
0.5144945825
 40
0.5657214662
 40
0.617828434
 40
0.6724526888
 40
0.7305684924
 40
0.8582413816
 40
1.0
 40
1.0
 40
1.0
 40
1.0
 10
160.3239379445
 20
339.9318115972
 30
0.0
 10
160.3239210417
 20
338.9733998013
 30
0.0
 10
160.2792422555
 20
337.1157163921
 30
0.0
 10
160.0705961184
 20
334.8498072055
 30
0.0
 10
159.7290269275
 20
333.1835372343
 30
0.0
 10
159.2813954751
 20
331.754498621
 30
0.0
 10
158.5710378851
 20
330.4881069312
 30
0.0
 10
157.5605665118
 20
329.546690384
 30
0.0
 10
156.6815913526
 20
328.9988763147
 30
0.0
 10
155.6825251242
 20
328.5914583579
 30
0.0
 10
154.1629748241
 20
328.1934200134
 30
0.0
 10
152.0313591879
 20
327.9594102393
 30
0.0
 10
150.2746739275
 20
327.9318114873
 30
0.0
 10
149.350362497
 20
327.9318115942
 30
0.0
  0
SPLINE
  5
294
100
AcDbEntity
  8
0
100
AcDbSpline
 62
7
  6
BYLAYER
 70
0
 71
3
 72
11
 73
7
 74
0
 42
0.0000001
 43
0.0000001
 44
0.0000000001
 40
0.0
 40
0.0
 40
0.0
 40
0.0
 40
0.2515916775
 40
0.5022004878
 40
0.7515393035
 40
1.0
 40
1.0
 40
1.0
 40
1.0
 10
118.4797720994
 20
355.9318115942
 30
0.0
 10
118.4797720994
 20
356.1672017983
 30
0.0
 10
118.5629269474
 20
356.6412138709
 30
0.0
 10
118.9230432026
 20
357.261570651
 30
0.0
 10
119.4729051842
 20
357.7181315088
 30
0.0
 10
119.9245292039
 20
357.8737991973
 30
0.0
 10
120.1542841835
 20
357.90916435
 30
0.0
  0
SPLINE
  5
295
100
AcDbEntity
  8
0
100
AcDbSpline
 62
7
  6
BYLAYER
 70
0
 71
3
 72
18
 73
14
 74
0
 42
0.0000001
 43
0.0000001
 44
0.0000000001
 40
0.0
 40
0.0
 40
0.0
 40
0.0
 40
0.1418212303
 40
0.2696004443
 40
0.3277434706
 40
0.3823795039
 40
0.4344926957
 40
0.4857225195
 40
0.5927970522
 40
0.6519012422
 40
0.7152651097
 40
0.8531466113
 40
1.0
 40
1.0
 40
1.0
 40
1.0
 10
131.9147602163
 20
327.9318115942
 30
0.0
 10
130.9900447264
 20
327.9318277329
 30
0.0
 10
129.232274039
 20
327.9595375289
 30
0.0
 10
127.0993773142
 20
328.1937985858
 30
0.0
 10
125.5790369563
 20
328.5925949084
 30
0.0
 10
124.5799328644
 20
329.0007298314
 30
0.0
 10
123.7012946799
 20
329.5493522566
 30
0.0
 10
122.6916680184
 20
330.4916234226
 30
0.0
 10
121.9822447724
 20
331.7582480646
 30
0.0
 10
121.5351946524
 20
333.1871593152
 30
0.0
 10
121.1941434587
 20
334.8530600647
 30
0.0
 10
120.985774815
 20
337.117738874
 30
0.0
 10
120.9411817624
 20
338.9742849773
 30
0.0
 10
120.9411831001
 20
339.9318115973
 30
0.0
  0
SPLINE
  5
296
100
AcDbEntity
  8
0
100
AcDbSpline
 62
7
  6
BYLAYER
 70
0
 71
3
 72
11
 73
7
 74
0
 42
0.0000001
 43
0.0000001
 44
0.0000000001
 40
0.0
 40
0.0
 40
0.0
 40
0.0
 40
0.3704434513
 40
0.5182343333
 40
0.6781943109
 40
1.0
 40
1.0
 40
1.0
 40
1.0
 10
131.914764294
 20
327.9318115942
 30
0.0
 10
131.5604390891
 20
327.931811594
 30
0.0
 10
131.1911339326
 20
327.3866206929
 30
0.0
 10
130.9940353503
 20
326.7940130345
 30
0.0
 10
130.8593429496
 20
326.1999648508
 30
0.0
 10
130.8250396106
 20
325.739615299
 30
0.0
 10
130.825039612
 20
325.4318115942
 30
0.0
  0
SPLINE
  5
297
100
AcDbEntity
  8
0
100
AcDbSpline
 62
7
  6
BYLAYER
 70
0
 71
3
 72
17
 73
13
 74
0
 42
0.0000001
 43
0.0000001
 44
0.0000000001
 40
0.0
 40
0.0
 40
0.0
 40
0.0
 40
0.1361744472
 40
0.258249602
 40
0.3659927793
 40
0.4164499781
 40
0.46664718
 40
0.5737359724
 40
0.6339758813
 40
0.6993544198
 40
0.843920229
 40
1.0
 40
1.0
 40
1.0
 40
1.0
 10
150.4400844845
 20
325.4318115942
 30
0.0
 10
151.478071327
 20
325.4318112494
 30
0.0
 10
153.4480075013
 20
325.4683148289
 30
0.0
 10
156.2252564501
 20
325.7899938372
 30
0.0
 10
158.2849029856
 20
326.4648438868
 30
0.0
 10
159.6219607223
 20
327.339494583
 30
0.0
 10
160.7626171501
 20
328.4525679115
 30
0.0
 10
161.5675235187
 20
329.945339223
 30
0.0
 10
162.0838498835
 20
331.6427754188
 30
0.0
 10
162.4861261311
 20
333.6660628809
 30
0.0
 10
162.7327998374
 20
336.4504608995
 30
0.0
 10
162.7853434691
 20
338.7420965888
 30
0.0
 10
162.7853515988
 20
339.9318113406
 30
0.0
  0
SPLINE
  5
298
100
AcDbEntity
  8
0
100
AcDbSpline
 62
7
  6
BYLAYER
 70
0
 71
3
 72
17
 73
13
 74
0
 42
0.0000001
 43
0.0000001
 44
0.0000000001
 40
0.0
 40
0.0
 40
0.0
 40
0.0
 40
0.1560804786
 40
0.3006471139
 40
0.3660259071
 40
0.4262643471
 40
0.5333509158
 40
0.5835494031
 40
0.6340062027
 40
0.7417504116
 40
0.8638257809
 40
1.0
 40
1.0
 40
1.0
 40
1.0
 10
118.479772102
 20
339.9318113427
 30
0.0
 10
118.4797731072
 20
338.7420936453
 30
0.0
 10
118.5323351274
 20
336.4504513263
 30
0.0
 10
118.7790002035
 20
333.6660448184
 30
0.0
 10
119.1812580408
 20
331.64276295
 30
0.0
 10
119.6976079977
 20
329.9453541061
 30
0.0
 10
120.5026045418
 20
328.4526935597
 30
0.0
 10
121.6431347658
 20
327.3395020776
 30
0.0
 10
122.9803018662
 20
326.4649889301
 30
0.0
 10
125.0398538947
 20
325.789959073
 30
0.0
 10
127.8171278122
 20
325.4682205901
 30
0.0
 10
129.7870562536
 20
325.4318228513
 30
0.0
 10
130.8250392216
 20
325.4318115942
 30
0.0
  0
SPLINE
  5
299
100
AcDbEntity
  8
0
100
AcDbSpline
 62
7
  6
BYLAYER
 70
0
 71
3
 72
11
 73
7
 74
0
 42
0.0000001
 43
0.0000001
 44
0.0000000001
 40
0.0
 40
0.0
 40
0.0
 40
0.0
 40
0.3218057686
 40
0.4817657595
 40
0.6295566358
 40
1.0
 40
1.0
 40
1.0
 40
1.0
 10
150.4400844482
 20
325.4318115942
 30
0.0
 10
150.4400844483
 20
325.7396153801
 30
0.0
 10
150.4057810909
 20
326.1999650298
 30
0.0
 10
150.2710886255
 20
326.7940132947
 30
0.0
 10
150.0739900055
 20
327.3866208812
 30
0.0
 10
149.7046848432
 20
327.9318115942
 30
0.0
 10
149.3503597158
 20
327.9318115942
 30
0.0
  0
SPLINE
  5
29A
100
AcDbEntity
  8
0
100
AcDbSpline
 62
7
  6
BYLAYER
 70
0
 71
3
 72
14
 73
10
 74
0
 42
0.0000001
 43
0.0000001
 44
0.0000000001
 40
0.0
 40
0.0
 40
0.0
 40
0.0
 40
0.0670870589
 40
0.1341847477
 40
0.2674706389
 40
0.3988084579
 40
0.5275468908
 40
0.7739911409
 40
1.0
 40
1.0
 40
1.0
 40
1.0
 10
124.8378986494
 20
35.7818115942
 30
0.0
 10
124.8378986494
 20
35.7228457132
 30
0.0
 10
124.9151306677
 20
35.6146161187
 30
0.0
 10
125.1026187922
 20
35.4797969738
 30
0.0
 10
125.3591608523
 20
35.3353767838
 30
0.0
 10
125.6715752093
 20
35.1886585925
 30
0.0
 10
126.0834192559
 20
35.0184206395
 30
0.0
 10
126.585216967
 20
34.8520567477
 30
0.0
 10
126.9994465501
 20
34.7818115942
 30
0.0
 10
127.1980960616
 20
34.7818115942
 30
0.0
  0
ENDSEC
  0
SECTION
  2
OBJECTS
  0
DICTIONARY
  5
C
100
AcDbDictionary
280
0
281
1
  3
ACAD_GROUP
350
D
  3
ACAD_MLINESTYLE
350
17
  3
ACAD_LAYOUT
350
1A
  3
ACAD_PLOTSETTINGS
350
19
  3
ACAD_PLOTSTYLENAME
350
E
  0
DICTIONARY
  5
D
102
{ACAD_REACTORS
330
C
102
}
100
AcDbDictionary
280
0
281
1
  0
ACDBDICTIONARYWDFLT
  5
E
102
{ACAD_REACTORS
330
C
102
}
100
AcDbDictionary
281
1
  3
Normal
350
F
100
AcDbDictionaryWithDefault
340
F
  0
DICTIONARY
  5
17
102
{ACAD_REACTORS
330
C
102
}
100
AcDbDictionary
280
0
281
1
  3
Standard
350
18
  0
DICTIONARY
  5
19
102
{ACAD_REACTORS
330
C
102
}
100
AcDbDictionary
281
1
  0
DICTIONARY
  5
1A
102
{ACAD_REACTORS
330
C
102
}
100
AcDbDictionary
281
1
  3
Model
350
29B
  3
Layout1
350
29C
  0
ACDBPLACEHOLDER
  5
F
102
{ACAD_REACTORS
330
E
102
}
  0
MLINESTYLE
  5
18
102
{ACAD_REACTORS
330
17
102
}
100
AcDbMlineStyle
  2
STANDARD
 70
0
  3

 62
256
 51
90.0
 52
90.0
 71
2
 49
0.5
 62
256
  6
BYLAYER
 49
-0.5
 62
256
  6
BYLAYER
  0
LAYOUT
  5
29B
102
{ACAD_REACTORS
330
1A
102
}
100
AcDbPlotSettings
  1

  2
none_device
  4

  6

 40
0.0
 41
0.0
 42
0.0
 43
0.0
 44
210.0
 45
297.0
 46
0.0
 47
0.0
 48
0.0
 49
0.0
140
0.0
141
0.0
142
1.0
143
1.0
 70
1024
 72
1
 73
0
 74
0
  7

 75
0
147
1.0
148
0.0
149
0.0
100
AcDbLayout
  1
Model
 70
0
 71
0
 10
0.0
 20
0.0
 11
210.0
 21
297.0
 12
0.0
 22
0.0
 32
0.0
 14
0.0
 24
0.0
 34
0.0
 15
0.0
 25
0.0
 35
0.0
146
0.0
 13
0.0
 23
0.0
 33
0.0
 16
1.0
 26
0.0
 36
0.0
 17
0.0
 27
1.0
 37
0.0
 76
0
330
210
345
0
346
0
  0
LAYOUT
  5
29C
102
{ACAD_REACTORS
330
1A
102
}
100
AcDbPlotSettings
  1

  2
none_device
  4

  6

 40
0.0
 41
0.0
 42
0.0
 43
0.0
 44
210.0
 45
297.0
 46
0.0
 47
0.0
 48
0.0
 49
0.0
140
0.0
141
0.0
142
1.0
143
1.0
 70
0
 72
1
 73
0
 74
0
  7

 75
0
147
1.0
148
0.0
149
0.0
100
AcDbLayout
  1
Layout1
 70
0
 71
1
 10
0.0
 20
0.0
 11
210.0
 21
297.0
 12
0.0
 22
0.0
 32
0.0
 14
0.0
 24
0.0
 34
0.0
 15
0.0
 25
0.0
 35
0.0
146
0.0
 13
0.0
 23
0.0
 33
0.0
 16
1.0
 26
0.0
 36
0.0
 17
0.0
 27
1.0
 37
0.0
 76
0
330
211
345
0
346
0
  0
ENDSEC
  0
EOF
