999
DXF file: C:\Users\sesa63760\Dev\_Creo\CAD\MCADPP0000419_3D-CAD\drw0001_4.dxf
999
Pro/ENGINEER 2019471 by Parametric Technology Corporation
  0
SECTION
  2
HEADER
  9
$ACADVER
  1
AC1024
  9
$DWGCODEPAGE
  3
ANSI_1252
  9
$EXTMAX
 10
130.1017720307
 20
184.0010775862
 30
0.0
  9
$EXTMIN
 10
0.0
 20
0.0
 30
0.0
  9
$LIMMIN
 10
0.0
 20
0.0
  9
$LIMMAX
 10
130.1017720307
 20
184.0010775862
  9
$VIEWCTR
 10
65.0508860153
 20
92.0005387931
  9
$VIEWSIZE
 40
184.0010775862
  9
$CLAYER
  8
0
  9
$LTSCALE
 40
11.9941443167
  9
$CELTYPE
  6
BYLAYER
  9
$DIMSCALE
 40
1.0
  9
$DIMASZ
 40
1.5488306194
  9
$DIMEXO
 40
1.0
  9
$DIMDLI
 40
8.2868633461
  9
$DIMEXE
 40
1.0
  9
$DIMCEN
 40
1.9626781609
  9
$DIMLFAC
 40
1.0
  9
$DIMBLK
  1
_FILLED
  9
$DIMALT
 70
0
  9
$DIMALTF
 40
0.0393700787
  9
$DIMTXT
 40
2.1683628672
  9
$DIMTOL
 70
1
  9
$DIMLIM
 70
0
  9
$DIMTFAC
 40
1.0
  9
$DIMTP
 40
0.01
  9
$DIMTM
 40
0.01
  9
$DIMGAP
 40
0.625
  9
$DIMDSEP
 70
46
  9
$AUNITS
 70
0
  9
$PDMODE
 70
3
  9
$PDSIZE
 40
0.3125
  9
$HANDSEED
  5
26A
  9
$TILEMODE
 70
1
  9
$MEASUREMENT
 70
1
  9
$INSUNITS
 70
4
  0
ENDSEC
  0
SECTION
  2
CLASSES
  0
CLASS
  1
ACDBDICTIONARYWDFLT
  2
AcDbDictionaryWithDefault
  3
AutoCAD 2000
 90
0
 91
1
280
0
281
0
  0
CLASS
  1
ACDBPLACEHOLDER
  2
AcDbPlaceHolder
  3
AutoCAD 2000
 90
0
 91
1
280
0
281
0
  0
CLASS
  1
LAYOUT
  2
AcDbLayout
  3
AutoCAD 2000
 90
0
 91
0
280
0
281
0
  0
ENDSEC
  0
SECTION
  2
TABLES
  0
TABLE
  2
VPORT
  5
8
100
AcDbSymbolTable
 70
2
  0
VPORT
  5
1F4
100
AcDbSymbolTableRecord
100
AcDbViewportTableRecord
  2
*ACTIVE
 70
0
 10
0.0
 20
0.0
 11
1.0
 21
1.0
 12
65.0508860153
 22
92.0005387931
 13
0.0
 23
0.0
 14
1.0
 24
1.0
 15
0.0
 25
0.0
 16
0.0
 26
0.0
 36
1.0
 17
0.0
 27
0.0
 37
0.0
 40
184.0010775862
 41
0.7070707071
 42
50.0
 43
0.0
 44
0.0
 50
0.0
 51
0.0
 71
0
 72
100
 73
1
 74
1
 75
0
 76
0
 77
0
 78
0
  0
ENDTAB
  0
TABLE
  2
LTYPE
  5
5
100
AcDbSymbolTable
 70
6
  0
LTYPE
  5
14
100
AcDbSymbolTableRecord
100
AcDbLinetypeTableRecord
  2
BYBLOCK
 70
0
  3

 72
65
 73
0
 40
0.0
  0
LTYPE
  5
15
100
AcDbSymbolTableRecord
100
AcDbLinetypeTableRecord
  2
BYLAYER
 70
0
  3

 72
65
 73
0
 40
0.0
  0
LTYPE
  5
16
100
AcDbSymbolTableRecord
100
AcDbLinetypeTableRecord
  2
CONTINUOUS
 70
64
  3
Solid line
 72
65
 73
0
 40
0.0
  0
LTYPE
  5
1F5
100
AcDbSymbolTableRecord
100
AcDbLinetypeTableRecord
  2
CENTER
 70
64
  3
____ _ ____ _ ____ _ ____ _ ____ _ ____ _ ____
 72
65
 73
4
 40
0.6
 49
0.375
 74
0
 49
-0.075
 74
0
 49
0.075
 74
0
 49
-0.075
 74
0
  0
LTYPE
  5
1F6
100
AcDbSymbolTableRecord
100
AcDbLinetypeTableRecord
  2
HIDDEN
 70
64
  3
- - - - - - - - - - - - - - - - - - - -
 72
65
 73
2
 40
0.2
 49
0.1
 74
0
 49
-0.1
 74
0
  0
LTYPE
  5
1F7
100
AcDbSymbolTableRecord
100
AcDbLinetypeTableRecord
  2
PHANTOM
 70
64
  3
_____ _ _ _____ _ _ _____ _ _ _____
 72
65
 73
6
 40
0.8
 49
0.45
 74
0
 49
-0.05
 74
0
 49
0.1
 74
0
 49
-0.05
 74
0
 49
0.1
 74
0
 49
-0.05
 74
0
  0
LTYPE
  5
1F8
100
AcDbSymbolTableRecord
100
AcDbLinetypeTableRecord
  2
DOT
 70
64
  3
. . . . . . . . . . . . . . . . . . . .
 72
65
 73
2
 40
0.2
 49
0.1
 74
0
 49
-0.1
 74
0
  0
LTYPE
  5
1F9
100
AcDbSymbolTableRecord
100
AcDbLinetypeTableRecord
  2
DASHED
 70
64
  3
- - - - - - - - - - - - - - - - - - - -
 72
65
 73
2
 40
0.2
 49
0.1
 74
0
 49
-0.1
 74
0
  0
ENDTAB
  0
TABLE
  2
LAYER
  5
2
100
AcDbSymbolTable
 70
36
  0
LAYER
  5
10
100
AcDbSymbolTableRecord
100
AcDbLayerTableRecord
  2
0
 70
0
 62
7
  6
CONTINUOUS
370
-3
390
F
  0
LAYER
  5
1FA
100
AcDbSymbolTableRecord
100
AcDbLayerTableRecord
  2
DEFAULT_1
 70
0
 62
7
  6
CENTER
370
-3
390
F
  0
LAYER
  5
1FB
100
AcDbSymbolTableRecord
100
AcDbLayerTableRecord
  2
DEFAULT_2
 70
0
 62
8
  6
HIDDEN
370
-3
390
F
  0
LAYER
  5
1FC
100
AcDbSymbolTableRecord
100
AcDbLayerTableRecord
  2
DEFAULT_3
 70
0
 62
7
  6
PHANTOM
370
-3
390
F
  0
LAYER
  5
1FD
100
AcDbSymbolTableRecord
100
AcDbLayerTableRecord
  2
00_COMPONENTS
 70
0
 62
7
  6
CONTINUOUS
370
-3
390
F
  0
LAYER
  5
1FE
100
AcDbSymbolTableRecord
100
AcDbLayerTableRecord
  2
01_1_DEFAULT_DATUMS
 70
0
 62
7
  6
CONTINUOUS
370
-3
390
F
  0
LAYER
  5
1FF
100
AcDbSymbolTableRecord
100
AcDbLayerTableRecord
  2
01_PLANES
 70
0
 62
7
  6
CONTINUOUS
370
-3
390
F
  0
LAYER
  5
200
100
AcDbSymbolTableRecord
100
AcDbLayerTableRecord
  2
02_COORD_SYS
 70
0
 62
7
  6
CONTINUOUS
370
-3
390
F
  0
LAYER
  5
201
100
AcDbSymbolTableRecord
100
AcDbLayerTableRecord
  2
03_AXES
 70
0
 62
7
  6
CONTINUOUS
370
-3
390
F
  0
LAYER
  5
202
100
AcDbSymbolTableRecord
100
AcDbLayerTableRecord
  2
04_POINTS
 70
0
 62
7
  6
CONTINUOUS
370
-3
390
F
  0
LAYER
  5
203
100
AcDbSymbolTableRecord
100
AcDbLayerTableRecord
  2
05_CURVES
 70
0
 62
7
  6
CONTINUOUS
370
-3
390
F
  0
LAYER
  5
204
100
AcDbSymbolTableRecord
100
AcDbLayerTableRecord
  2
06_SURFS
 70
0
 62
7
  6
CONTINUOUS
370
-3
390
F
  0
LAYER
  5
205
100
AcDbSymbolTableRecord
100
AcDbLayerTableRecord
  2
07_COSMETICS
 70
0
 62
7
  6
CONTINUOUS
370
-3
390
F
  0
LAYER
  5
206
100
AcDbSymbolTableRecord
100
AcDbLayerTableRecord
  2
10_NOTES
 70
0
 62
7
  6
CONTINUOUS
370
-3
390
F
  0
LAYER
  5
207
100
AcDbSymbolTableRecord
100
AcDbLayerTableRecord
  2
11_NOTES_PUB
 70
0
 62
7
  6
CONTINUOUS
370
-3
390
F
  0
LAYER
  5
208
100
AcDbSymbolTableRecord
100
AcDbLayerTableRecord
  2
13_REF_GTOL
 70
0
 62
7
  6
CONTINUOUS
370
-3
390
F
  0
LAYER
  5
209
100
AcDbSymbolTableRecord
100
AcDbLayerTableRecord
  2
16_MISC
 70
0
 62
7
  6
CONTINUOUS
370
-3
390
F
  0
LAYER
  5
20A
100
AcDbSymbolTableRecord
100
AcDbLayerTableRecord
  2
17_NO_PRINT
 70
0
 62
7
  6
CONTINUOUS
370
-3
390
F
  0
LAYER
  5
20B
100
AcDbSymbolTableRecord
100
AcDbLayerTableRecord
  2
18_DATUM_CAMS_JOINTS
 70
0
 62
7
  6
CONTINUOUS
370
-3
390
F
  0
LAYER
  5
20C
100
AcDbSymbolTableRecord
100
AcDbLayerTableRecord
  2
19_DATUM_FUNCTIONAL
 70
0
 62
7
  6
CONTINUOUS
370
-3
390
F
  0
LAYER
  5
20D
100
AcDbSymbolTableRecord
100
AcDbLayerTableRecord
  2
20_DATUM_KINEMATIC_SCHEME
 70
0
 62
7
  6
CONTINUOUS
370
-3
390
F
  0
ENDTAB
  0
TABLE
  2
STYLE
  5
3
100
AcDbSymbolTable
 70
1
  0
STYLE
  5
11
100
AcDbSymbolTableRecord
100
AcDbTextStyleTableRecord
  2
STANDARD
 70
0
 40
0.0
 41
0.8
 50
0.0
 71
0
 42
0.2
  3
txt
  4

  0
STYLE
  5
20E
100
AcDbSymbolTableRecord
100
AcDbTextStyleTableRecord
  2
TEXTSTYLE_1
 70
0
 40
0.0
 41
0.8
 50
0.0
 71
0
 42
0.2
  3
gdt
  4

  0
ENDTAB
  0
TABLE
  2
VIEW
  5
6
100
AcDbSymbolTable
 70
0
  0
ENDTAB
  0
TABLE
  2
UCS
  5
7
100
AcDbSymbolTable
 70
0
  0
ENDTAB
  0
TABLE
  2
APPID
  5
9
100
AcDbSymbolTable
 70
1
  0
APPID
  5
20F
100
AcDbSymbolTableRecord
100
AcDbRegAppTableRecord
  2
ACAD
 70
0
  0
ENDTAB
  0
TABLE
  2
BLOCK_RECORD
  5
1
100
AcDbSymbolTable
 70
0
  0
BLOCK_RECORD
  5
210
100
AcDbSymbolTableRecord
100
AcDbBlockTableRecord
  2
*Model_Space
  0
BLOCK_RECORD
  5
211
100
AcDbSymbolTableRecord
100
AcDbBlockTableRecord
  2
*Paper_Space
  0
BLOCK_RECORD
  5
212
100
AcDbSymbolTableRecord
100
AcDbBlockTableRecord
  2
_FILLED
  0
ENDTAB
  0
TABLE
  2
DIMSTYLE
  5
A
100
AcDbSymbolTable
 70
1
100
AcDbDimStyleTable
 71
0
  0
DIMSTYLE
105
213
100
AcDbSymbolTableRecord
100
AcDbDimStyleTableRecord
  2
STANDARD
 70
0
  3

  4

 40
1.0
 41
1.5488306194
 42
1.0
 43
0.38
 44
1.0
 45
0.0
 46
0.0
 47
0.01
 48
0.01
140
2.1683628672
141
0.09
142
0.0
143
25.4
144
1.0
145
0.0
146
1.0
147
0.625
 71
1
 72
0
 73
0
 74
0
 75
0
 76
0
 77
1
 78
8
 79
2
170
0
171
1
172
0
173
0
174
0
175
0
176
0
177
0
178
0
270
2
179
2
271
2
272
2
273
2
274
2
275
0
280
0
281
0
282
0
283
1
284
8
285
0
286
0
287
3
288
0
340
11
278
46
341
212
342
212
343
212
344
212
  0
ENDTAB
  0
ENDSEC
  0
SECTION
  2
BLOCKS
  0
BLOCK
  5
20
100
AcDbEntity
  8
0
100
AcDbBlockBegin
  2
*Model_Space
 70
0
 10
0.0
 20
0.0
 30
0.0
  3
*Model_Space
  1

  0
ENDBLK
  5
21
100
AcDbEntity
  8
0
100
AcDbBlockEnd
  0
BLOCK
  5
1C
100
AcDbEntity
  8
0
100
AcDbBlockBegin
  2
*Paper_Space
 70
0
 10
0.0
 20
0.0
 30
0.0
  3
*Paper_Space
  1

  0
ENDBLK
  5
1D
100
AcDbEntity
  8
0
100
AcDbBlockEnd
  0
BLOCK
  5
214
100
AcDbEntity
  8
0
100
AcDbBlockBegin
  2
_FILLED
 70
64
 10
0.0
 20
0.0
  3
_FILLED
  1

  0
SOLID
  5
215
100
AcDbEntity
  8
0
  6
BYBLOCK
 62
0
100
AcDbTrace
 10
0.0
 20
0.0
 11
-1.0
 21
0.25
 12
-1.0
 22
-0.25
 13
-1.0
 23
-0.25
  0
ENDBLK
  5
216
100
AcDbEntity
  8
0
  6
BYBLOCK
 62
0
100
AcDbBlockEnd
  0
ENDSEC
  0
SECTION
  2
ENTITIES
  0
LINE
  5
217
100
AcDbEntity
  8
0
100
AcDbLine
 62
7
  6
CONTINUOUS
 10
14.4900023946
 20
45.4375
 11
14.4900023946
 21
133.0175
  0
LINE
  5
218
100
AcDbEntity
  8
0
100
AcDbLine
 62
7
  6
CONTINUOUS
 10
17.3400023946
 20
94.7889701644
 11
17.3400023946
 21
92.7375
  0
LINE
  5
219
100
AcDbEntity
  8
0
100
AcDbLine
 62
7
  6
CONTINUOUS
 10
17.3400023946
 20
89.6860298356
 11
17.3400023946
 21
91.7375
  0
LINE
  5
21A
100
AcDbEntity
  8
0
100
AcDbLine
 62
7
  6
CONTINUOUS
 10
18.3400023946
 20
94.7889701644
 11
18.3400023946
 21
92.7375
  0
LINE
  5
21B
100
AcDbEntity
  8
0
100
AcDbLine
 62
7
  6
CONTINUOUS
 10
18.3400023946
 20
89.6860298356
 11
18.3400023946
 21
91.7375
  0
LINE
  5
21C
100
AcDbEntity
  8
0
100
AcDbLine
 62
7
  6
CONTINUOUS
 10
118.9900023946
 20
45.4375
 11
14.4900023946
 21
45.4375
  0
LINE
  5
21D
100
AcDbEntity
  8
0
100
AcDbLine
 62
7
  6
CONTINUOUS
 10
21.2400023946
 20
47.4375
 11
21.2400023946
 21
120.4375
  0
LINE
  5
21E
100
AcDbEntity
  8
0
100
AcDbLine
 62
7
  6
CONTINUOUS
 10
112.2400023946
 20
47.4375
 11
21.2400023946
 21
47.4375
  0
LINE
  5
21F
100
AcDbEntity
  8
0
100
AcDbLine
 62
7
  6
CONTINUOUS
 10
57.2398700328
 20
104.0542294628
 11
70.310148396
 21
110.8445534659
  0
LINE
  5
220
100
AcDbEntity
  8
0
100
AcDbLine
 62
7
  6
CONTINUOUS
 10
66.2400023946
 20
134.4889701644
 11
66.2400023946
 21
132.4375
  0
LINE
  5
221
100
AcDbEntity
  8
0
100
AcDbLine
 62
7
  6
CONTINUOUS
 10
66.2400023946
 20
129.3860298356
 11
66.2400023946
 21
131.4375
  0
LINE
  5
222
100
AcDbEntity
  8
0
100
AcDbLine
 62
7
  6
CONTINUOUS
 10
67.2400023946
 20
134.4889701644
 11
67.2400023946
 21
132.4375
  0
LINE
  5
223
100
AcDbEntity
  8
0
100
AcDbLine
 62
7
  6
CONTINUOUS
 10
67.2400023946
 20
129.3860298356
 11
67.2400023946
 21
131.4375
  0
LINE
  5
224
100
AcDbEntity
  8
0
100
AcDbLine
 62
7
  6
CONTINUOUS
 10
17.8400023946
 20
88.7375
 11
14.4900023946
 21
88.7375
  0
LINE
  5
225
100
AcDbEntity
  8
0
100
AcDbLine
 62
7
  6
CONTINUOUS
 10
115.6400023946
 20
88.7375
 11
118.9900023946
 21
88.7375
  0
LINE
  5
226
100
AcDbEntity
  8
0
100
AcDbLine
 62
7
  6
CONTINUOUS
 10
20.3914725591
 20
91.7375
 11
18.3400023946
 21
91.7375
  0
LINE
  5
227
100
AcDbEntity
  8
0
100
AcDbLine
 62
7
  6
CONTINUOUS
 10
15.2885322302
 20
91.7375
 11
17.3400023946
 21
91.7375
  0
LINE
  5
228
100
AcDbEntity
  8
0
100
AcDbLine
 62
7
  6
CONTINUOUS
 10
95.300280269
 20
103.5171621119
 11
48.8678657559
 21
79.3944058839
  0
LINE
  5
229
100
AcDbEntity
  8
0
100
AcDbLine
 62
7
  6
CONTINUOUS
 10
95.9505384493
 20
102.8131968047
 11
97.8073918265
 21
103.777876799
  0
LINE
  5
22A
100
AcDbEntity
  8
0
100
AcDbLine
 62
7
  6
CONTINUOUS
 10
20.3914725591
 20
92.7375
 11
18.3400023946
 21
92.7375
  0
LINE
  5
22B
100
AcDbEntity
  8
0
100
AcDbLine
 62
7
  6
CONTINUOUS
 10
15.2885322302
 20
92.7375
 11
17.3400023946
 21
92.7375
  0
LINE
  5
22C
100
AcDbEntity
  8
0
100
AcDbLine
 62
7
  6
CONTINUOUS
 10
17.8400023946
 20
95.7375
 11
14.4900023946
 21
95.7375
  0
LINE
  5
22D
100
AcDbEntity
  8
0
100
AcDbLine
 62
7
  6
CONTINUOUS
 10
115.6400023946
 20
95.7375
 11
118.9900023946
 21
95.7375
  0
LINE
  5
22E
100
AcDbEntity
  8
0
100
AcDbLine
 62
7
  6
CONTINUOUS
 10
102.2671194339
 20
95.2097599967
 11
101.2680275548
 21
94.6907077333
  0
LINE
  5
22F
100
AcDbEntity
  8
0
100
AcDbLine
 62
7
  6
CONTINUOUS
 10
103.6427946653
 20
92.5618070855
 11
102.2957319357
 21
91.8620154115
  0
LINE
  5
230
100
AcDbEntity
  8
0
100
AcDbLine
 62
7
  6
CONTINUOUS
 10
103.1222161548
 20
88.4200189876
 11
56.7234941004
 21
64.3147668023
  0
LINE
  5
231
100
AcDbEntity
  8
0
100
AcDbLine
 62
7
  6
CONTINUOUS
 10
112.2400023946
 20
120.4375
 11
21.2400023946
 21
120.4375
  0
LINE
  5
232
100
AcDbEntity
  8
0
100
AcDbLine
 62
7
  6
CONTINUOUS
 10
94.7420360304
 20
63.8225405642
 11
81.6673150636
 21
57.0299085215
  0
LINE
  5
233
100
AcDbEntity
  8
0
100
AcDbLine
 62
7
  6
CONTINUOUS
 10
118.9900023946
 20
127.4375
 11
14.4900023946
 21
127.4375
  0
LINE
  5
234
100
AcDbEntity
  8
0
100
AcDbLine
 62
7
  6
CONTINUOUS
 10
103.6427946653
 20
92.5618070855
 11
102.2671194339
 21
95.2097599967
  0
LINE
  5
235
100
AcDbEntity
  8
0
100
AcDbLine
 62
7
  6
CONTINUOUS
 10
104.28794872
 20
93.4266344723
 11
102.9121991794
 21
96.0747304167
  0
LINE
  5
236
100
AcDbEntity
  8
0
100
AcDbLine
 62
7
  6
CONTINUOUS
 10
103.042938218
 20
97.6870957385
 11
101.6673372957
 21
100.3349056166
  0
LINE
  5
237
100
AcDbEntity
  8
0
100
AcDbLine
 62
7
  6
CONTINUOUS
 10
69.2914725591
 20
131.4375
 11
67.2400023946
 21
131.4375
  0
LINE
  5
238
100
AcDbEntity
  8
0
100
AcDbLine
 62
7
  6
CONTINUOUS
 10
64.1885322302
 20
131.4375
 11
66.2400023946
 21
131.4375
  0
LINE
  5
239
100
AcDbEntity
  8
0
100
AcDbLine
 62
7
  6
CONTINUOUS
 10
69.2914725591
 20
132.4375
 11
67.2400023946
 21
132.4375
  0
LINE
  5
23A
100
AcDbEntity
  8
0
100
AcDbLine
 62
7
  6
CONTINUOUS
 10
64.1885322302
 20
132.4375
 11
66.2400023946
 21
132.4375
  0
LINE
  5
23B
100
AcDbEntity
  8
0
100
AcDbLine
 62
7
  6
CONTINUOUS
 10
112.2400023946
 20
47.4375
 11
112.2400023946
 21
120.4375
  0
LINE
  5
23C
100
AcDbEntity
  8
0
100
AcDbLine
 62
7
  6
CONTINUOUS
 10
114.3266988446
 20
137.4375
 11
88.8900023946
 21
137.4375
  0
LINE
  5
23D
100
AcDbEntity
  8
0
100
AcDbLine
 62
7
  6
CONTINUOUS
 10
79.5900023946
 20
137.4375
 11
19.1533059447
 21
137.4375
  0
LINE
  5
23E
100
AcDbEntity
  8
0
100
AcDbLine
 62
7
  6
CONTINUOUS
 10
118.9900023946
 20
45.4375
 11
118.9900023946
 21
133.0175
  0
ARC
  5
23F
100
AcDbEntity
  8
0
100
AcDbCircle
 62
7
  6
CONTINUOUS
 10
17.8400023946
 20
92.2375
 40
3.5
100
AcDbArc
 50
13.7291326754
 51
90.0
  0
ARC
  5
240
100
AcDbEntity
  8
0
100
AcDbCircle
 62
7
  6
CONTINUOUS
 10
17.8400023946
 20
92.2375
 40
3.5
100
AcDbArc
 50
270.0
 51
346.2708673246
  0
CIRCLE
  5
241
100
AcDbEntity
  8
0
100
AcDbCircle
 62
7
  6
CONTINUOUS
 10
17.8400023946
 20
92.2375
 40
2.6
  0
CIRCLE
  5
242
100
AcDbEntity
  8
0
100
AcDbCircle
 62
7
  6
CONTINUOUS
 10
25.9900023946
 20
50.2875
 40
1.25
  0
ARC
  5
243
100
AcDbEntity
  8
0
100
AcDbCircle
 62
7
  6
CONTINUOUS
 10
14.4900023946
 20
137.6875
 40
4.67
100
AcDbArc
 50
270.0
 51
356.9313072129
  0
ARC
  5
244
100
AcDbEntity
  8
0
100
AcDbCircle
 62
7
  6
CONTINUOUS
 10
75.9900023946
 20
83.9375
 40
27.5
100
AcDbArc
 50
9.3811101581
 51
45.3968721227
  0
ARC
  5
245
100
AcDbEntity
  8
0
100
AcDbCircle
 62
7
  6
CONTINUOUS
 10
75.9900023946
 20
83.9375
 40
27.5
100
AcDbArc
 50
189.5090518895
 51
225.5248138541
  0
ARC
  5
246
100
AcDbEntity
  8
0
100
AcDbCircle
 62
7
  6
CONTINUOUS
 10
75.9900023946
 20
83.9375
 40
27.5
100
AcDbArc
 50
45.5564016962
 51
189.3495448663
  0
ARC
  5
247
100
AcDbEntity
  8
0
100
AcDbCircle
 62
7
  6
CONTINUOUS
 10
75.9900023946
 20
83.9375
 40
27.5
100
AcDbArc
 50
225.6811615396
 51
9.2246923927
  0
ARC
  5
248
100
AcDbEntity
  8
0
100
AcDbCircle
 62
7
  6
CONTINUOUS
 10
115.6400023946
 20
92.2375
 40
3.5
100
AcDbArc
 50
90.0000000001
 51
166.2708673246
  0
ARC
  5
249
100
AcDbEntity
  8
0
100
AcDbCircle
 62
7
  6
CONTINUOUS
 10
115.6400023946
 20
92.2375
 40
3.5
100
AcDbArc
 50
193.7291326754
 51
270.0
  0
CIRCLE
  5
24A
100
AcDbEntity
  8
0
100
AcDbCircle
 62
7
  6
CONTINUOUS
 10
115.6400023946
 20
92.2375
 40
1.3
  0
ARC
  5
24B
100
AcDbEntity
  8
0
100
AcDbCircle
 62
7
  6
CONTINUOUS
 10
118.9900023946
 20
137.6875
 40
4.67
100
AcDbArc
 50
183.0686927871
 51
270.0
  0
ARC
  5
24C
100
AcDbEntity
  8
0
100
AcDbCircle
 62
7
  6
CONTINUOUS
 10
84.2400023946
 20
137.4375
 40
4.65
100
AcDbArc
 50
180.0
 51
360.0
  0
CIRCLE
  5
24D
100
AcDbEntity
  8
0
100
AcDbCircle
 62
7
  6
CONTINUOUS
 10
66.7400023946
 20
131.9375
 40
3.5
  0
CIRCLE
  5
24E
100
AcDbEntity
  8
0
100
AcDbCircle
 62
7
  6
CONTINUOUS
 10
66.7400023946
 20
131.9375
 40
2.6
  0
CIRCLE
  5
24F
100
AcDbEntity
  8
0
100
AcDbCircle
 62
7
  6
CONTINUOUS
 10
109.1900023946
 20
117.5875
 40
1.25
  0
SPLINE
  5
250
100
AcDbEntity
  8
0
100
AcDbSpline
 62
7
  6
CONTINUOUS
 70
0
 71
3
 72
12
 73
8
 74
0
 42
0.0000001
 43
0.0000001
 44
0.0000000001
 40
0.0
 40
0.0
 40
0.0
 40
0.0
 40
0.290747407
 40
0.5618970251
 40
0.6856083963
 40
0.7998071915
 40
1.0
 40
1.0
 40
1.0
 40
1.0
 10
97.8073918265
 20
103.777876799
 30
0.0
 10
97.9044444264
 20
103.8282979592
 30
0.0
 10
98.1020852684
 20
103.9075755779
 30
0.0
 10
98.3586246466
 20
103.9522587809
 30
0.0
 10
98.5508144502
 20
103.9469135867
 30
0.0
 10
98.7131117152
 20
103.9175750624
 30
0.0
 10
98.8243854843
 20
103.8651105856
 30
0.0
 10
98.8816438648
 20
103.8161987899
 30
0.0
  0
SPLINE
  5
251
100
AcDbEntity
  8
0
100
AcDbSpline
 62
7
  6
CONTINUOUS
 70
0
 71
3
 72
11
 73
7
 74
0
 42
0.0000001
 43
0.0000001
 44
0.0000000001
 40
0.0
 40
0.0
 40
0.0
 40
0.0
 40
0.2551002068
 40
0.5058835099
 40
0.7537014186
 40
1.0
 40
1.0
 40
1.0
 40
1.0
 10
98.8816438648
 20
103.8161987899
 30
0.0
 10
99.1710358355
 20
103.5678773717
 30
0.0
 10
99.7233282898
 20
103.0495112865
 30
0.0
 10
100.47019386
 20
102.2037862389
 30
0.0
 10
101.1243891247
 20
101.3006403759
 30
0.0
 10
101.4976028095
 20
100.6616171227
 30
0.0
 10
101.6673372957
 20
100.3349056166
 30
0.0
  0
SPLINE
  5
252
100
AcDbEntity
  8
0
100
AcDbSpline
 62
7
  6
CONTINUOUS
 70
0
 71
3
 72
13
 73
9
 74
0
 42
0.0000001
 43
0.0000001
 44
0.0000000001
 40
0.0
 40
0.0
 40
0.0
 40
0.0
 40
0.2913429306
 40
0.5625254256
 40
0.6859572027
 40
0.7996927917
 40
0.9039699494
 40
1.0
 40
1.0
 40
1.0
 40
1.0
 10
103.6427203561
 20
92.5619501186
 30
0.0
 10
103.7406796043
 20
92.6128423044
 30
0.0
 10
103.9205562354
 20
92.7301669017
 30
0.0
 10
104.1053085125
 20
92.9168089334
 30
0.0
 10
104.2106547701
 20
93.0788074509
 30
0.0
 10
104.2636533625
 20
93.1975391382
 30
0.0
 10
104.2913653894
 20
93.3140355024
 30
0.0
 10
104.2922385664
 20
93.3908063069
 30
0.0
 10
104.2878001017
 20
93.4269205386
 30
0.0
  0
SPLINE
  5
253
100
AcDbEntity
  8
0
100
AcDbSpline
 62
7
  6
CONTINUOUS
 70
0
 71
3
 72
11
 73
7
 74
0
 42
0.0000001
 43
0.0000001
 44
0.0000000001
 40
0.0
 40
0.0
 40
0.0
 40
0.0
 40
0.2550571038
 40
0.5058333754
 40
0.7536697216
 40
1.0
 40
1.0
 40
1.0
 40
1.0
 10
104.2878001017
 20
93.4269205386
 30
0.0
 10
104.2505664625
 20
93.8045979783
 30
0.0
 10
104.1433810621
 20
94.5508174433
 30
0.0
 10
103.8808429209
 20
95.6427421612
 30
0.0
 10
103.5189546571
 20
96.6922014283
 30
0.0
 10
103.2119129314
 20
97.3618466723
 30
0.0
 10
103.042938218
 20
97.6870957385
 30
0.0
  0
SPLINE
  5
254
100
AcDbEntity
  8
0
100
AcDbSpline
 62
7
  6
CONTINUOUS
 70
0
 71
3
 72
11
 73
7
 74
0
 42
0.0000001
 43
0.0000001
 44
0.0000000001
 40
0.0
 40
0.0
 40
0.0
 40
0.0
 40
0.2463302784
 40
0.4941666246
 40
0.7449428962
 40
1.0
 40
1.0
 40
1.0
 40
1.0
 10
101.6673372957
 20
100.3349056166
 30
0.0
 10
101.8363120092
 20
100.0096565504
 30
0.0
 10
102.1433537348
 20
99.3400113064
 30
0.0
 10
102.5052419986
 20
98.2905520393
 30
0.0
 10
102.7677801399
 20
97.1986273214
 30
0.0
 10
102.8749655402
 20
96.4524078563
 30
0.0
 10
102.9121991794
 20
96.0747304167
 30
0.0
  0
SPLINE
  5
255
100
AcDbEntity
  8
0
100
AcDbSpline
 62
7
  6
CONTINUOUS
 70
0
 71
3
 72
13
 73
9
 74
0
 42
0.0000001
 43
0.0000001
 44
0.0000000001
 40
0.0
 40
0.0
 40
0.0
 40
0.0
 40
0.0960300873
 40
0.2003073205
 40
0.314042958
 40
0.4374747465
 40
0.7086572183
 40
1.0
 40
1.0
 40
1.0
 40
1.0
 10
102.9121991794
 20
96.0747304167
 30
0.0
 10
102.9166376458
 20
96.0386161713
 30
0.0
 10
102.9157644378
 20
95.9618453246
 30
0.0
 10
102.8880524125
 20
95.8453488987
 30
0.0
 10
102.8350537616
 20
95.7266171785
 30
0.0
 10
102.7297074717
 20
95.5646186683
 30
0.0
 10
102.5449552103
 20
95.3779767081
 30
0.0
 10
102.3650786317
 20
95.2606521563
 30
0.0
 10
102.2671194339
 20
95.2097599967
 30
0.0
  0
SPLINE
  5
256
100
AcDbEntity
  8
0
100
AcDbSpline
 62
7
  6
CONTINUOUS
 70
0
 71
3
 72
9
 73
5
 74
0
 42
0.0000001
 43
0.0000001
 44
0.0000000001
 40
0.0
 40
0.0
 40
0.0
 40
0.0
 40
0.4415553803
 40
1.0
 40
1.0
 40
1.0
 40
1.0
 10
73.5060723379
 20
72.9926734923
 30
0.0
 10
73.502760113
 20
72.9990443929
 30
0.0
 10
73.4900127255
 20
73.0108356578
 30
0.0
 10
73.4737192848
 20
73.0145193914
 30
0.0
 10
73.4647151598
 20
73.0157008115
 30
0.0
  0
SPLINE
  5
257
100
AcDbEntity
  8
0
100
AcDbSpline
 62
7
  6
CONTINUOUS
 70
0
 71
3
 72
9
 73
5
 74
0
 42
0.0000001
 43
0.0000001
 44
0.0000000001
 40
0.0
 40
0.0
 40
0.0
 40
0.0
 40
0.4415553803
 40
1.0
 40
1.0
 40
1.0
 40
1.0
 10
83.7110529103
 20
78.2944063709
 30
0.0
 10
83.7077406854
 20
78.3007772716
 30
0.0
 10
83.6949932979
 20
78.3125685365
 30
0.0
 10
83.6786998572
 20
78.3162522701
 30
0.0
 10
83.6696957322
 20
78.3174336902
 30
0.0
  0
SPLINE
  5
258
100
AcDbEntity
  8
0
100
AcDbSpline
 62
7
  6
CONTINUOUS
 70
0
 71
3
 72
9
 73
5
 74
0
 42
0.0000001
 43
0.0000001
 44
0.0000000001
 40
0.0
 40
0.0
 40
0.0
 40
0.0
 40
0.4415553803
 40
1.0
 40
1.0
 40
1.0
 40
1.0
 10
93.9160334827
 20
83.5961392496
 30
0.0
 10
93.9127212578
 20
83.6025101502
 30
0.0
 10
93.8999738703
 20
83.6143014151
 30
0.0
 10
93.8836804297
 20
83.6179851487
 30
0.0
 10
93.8746763047
 20
83.6191665689
 30
0.0
  0
SPLINE
  5
259
100
AcDbEntity
  8
0
100
AcDbSpline
 62
7
  6
CONTINUOUS
 70
0
 71
3
 72
9
 73
5
 74
0
 42
0.0000001
 43
0.0000001
 44
0.0000000001
 40
0.0
 40
0.0
 40
0.0
 40
0.0
 40
0.5503283912
 40
1.0
 40
1.0
 40
1.0
 40
1.0
 10
65.9659082673
 20
69.1164979631
 30
0.0
 10
65.9625302544
 20
69.1092149728
 30
0.0
 10
65.9576563831
 20
69.0950458859
 30
0.0
 10
65.9602610203
 20
69.079823253
 30
0.0
 10
65.9632854746
 20
69.0740022141
 30
0.0
  0
SPLINE
  5
25A
100
AcDbEntity
  8
0
100
AcDbSpline
 62
7
  6
CONTINUOUS
 70
0
 71
3
 72
9
 73
5
 74
0
 42
0.0000001
 43
0.0000001
 44
0.0000000001
 40
0.0
 40
0.0
 40
0.0
 40
0.0
 40
0.5503283912
 40
1.0
 40
1.0
 40
1.0
 40
1.0
 10
76.1708888397
 20
74.4182308418
 30
0.0
 10
76.1675108268
 20
74.4109478515
 30
0.0
 10
76.1626369555
 20
74.3967787646
 30
0.0
 10
76.1652415927
 20
74.3815561317
 30
0.0
 10
76.168266047
 20
74.3757350928
 30
0.0
  0
SPLINE
  5
25B
100
AcDbEntity
  8
0
100
AcDbSpline
 62
7
  6
CONTINUOUS
 70
0
 71
3
 72
9
 73
5
 74
0
 42
0.0000001
 43
0.0000001
 44
0.0000000001
 40
0.0
 40
0.0
 40
0.0
 40
0.0
 40
0.5503283912
 40
1.0
 40
1.0
 40
1.0
 40
1.0
 10
86.3758694121
 20
79.7199637204
 30
0.0
 10
86.3724913992
 20
79.7126807302
 30
0.0
 10
86.3676175279
 20
79.6985116433
 30
0.0
 10
86.3702221652
 20
79.6832890103
 30
0.0
 10
86.3732466194
 20
79.6774679714
 30
0.0
  0
SPLINE
  5
25C
100
AcDbEntity
  8
0
100
AcDbSpline
 62
7
  6
CONTINUOUS
 70
0
 71
3
 72
16
 73
12
 74
0
 42
0.0000001
 43
0.0000001
 44
0.0000000001
 40
0.0
 40
0.0
 40
0.0
 40
0.0
 40
0.0217587123
 40
0.0504364253
 40
0.127948753
 40
0.2305568763
 40
0.3554330566
 40
0.499115615
 40
0.6575428553
 40
0.8261961502
 40
1.0
 40
1.0
 40
1.0
 40
1.0
 10
75.7933681298
 20
93.3764281691
 30
0.0
 10
75.7626790161
 20
93.377228371
 30
0.0
 10
75.6914442757
 20
93.3731754128
 30
0.0
 10
75.5124705569
 20
93.3492125356
 30
0.0
 10
75.2241300487
 20
93.2869110935
 30
0.0
 10
74.8090228541
 20
93.1732160828
 30
0.0
 10
74.3103590023
 20
93.0126982145
 30
0.0
 10
73.7443694228
 20
92.8059483492
 30
0.0
 10
73.1292256739
 20
92.5550075149
 30
0.0
 10
72.4849393143
 20
92.2642564781
 30
0.0
 10
72.0520462487
 20
92.0493403204
 30
0.0
 10
71.8344394431
 20
91.9362883506
 30
0.0
  0
SPLINE
  5
25D
100
AcDbEntity
  8
0
100
AcDbSpline
 62
7
  6
CONTINUOUS
 70
0
 71
3
 72
16
 73
12
 74
0
 42
0.0000001
 43
0.0000001
 44
0.0000000001
 40
0.0
 40
0.0
 40
0.0
 40
0.0
 40
0.1737352239
 40
0.3423125793
 40
0.5006705233
 40
0.6443176725
 40
0.769196139
 40
0.8718580393
 40
0.9494486361
 40
0.9781802895
 40
1.0
 40
1.0
 40
1.0
 40
1.0
 10
82.0394200155
 20
97.2380212293
 30
0.0
 10
81.8219415247
 20
97.125035922
 30
0.0
 10
81.397496081
 20
96.894508907
 30
0.0
 10
80.7895198742
 20
96.5348092412
 30
0.0
 10
80.2308519228
 20
96.1759860071
 30
0.0
 10
79.7364846486
 20
95.8319322092
 30
0.0
 10
79.3184433869
 20
95.5163409557
 30
0.0
 10
78.9866867243
 20
95.2419895785
 30
0.0
 10
78.7696965818
 20
95.0418504529
 30
0.0
 10
78.6469473738
 20
94.9090928503
 30
0.0
 10
78.6025395452
 20
94.8530601359
 30
0.0
 10
78.5854683828
 20
94.8274484268
 30
0.0
  0
SPLINE
  5
25E
100
AcDbEntity
  8
0
100
AcDbSpline
 62
7
  6
CONTINUOUS
 70
0
 71
3
 72
20
 73
16
 74
0
 42
0.0000001
 43
0.0000001
 44
0.0000000001
 40
0.0
 40
0.0
 40
0.0
 40
0.0
 40
0.0103509243
 40
0.0180559082
 40
0.027771981
 40
0.0535162631
 40
0.0877936331
 40
0.1304147626
 40
0.1810546093
 40
0.2392723747
 40
0.3045534062
 40
0.4539484864
 40
0.6239355034
 40
0.8082877166
 40
1.0
 40
1.0
 40
1.0
 40
1.0
 10
76.168266047
 20
74.3757350928
 30
0.0
 10
76.1751794123
 20
74.3624292314
 30
0.0
 10
76.2013818729
 20
74.3487883065
 30
0.0
 10
76.2401476735
 20
74.3410543847
 30
0.0
 10
76.302946583
 20
74.336200268
 30
0.0
 10
76.4038921979
 20
74.3421697784
 30
0.0
 10
76.5512729163
 20
74.3628671043
 30
0.0
 10
76.7325394406
 20
74.3989026881
 30
0.0
 10
76.9459480841
 20
74.4501836239
 30
0.0
 10
77.189238803
 20
74.5170056139
 30
0.0
 10
77.5673868682
 20
74.6324106955
 30
0.0
 10
78.0938975243
 20
74.8155505865
 30
0.0
 10
78.7726600861
 20
75.0840063583
 30
0.0
 10
79.495769765
 20
75.4052322379
 30
0.0
 10
79.9843482289
 20
75.6466241877
 30
0.0
 10
80.2307946321
 20
75.7746590222
 30
0.0
  0
SPLINE
  5
25F
100
AcDbEntity
  8
0
100
AcDbSpline
 62
7
  6
CONTINUOUS
 70
0
 71
3
 72
16
 73
12
 74
0
 42
0.0000001
 43
0.0000001
 44
0.0000000001
 40
0.0
 40
0.0
 40
0.0
 40
0.0
 40
0.1737352239
 40
0.3423125793
 40
0.5006705233
 40
0.6443176725
 40
0.769196139
 40
0.8718580393
 40
0.9494486361
 40
0.9781802895
 40
1.0
 40
1.0
 40
1.0
 40
1.0
 10
71.8344394431
 20
91.9362883506
 30
0.0
 10
71.6169609523
 20
91.8233030434
 30
0.0
 10
71.1925155086
 20
91.5927760284
 30
0.0
 10
70.5845393018
 20
91.2330763625
 30
0.0
 10
70.0258713504
 20
90.8742531284
 30
0.0
 10
69.5315040762
 20
90.5301993305
 30
0.0
 10
69.1134628144
 20
90.2146080771
 30
0.0
 10
68.7817061519
 20
89.9402566998
 30
0.0
 10
68.5647160094
 20
89.7401175743
 30
0.0
 10
68.4419668014
 20
89.6073599717
 30
0.0
 10
68.3975589728
 20
89.5513272572
 30
0.0
 10
68.3804878104
 20
89.5257155481
 30
0.0
  0
SPLINE
  5
260
100
AcDbEntity
  8
0
100
AcDbSpline
 62
7
  6
CONTINUOUS
 70
0
 71
3
 72
20
 73
16
 74
0
 42
0.0000001
 43
0.0000001
 44
0.0000000001
 40
0.0
 40
0.0
 40
0.0
 40
0.0
 40
0.1917045592
 40
0.3760811988
 40
0.5460694383
 40
0.6954633699
 40
0.7607383478
 40
0.818945013
 40
0.8695862559
 40
0.9122066546
 40
0.9464781134
 40
0.9722241632
 40
0.9819336503
 40
0.9896376545
 40
1.0
 40
1.0
 40
1.0
 40
1.0
 10
70.0258140597
 20
70.4729261436
 30
0.0
 10
70.2722513075
 20
70.6009562216
 30
0.0
 10
70.7506605986
 20
70.8619766704
 30
0.0
 10
71.429276221
 20
71.2689115999
 30
0.0
 10
72.0392226702
 20
71.6699283005
 30
0.0
 10
72.4916451358
 20
71.9955938705
 30
0.0
 10
72.8035052884
 20
72.2385674266
 30
0.0
 10
72.9981009202
 20
72.3991202278
 30
0.0
 10
73.1627386174
 20
72.5442464146
 30
0.0
 10
73.2963940104
 20
72.6718780983
 30
0.0
 10
73.3980335831
 20
72.7805827569
 30
0.0
 10
73.4609635952
 20
72.8597145829
 30
0.0
 10
73.4930983218
 20
72.9138817721
 30
0.0
 10
73.5090419535
 20
72.9500518039
 30
0.0
 10
73.5129967726
 20
72.9793546847
 30
0.0
 10
73.5060723379
 20
72.9926734923
 30
0.0
  0
SPLINE
  5
261
100
AcDbEntity
  8
0
100
AcDbSpline
 62
7
  6
CONTINUOUS
 70
0
 71
3
 72
20
 73
16
 74
0
 42
0.0000001
 43
0.0000001
 44
0.0000000001
 40
0.0
 40
0.0
 40
0.0
 40
0.0
 40
0.1917045592
 40
0.3760811988
 40
0.5460694383
 40
0.6954633699
 40
0.7607383478
 40
0.818945013
 40
0.8695862559
 40
0.9122066546
 40
0.9464781134
 40
0.9722241632
 40
0.9819336503
 40
0.9896376545
 40
1.0
 40
1.0
 40
1.0
 40
1.0
 10
80.2307946321
 20
75.7746590222
 30
0.0
 10
80.4772318799
 20
75.9026891003
 30
0.0
 10
80.9556411711
 20
76.163709549
 30
0.0
 10
81.6342567934
 20
76.5706444786
 30
0.0
 10
82.2442032426
 20
76.9716611791
 30
0.0
 10
82.6966257082
 20
77.2973267491
 30
0.0
 10
83.0084858609
 20
77.5403003052
 30
0.0
 10
83.2030814926
 20
77.7008531064
 30
0.0
 10
83.3677191899
 20
77.8459792933
 30
0.0
 10
83.5013745828
 20
77.9736109769
 30
0.0
 10
83.6030141556
 20
78.0823156356
 30
0.0
 10
83.6659441676
 20
78.1614474616
 30
0.0
 10
83.6980788942
 20
78.2156146507
 30
0.0
 10
83.714022526
 20
78.2517846826
 30
0.0
 10
83.717977345
 20
78.2810875634
 30
0.0
 10
83.7110529103
 20
78.2944063709
 30
0.0
  0
SPLINE
  5
262
100
AcDbEntity
  8
0
100
AcDbSpline
 62
7
  6
CONTINUOUS
 70
0
 71
3
 72
16
 73
12
 74
0
 42
0.0000001
 43
0.0000001
 44
0.0000000001
 40
0.0
 40
0.0
 40
0.0
 40
0.0
 40
0.1737352239
 40
0.3423125793
 40
0.5006705233
 40
0.6443176725
 40
0.769196139
 40
0.8718580393
 40
0.9494486361
 40
0.9781802895
 40
1.0
 40
1.0
 40
1.0
 40
1.0
 10
61.6294588707
 20
86.6345554719
 30
0.0
 10
61.4119803799
 20
86.5215701647
 30
0.0
 10
60.9875349362
 20
86.2910431497
 30
0.0
 10
60.3795587294
 20
85.9313434839
 30
0.0
 10
59.820890778
 20
85.5725202497
 30
0.0
 10
59.3265235038
 20
85.2284664519
 30
0.0
 10
58.908482242
 20
84.9128751984
 30
0.0
 10
58.5767255795
 20
84.6385238212
 30
0.0
 10
58.359735437
 20
84.4383846956
 30
0.0
 10
58.236986229
 20
84.305627093
 30
0.0
 10
58.1925784003
 20
84.2495943785
 30
0.0
 10
58.1755072379
 20
84.2239826695
 30
0.0
  0
SPLINE
  5
263
100
AcDbEntity
  8
0
100
AcDbSpline
 62
7
  6
CONTINUOUS
 70
0
 71
3
 72
20
 73
16
 74
0
 42
0.0000001
 43
0.0000001
 44
0.0000000001
 40
0.0
 40
0.0
 40
0.0
 40
0.0
 40
0.1917045592
 40
0.3760811988
 40
0.5460694383
 40
0.6954633699
 40
0.7607383478
 40
0.818945013
 40
0.8695862559
 40
0.9122066546
 40
0.9464781134
 40
0.9722241632
 40
0.9819336503
 40
0.9896376545
 40
1.0
 40
1.0
 40
1.0
 40
1.0
 10
90.4357752045
 20
81.0763919009
 30
0.0
 10
90.6822124523
 20
81.2044219789
 30
0.0
 10
91.1606217435
 20
81.4654424277
 30
0.0
 10
91.8392373658
 20
81.8723773572
 30
0.0
 10
92.4491838151
 20
82.2733940578
 30
0.0
 10
92.9016062806
 20
82.5990596278
 30
0.0
 10
93.2134664333
 20
82.8420331839
 30
0.0
 10
93.408062065
 20
83.0025859851
 30
0.0
 10
93.5726997623
 20
83.1477121719
 30
0.0
 10
93.7063551552
 20
83.2753438556
 30
0.0
 10
93.807994728
 20
83.3840485142
 30
0.0
 10
93.8709247401
 20
83.4631803402
 30
0.0
 10
93.9030594666
 20
83.5173475294
 30
0.0
 10
93.9190030984
 20
83.5535175612
 30
0.0
 10
93.9229579174
 20
83.5828204421
 30
0.0
 10
93.9160334827
 20
83.5961392496
 30
0.0
  0
SPLINE
  5
264
100
AcDbEntity
  8
0
100
AcDbSpline
 62
7
  6
CONTINUOUS
 70
0
 71
3
 72
20
 73
16
 74
0
 42
0.0000001
 43
0.0000001
 44
0.0000000001
 40
0.0
 40
0.0
 40
0.0
 40
0.0
 40
0.0103509243
 40
0.0180559082
 40
0.027771981
 40
0.0535162631
 40
0.0877936331
 40
0.1304147626
 40
0.1810546093
 40
0.2392723747
 40
0.3045534062
 40
0.4539484864
 40
0.6239355034
 40
0.8082877166
 40
1.0
 40
1.0
 40
1.0
 40
1.0
 10
65.9632854746
 20
69.0740022141
 30
0.0
 10
65.9701988399
 20
69.0606963528
 30
0.0
 10
65.9964013005
 20
69.0470554278
 30
0.0
 10
66.0351671011
 20
69.0393215061
 30
0.0
 10
66.0979660106
 20
69.0344673893
 30
0.0
 10
66.1989116255
 20
69.0404368998
 30
0.0
 10
66.3462923439
 20
69.0611342256
 30
0.0
 10
66.5275588682
 20
69.0971698095
 30
0.0
 10
66.7409675117
 20
69.1484507453
 30
0.0
 10
66.9842582306
 20
69.2152727352
 30
0.0
 10
67.3624062958
 20
69.3306778169
 30
0.0
 10
67.8889169519
 20
69.5138177078
 30
0.0
 10
68.5676795137
 20
69.7822734796
 30
0.0
 10
69.2907891925
 20
70.1034993592
 30
0.0
 10
69.7793676565
 20
70.3448913091
 30
0.0
 10
70.0258140597
 20
70.4729261436
 30
0.0
  0
SPLINE
  5
265
100
AcDbEntity
  8
0
100
AcDbSpline
 62
7
  6
CONTINUOUS
 70
0
 71
3
 72
16
 73
12
 74
0
 42
0.0000001
 43
0.0000001
 44
0.0000000001
 40
0.0
 40
0.0
 40
0.0
 40
0.0
 40
0.0217587123
 40
0.0504364253
 40
0.127948753
 40
0.2305568763
 40
0.3554330566
 40
0.499115615
 40
0.6575428553
 40
0.8261961502
 40
1.0
 40
1.0
 40
1.0
 40
1.0
 10
65.5883875574
 20
88.0746952904
 30
0.0
 10
65.5576984437
 20
88.0754954923
 30
0.0
 10
65.4864637032
 20
88.0714425341
 30
0.0
 10
65.3074899845
 20
88.047479657
 30
0.0
 10
65.0191494763
 20
87.9851782148
 30
0.0
 10
64.6040422817
 20
87.8714832041
 30
0.0
 10
64.1053784298
 20
87.7109653358
 30
0.0
 10
63.5393888504
 20
87.5042154705
 30
0.0
 10
62.9242451015
 20
87.2532746362
 30
0.0
 10
62.2799587419
 20
86.9625235994
 30
0.0
 10
61.8470656762
 20
86.7476074417
 30
0.0
 10
61.6294588707
 20
86.6345554719
 30
0.0
  0
SPLINE
  5
266
100
AcDbEntity
  8
0
100
AcDbSpline
 62
7
  6
CONTINUOUS
 70
0
 71
3
 72
20
 73
16
 74
0
 42
0.0000001
 43
0.0000001
 44
0.0000000001
 40
0.0
 40
0.0
 40
0.0
 40
0.0
 40
0.0103509243
 40
0.0180559082
 40
0.027771981
 40
0.0535162631
 40
0.0877936331
 40
0.1304147626
 40
0.1810546093
 40
0.2392723747
 40
0.3045534062
 40
0.4539484864
 40
0.6239355034
 40
0.8082877166
 40
1.0
 40
1.0
 40
1.0
 40
1.0
 10
86.3732466194
 20
79.6774679714
 30
0.0
 10
86.3801599847
 20
79.6641621101
 30
0.0
 10
86.4063624453
 20
79.6505211851
 30
0.0
 10
86.4451282459
 20
79.6427872634
 30
0.0
 10
86.5079271554
 20
79.6379331467
 30
0.0
 10
86.6088727703
 20
79.6439026571
 30
0.0
 10
86.7562534888
 20
79.664599983
 30
0.0
 10
86.937520013
 20
79.7006355668
 30
0.0
 10
87.1509286565
 20
79.7519165026
 30
0.0
 10
87.3942193754
 20
79.8187384925
 30
0.0
 10
87.7723674406
 20
79.9341435742
 30
0.0
 10
88.2988780967
 20
80.1172834651
 30
0.0
 10
88.9776406585
 20
80.385739237
 30
0.0
 10
89.7007503374
 20
80.7069651165
 30
0.0
 10
90.1893288013
 20
80.9483570664
 30
0.0
 10
90.4357752045
 20
81.0763919009
 30
0.0
  0
SPLINE
  5
267
100
AcDbEntity
  8
0
100
AcDbSpline
 62
7
  6
CONTINUOUS
 70
0
 71
3
 72
16
 73
12
 74
0
 42
0.0000001
 43
0.0000001
 44
0.0000000001
 40
0.0
 40
0.0
 40
0.0
 40
0.0
 40
0.0217587123
 40
0.0504364253
 40
0.127948753
 40
0.2305568763
 40
0.3554330566
 40
0.499115615
 40
0.6575428553
 40
0.8261961502
 40
1.0
 40
1.0
 40
1.0
 40
1.0
 10
85.9983487023
 20
98.6781610477
 30
0.0
 10
85.9676595885
 20
98.6789612497
 30
0.0
 10
85.8964248481
 20
98.6749082915
 30
0.0
 10
85.7174511293
 20
98.6509454143
 30
0.0
 10
85.4291106211
 20
98.5886439721
 30
0.0
 10
85.0140034265
 20
98.4749489614
 30
0.0
 10
84.5153395747
 20
98.3144310931
 30
0.0
 10
83.9493499952
 20
98.1076812279
 30
0.0
 10
83.3342062463
 20
97.8567403936
 30
0.0
 10
82.6899198867
 20
97.5659893567
 30
0.0
 10
82.2570268211
 20
97.3510731991
 30
0.0
 10
82.0394200155
 20
97.2380212293
 30
0.0
  0
ENDSEC
  0
SECTION
  2
OBJECTS
  0
DICTIONARY
  5
C
100
AcDbDictionary
280
0
281
1
  3
ACAD_GROUP
350
D
  3
ACAD_MLINESTYLE
350
17
  3
ACAD_LAYOUT
350
1A
  3
ACAD_PLOTSETTINGS
350
19
  3
ACAD_PLOTSTYLENAME
350
E
  0
DICTIONARY
  5
D
102
{ACAD_REACTORS
330
C
102
}
100
AcDbDictionary
280
0
281
1
  0
ACDBDICTIONARYWDFLT
  5
E
102
{ACAD_REACTORS
330
C
102
}
100
AcDbDictionary
281
1
  3
Normal
350
F
100
AcDbDictionaryWithDefault
340
F
  0
DICTIONARY
  5
17
102
{ACAD_REACTORS
330
C
102
}
100
AcDbDictionary
280
0
281
1
  3
Standard
350
18
  0
DICTIONARY
  5
19
102
{ACAD_REACTORS
330
C
102
}
100
AcDbDictionary
281
1
  0
DICTIONARY
  5
1A
102
{ACAD_REACTORS
330
C
102
}
100
AcDbDictionary
281
1
  3
Model
350
268
  3
Layout1
350
269
  0
ACDBPLACEHOLDER
  5
F
102
{ACAD_REACTORS
330
E
102
}
  0
MLINESTYLE
  5
18
102
{ACAD_REACTORS
330
17
102
}
100
AcDbMlineStyle
  2
STANDARD
 70
0
  3

 62
256
 51
90.0
 52
90.0
 71
2
 49
0.5
 62
256
  6
BYLAYER
 49
-0.5
 62
256
  6
BYLAYER
  0
LAYOUT
  5
268
102
{ACAD_REACTORS
330
1A
102
}
100
AcDbPlotSettings
  1

  2
none_device
  4

  6

 40
0.0
 41
0.0
 42
0.0
 43
0.0
 44
210.0
 45
297.0
 46
0.0
 47
0.0
 48
0.0
 49
0.0
140
0.0
141
0.0
142
1.0
143
1.0
 70
1024
 72
1
 73
0
 74
0
  7

 75
0
147
1.0
148
0.0
149
0.0
100
AcDbLayout
  1
Model
 70
0
 71
0
 10
0.0
 20
0.0
 11
210.0
 21
297.0
 12
0.0
 22
0.0
 32
0.0
 14
0.0
 24
0.0
 34
0.0
 15
0.0
 25
0.0
 35
0.0
146
0.0
 13
0.0
 23
0.0
 33
0.0
 16
1.0
 26
0.0
 36
0.0
 17
0.0
 27
1.0
 37
0.0
 76
0
330
210
345
0
346
0
  0
LAYOUT
  5
269
102
{ACAD_REACTORS
330
1A
102
}
100
AcDbPlotSettings
  1

  2
none_device
  4

  6

 40
0.0
 41
0.0
 42
0.0
 43
0.0
 44
210.0
 45
297.0
 46
0.0
 47
0.0
 48
0.0
 49
0.0
140
0.0
141
0.0
142
1.0
143
1.0
 70
0
 72
1
 73
0
 74
0
  7

 75
0
147
1.0
148
0.0
149
0.0
100
AcDbLayout
  1
Layout1
 70
0
 71
1
 10
0.0
 20
0.0
 11
210.0
 21
297.0
 12
0.0
 22
0.0
 32
0.0
 14
0.0
 24
0.0
 34
0.0
 15
0.0
 25
0.0
 35
0.0
146
0.0
 13
0.0
 23
0.0
 33
0.0
 16
1.0
 26
0.0
 36
0.0
 17
0.0
 27
1.0
 37
0.0
 76
0
330
211
345
0
346
0
  0
ENDSEC
  0
EOF
