999
DXF file: C:\Users\sesa63760\Dev\_Creo\CAD\MCADPD0005315_3D-CAD\drw0001_5.dxf
999
Pro/ENGINEER 2019471 by Parametric Technology Corporation
  0
SECTION
  2
HEADER
  9
$ACADVER
  1
AC1024
  9
$DWGCODEPAGE
  3
ANSI_1252
  9
$EXTMAX
 10
242.9015491899
 20
343.5321909971
 30
0.0
  9
$EXTMIN
 10
0.0
 20
0.0
 30
0.0
  9
$LIMMIN
 10
0.0
 20
0.0
  9
$LIMMAX
 10
242.9015491899
 20
343.5321909971
  9
$VIEWCTR
 10
121.4507745949
 20
171.7660954986
  9
$VIEWSIZE
 40
343.5321909971
  9
$CLAYER
  8
0
  9
$LTSCALE
 40
22.3932094872
  9
$CELTYPE
  6
BYLAYER
  9
$DIMSCALE
 40
1.0
  9
$DIMASZ
 40
2.8916851094
  9
$DIMEXO
 40
1.0
  9
$DIMDLI
 40
15.4716720094
  9
$DIMEXE
 40
1.0
  9
$DIMCEN
 40
3.6643433706
  9
$DIMLFAC
 40
1.0
  9
$DIMBLK
  1
_FILLED
  9
$DIMALT
 70
0
  9
$DIMALTF
 40
0.0393700787
  9
$DIMTXT
 40
4.0483591532
  9
$DIMTOL
 70
1
  9
$DIMLIM
 70
0
  9
$DIMTFAC
 40
1.0
  9
$DIMTP
 40
0.01
  9
$DIMTM
 40
0.01
  9
$DIMGAP
 40
0.625
  9
$DIMDSEP
 70
46
  9
$AUNITS
 70
0
  9
$PDMODE
 70
3
  9
$PDSIZE
 40
0.3125
  9
$HANDSEED
  5
281
  9
$TILEMODE
 70
1
  9
$MEASUREMENT
 70
1
  9
$INSUNITS
 70
4
  0
ENDSEC
  0
SECTION
  2
CLASSES
  0
CLASS
  1
ACDBDICTIONARYWDFLT
  2
AcDbDictionaryWithDefault
  3
AutoCAD 2000
 90
0
 91
1
280
0
281
0
  0
CLASS
  1
ACDBPLACEHOLDER
  2
AcDbPlaceHolder
  3
AutoCAD 2000
 90
0
 91
1
280
0
281
0
  0
CLASS
  1
LAYOUT
  2
AcDbLayout
  3
AutoCAD 2000
 90
0
 91
0
280
0
281
0
  0
ENDSEC
  0
SECTION
  2
TABLES
  0
TABLE
  2
VPORT
  5
8
100
AcDbSymbolTable
 70
2
  0
VPORT
  5
1F4
100
AcDbSymbolTableRecord
100
AcDbViewportTableRecord
  2
*ACTIVE
 70
0
 10
0.0
 20
0.0
 11
1.0
 21
1.0
 12
121.4507745949
 22
171.7660954986
 13
0.0
 23
0.0
 14
1.0
 24
1.0
 15
0.0
 25
0.0
 16
0.0
 26
0.0
 36
1.0
 17
0.0
 27
0.0
 37
0.0
 40
343.5321909971
 41
0.7070707071
 42
50.0
 43
0.0
 44
0.0
 50
0.0
 51
0.0
 71
0
 72
100
 73
1
 74
1
 75
0
 76
0
 77
0
 78
0
  0
ENDTAB
  0
TABLE
  2
LTYPE
  5
5
100
AcDbSymbolTable
 70
6
  0
LTYPE
  5
14
100
AcDbSymbolTableRecord
100
AcDbLinetypeTableRecord
  2
BYBLOCK
 70
0
  3

 72
65
 73
0
 40
0.0
  0
LTYPE
  5
15
100
AcDbSymbolTableRecord
100
AcDbLinetypeTableRecord
  2
BYLAYER
 70
0
  3

 72
65
 73
0
 40
0.0
  0
LTYPE
  5
16
100
AcDbSymbolTableRecord
100
AcDbLinetypeTableRecord
  2
CONTINUOUS
 70
64
  3
Solid line
 72
65
 73
0
 40
0.0
  0
LTYPE
  5
1F5
100
AcDbSymbolTableRecord
100
AcDbLinetypeTableRecord
  2
CENTER
 70
64
  3
____ _ ____ _ ____ _ ____ _ ____ _ ____ _ ____
 72
65
 73
4
 40
0.6
 49
0.375
 74
0
 49
-0.075
 74
0
 49
0.075
 74
0
 49
-0.075
 74
0
  0
LTYPE
  5
1F6
100
AcDbSymbolTableRecord
100
AcDbLinetypeTableRecord
  2
HIDDEN
 70
64
  3
- - - - - - - - - - - - - - - - - - - -
 72
65
 73
2
 40
0.2
 49
0.1
 74
0
 49
-0.1
 74
0
  0
LTYPE
  5
1F7
100
AcDbSymbolTableRecord
100
AcDbLinetypeTableRecord
  2
PHANTOM
 70
64
  3
_____ _ _ _____ _ _ _____ _ _ _____
 72
65
 73
6
 40
0.8
 49
0.45
 74
0
 49
-0.05
 74
0
 49
0.1
 74
0
 49
-0.05
 74
0
 49
0.1
 74
0
 49
-0.05
 74
0
  0
LTYPE
  5
1F8
100
AcDbSymbolTableRecord
100
AcDbLinetypeTableRecord
  2
DOT
 70
64
  3
. . . . . . . . . . . . . . . . . . . .
 72
65
 73
2
 40
0.2
 49
0.1
 74
0
 49
-0.1
 74
0
  0
LTYPE
  5
1F9
100
AcDbSymbolTableRecord
100
AcDbLinetypeTableRecord
  2
DASHED
 70
64
  3
- - - - - - - - - - - - - - - - - - - -
 72
65
 73
2
 40
0.2
 49
0.1
 74
0
 49
-0.1
 74
0
  0
ENDTAB
  0
TABLE
  2
LAYER
  5
2
100
AcDbSymbolTable
 70
36
  0
LAYER
  5
10
100
AcDbSymbolTableRecord
100
AcDbLayerTableRecord
  2
0
 70
0
 62
7
  6
CONTINUOUS
370
-3
390
F
  0
LAYER
  5
1FA
100
AcDbSymbolTableRecord
100
AcDbLayerTableRecord
  2
DEFAULT_1
 70
0
 62
7
  6
CENTER
370
-3
390
F
  0
LAYER
  5
1FB
100
AcDbSymbolTableRecord
100
AcDbLayerTableRecord
  2
DEFAULT_2
 70
0
 62
7
  6
HIDDEN
370
-3
390
F
  0
LAYER
  5
1FC
100
AcDbSymbolTableRecord
100
AcDbLayerTableRecord
  2
DEFAULT_3
 70
0
 62
7
  6
PHANTOM
370
-3
390
F
  0
LAYER
  5
1FD
100
AcDbSymbolTableRecord
100
AcDbLayerTableRecord
  2
00_COMPONENTS
 70
0
 62
7
  6
CONTINUOUS
370
-3
390
F
  0
LAYER
  5
1FE
100
AcDbSymbolTableRecord
100
AcDbLayerTableRecord
  2
01_1_DEFAULT_DATUMS
 70
0
 62
7
  6
CONTINUOUS
370
-3
390
F
  0
LAYER
  5
1FF
100
AcDbSymbolTableRecord
100
AcDbLayerTableRecord
  2
01_PLANES
 70
0
 62
7
  6
CONTINUOUS
370
-3
390
F
  0
LAYER
  5
200
100
AcDbSymbolTableRecord
100
AcDbLayerTableRecord
  2
02_COORD_SYS
 70
0
 62
7
  6
CONTINUOUS
370
-3
390
F
  0
LAYER
  5
201
100
AcDbSymbolTableRecord
100
AcDbLayerTableRecord
  2
03_AXES
 70
0
 62
7
  6
CONTINUOUS
370
-3
390
F
  0
LAYER
  5
202
100
AcDbSymbolTableRecord
100
AcDbLayerTableRecord
  2
04_POINTS
 70
0
 62
7
  6
CONTINUOUS
370
-3
390
F
  0
LAYER
  5
203
100
AcDbSymbolTableRecord
100
AcDbLayerTableRecord
  2
05_CURVES
 70
0
 62
7
  6
CONTINUOUS
370
-3
390
F
  0
LAYER
  5
204
100
AcDbSymbolTableRecord
100
AcDbLayerTableRecord
  2
06_SURFS
 70
0
 62
7
  6
CONTINUOUS
370
-3
390
F
  0
LAYER
  5
205
100
AcDbSymbolTableRecord
100
AcDbLayerTableRecord
  2
07_COSMETICS
 70
0
 62
7
  6
CONTINUOUS
370
-3
390
F
  0
LAYER
  5
206
100
AcDbSymbolTableRecord
100
AcDbLayerTableRecord
  2
10_NOTES
 70
0
 62
7
  6
CONTINUOUS
370
-3
390
F
  0
LAYER
  5
207
100
AcDbSymbolTableRecord
100
AcDbLayerTableRecord
  2
11_NOTES_PUB
 70
0
 62
7
  6
CONTINUOUS
370
-3
390
F
  0
LAYER
  5
208
100
AcDbSymbolTableRecord
100
AcDbLayerTableRecord
  2
13_REF_GTOL
 70
0
 62
7
  6
CONTINUOUS
370
-3
390
F
  0
LAYER
  5
209
100
AcDbSymbolTableRecord
100
AcDbLayerTableRecord
  2
16_MISC
 70
0
 62
7
  6
CONTINUOUS
370
-3
390
F
  0
LAYER
  5
20A
100
AcDbSymbolTableRecord
100
AcDbLayerTableRecord
  2
17_NO_PRINT
 70
0
 62
7
  6
CONTINUOUS
370
-3
390
F
  0
LAYER
  5
20B
100
AcDbSymbolTableRecord
100
AcDbLayerTableRecord
  2
18_DATUM_CAMS_JOINTS
 70
0
 62
7
  6
CONTINUOUS
370
-3
390
F
  0
LAYER
  5
20C
100
AcDbSymbolTableRecord
100
AcDbLayerTableRecord
  2
19_DATUM_FUNCTIONAL
 70
0
 62
7
  6
CONTINUOUS
370
-3
390
F
  0
LAYER
  5
20D
100
AcDbSymbolTableRecord
100
AcDbLayerTableRecord
  2
20_DATUM_KINEMATIC_SCHEME
 70
0
 62
7
  6
CONTINUOUS
370
-3
390
F
  0
ENDTAB
  0
TABLE
  2
STYLE
  5
3
100
AcDbSymbolTable
 70
1
  0
STYLE
  5
11
100
AcDbSymbolTableRecord
100
AcDbTextStyleTableRecord
  2
STANDARD
 70
0
 40
0.0
 41
1.0
 50
0.0
 71
0
 42
0.2
  3
ARIAL.TTF
  4

  0
STYLE
  5
20E
100
AcDbSymbolTableRecord
100
AcDbTextStyleTableRecord
  2
TEXTSTYLE_1
 70
0
 40
0.0
 41
0.8
 50
0.0
 71
0
 42
0.2
  3
gdt
  4

  0
ENDTAB
  0
TABLE
  2
VIEW
  5
6
100
AcDbSymbolTable
 70
0
  0
ENDTAB
  0
TABLE
  2
UCS
  5
7
100
AcDbSymbolTable
 70
0
  0
ENDTAB
  0
TABLE
  2
APPID
  5
9
100
AcDbSymbolTable
 70
1
  0
APPID
  5
20F
100
AcDbSymbolTableRecord
100
AcDbRegAppTableRecord
  2
ACAD
 70
0
  0
ENDTAB
  0
TABLE
  2
BLOCK_RECORD
  5
1
100
AcDbSymbolTable
 70
0
  0
BLOCK_RECORD
  5
210
100
AcDbSymbolTableRecord
100
AcDbBlockTableRecord
  2
*Model_Space
  0
BLOCK_RECORD
  5
211
100
AcDbSymbolTableRecord
100
AcDbBlockTableRecord
  2
*Paper_Space
  0
BLOCK_RECORD
  5
212
100
AcDbSymbolTableRecord
100
AcDbBlockTableRecord
  2
_FILLED
  0
ENDTAB
  0
TABLE
  2
DIMSTYLE
  5
A
100
AcDbSymbolTable
 70
1
100
AcDbDimStyleTable
 71
0
  0
DIMSTYLE
105
213
100
AcDbSymbolTableRecord
100
AcDbDimStyleTableRecord
  2
STANDARD
 70
0
  3

  4

 40
1.0
 41
2.8916851094
 42
1.0
 43
0.38
 44
1.0
 45
0.0
 46
0.0
 47
0.01
 48
0.01
140
4.0483591532
141
0.09
142
0.0
143
25.4
144
1.0
145
0.0
146
1.0
147
0.625
 71
1
 72
0
 73
0
 74
0
 75
0
 76
0
 77
1
 78
8
 79
2
170
0
171
1
172
0
173
0
174
0
175
0
176
0
177
0
178
0
270
2
179
2
271
2
272
2
273
2
274
2
275
0
280
0
281
0
282
0
283
1
284
8
285
0
286
0
287
3
288
0
340
11
278
46
341
212
342
212
343
212
344
212
  0
ENDTAB
  0
ENDSEC
  0
SECTION
  2
BLOCKS
  0
BLOCK
  5
20
100
AcDbEntity
  8
0
100
AcDbBlockBegin
  2
*Model_Space
 70
0
 10
0.0
 20
0.0
 30
0.0
  3
*Model_Space
  1

  0
ENDBLK
  5
21
100
AcDbEntity
  8
0
100
AcDbBlockEnd
  0
BLOCK
  5
1C
100
AcDbEntity
  8
0
100
AcDbBlockBegin
  2
*Paper_Space
 70
0
 10
0.0
 20
0.0
 30
0.0
  3
*Paper_Space
  1

  0
ENDBLK
  5
1D
100
AcDbEntity
  8
0
100
AcDbBlockEnd
  0
BLOCK
  5
214
100
AcDbEntity
  8
0
100
AcDbBlockBegin
  2
_FILLED
 70
64
 10
0.0
 20
0.0
  3
_FILLED
  1

  0
SOLID
  5
215
100
AcDbEntity
  8
0
  6
BYBLOCK
 62
0
100
AcDbTrace
 10
0.0
 20
0.0
 11
-1.0
 21
0.25
 12
-1.0
 22
-0.25
 13
-1.0
 23
-0.25
  0
ENDBLK
  5
216
100
AcDbEntity
  8
0
  6
BYBLOCK
 62
0
100
AcDbBlockEnd
  0
ENDSEC
  0
SECTION
  2
ENTITIES
  0
LINE
  5
217
100
AcDbEntity
  8
0
100
AcDbLine
 62
7
  6
BYLAYER
 10
28.3146109436
 20
170.5875755365
 11
28.3146109436
 21
187.5028816409
  0
LINE
  5
218
100
AcDbEntity
  8
0
100
AcDbLine
 62
7
  6
BYLAYER
 10
31.3146109436
 20
106.4875755365
 11
31.3146109436
 21
170.5875755365
  0
LINE
  5
219
100
AcDbEntity
  8
0
100
AcDbLine
 62
7
  6
BYLAYER
 10
34.1296109436
 20
191.086501131
 11
34.1296109436
 21
191.1984757789
  0
LINE
  5
21A
100
AcDbEntity
  8
0
100
AcDbLine
 62
7
  6
BYLAYER
 10
36.1302626577
 20
191.9620745438
 11
36.1302626577
 21
191.1635418864
  0
LINE
  5
21B
100
AcDbEntity
  8
0
100
AcDbLine
 62
7
  6
BYLAYER
 10
36.8373694389
 20
191.1562485293
 11
36.8373694389
 21
191.929012797
  0
LINE
  5
21C
100
AcDbEntity
  8
0
100
AcDbLine
 62
7
  6
BYLAYER
 10
41.4146109436
 20
170.5875755365
 11
41.4146109436
 21
106.4875755365
  0
LINE
  5
21D
100
AcDbEntity
  8
0
100
AcDbLine
 62
7
  6
BYLAYER
 10
40.8346109436
 20
170.5875755365
 11
40.8384299892
 21
187.5029470878
  0
LINE
  5
21E
100
AcDbEntity
  8
0
100
AcDbLine
 62
7
  6
BYLAYER
 10
50.1296109435
 20
192.8956497397
 11
50.1296109435
 21
192.9875755365
  0
LINE
  5
21F
100
AcDbEntity
  8
0
100
AcDbLine
 62
7
  6
BYLAYER
 10
31.3146109436
 20
106.4875755365
 11
218.3146109436
 21
106.4875755365
  0
LINE
  5
220
100
AcDbEntity
  8
0
100
AcDbLine
 62
7
  6
BYLAYER
 10
94.8146109436
 20
192.9875755365
 11
94.8146109436
 21
196.8855755365
  0
LINE
  5
221
100
AcDbEntity
  8
0
100
AcDbLine
 62
7
  6
BYLAYER
 10
98.3146109436
 20
192.9875755365
 11
98.3146109436
 21
197.8855755365
  0
LINE
  5
222
100
AcDbEntity
  8
0
100
AcDbLine
 62
7
  6
BYLAYER
 10
102.3146109436
 20
197.8855755365
 11
102.3146109436
 21
206.0855755365
  0
LINE
  5
223
100
AcDbEntity
  8
0
100
AcDbLine
 62
7
  6
BYLAYER
 10
119.3663873189
 20
235.4675896161
 11
118.8146109437
 21
219.6667815786
  0
LINE
  5
224
100
AcDbEntity
  8
0
100
AcDbLine
 62
7
  6
BYLAYER
 10
28.3146109436
 20
170.5875755365
 11
221.3146109436
 21
170.5875755365
  0
LINE
  5
225
100
AcDbEntity
  8
0
100
AcDbLine
 62
7
  6
BYLAYER
 10
130.8146109434
 20
219.66678158
 11
130.2628345684
 21
235.4675896121
  0
LINE
  5
226
100
AcDbEntity
  8
0
100
AcDbLine
 62
7
  6
BYLAYER
 10
208.7908101248
 20
187.502957693
 11
40.8384299892
 21
187.5029470878
  0
LINE
  5
227
100
AcDbEntity
  8
0
100
AcDbLine
 62
7
  6
BYLAYER
 10
147.3146109436
 20
197.8855755365
 11
147.3146109436
 21
206.0855755365
  0
LINE
  5
228
100
AcDbEntity
  8
0
100
AcDbLine
 62
7
  6
BYLAYER
 10
41.0800436149
 20
192.9875755365
 11
50.1293125716
 21
192.9875755365
  0
LINE
  5
229
100
AcDbEntity
  8
0
100
AcDbLine
 62
7
  6
BYLAYER
 10
50.3247815878
 20
192.9875755365
 11
199.3044402993
 21
192.9875755365
  0
LINE
  5
22A
100
AcDbEntity
  8
0
100
AcDbLine
 62
7
  6
BYLAYER
 10
199.5007736339
 20
192.9875755365
 11
208.5491782723
 21
192.9875755365
  0
LINE
  5
22B
100
AcDbEntity
  8
0
100
AcDbLine
 62
7
  6
BYLAYER
 10
151.3146109436
 20
192.9875755365
 11
151.3146109436
 21
197.8855755365
  0
LINE
  5
22C
100
AcDbEntity
  8
0
100
AcDbLine
 62
7
  6
BYLAYER
 10
154.8146109436
 20
192.9875755365
 11
154.8146109436
 21
196.8855755365
  0
LINE
  5
22D
100
AcDbEntity
  8
0
100
AcDbLine
 62
7
  6
BYLAYER
 10
154.8146109436
 20
196.8855755365
 11
94.8146109436
 21
196.8855755365
  0
LINE
  5
22E
100
AcDbEntity
  8
0
100
AcDbLine
 62
7
  6
BYLAYER
 10
95.8146109436
 20
197.8855755365
 11
153.8146109436
 21
197.8855755365
  0
LINE
  5
22F
100
AcDbEntity
  8
0
100
AcDbLine
 62
7
  6
BYLAYER
 10
147.3146109436
 20
206.0855755365
 11
144.5626852482
 21
206.0855755365
  0
LINE
  5
230
100
AcDbEntity
  8
0
100
AcDbLine
 62
7
  6
BYLAYER
 10
105.0665366371
 20
206.0855755365
 11
102.3146109436
 21
206.0855755365
  0
LINE
  5
231
100
AcDbEntity
  8
0
100
AcDbLine
 62
7
  6
BYLAYER
 10
145.3138092487
 20
208.0855755365
 11
142.8073008689
 21
208.0855755365
  0
LINE
  5
232
100
AcDbEntity
  8
0
100
AcDbLine
 62
7
  6
BYLAYER
 10
106.8219210183
 20
208.0855755365
 11
104.3154126384
 21
208.0855755365
  0
LINE
  5
233
100
AcDbEntity
  8
0
100
AcDbLine
 62
7
  6
BYLAYER
 10
128.601052014
 20
235.3855755365
 11
121.0281698731
 21
235.3855755365
  0
LINE
  5
234
100
AcDbEntity
  8
0
100
AcDbLine
 62
7
  6
BYLAYER
 10
127.7641747022
 20
237.8855755365
 11
121.8650471849
 21
237.8855755365
  0
LINE
  5
235
100
AcDbEntity
  8
0
100
AcDbLine
 62
7
  6
BYLAYER
 10
127.9260343822
 20
237.8803303229
 11
127.7641747022
 21
237.8855755365
  0
LINE
  5
236
100
AcDbEntity
  8
0
100
AcDbLine
 62
7
  6
BYLAYER
 10
199.4996109436
 20
192.8948770897
 11
199.4996109436
 21
192.9875755365
  0
LINE
  5
237
100
AcDbEntity
  8
0
100
AcDbLine
 62
7
  6
BYLAYER
 10
201.5002626577
 20
192.1517482102
 11
201.5002626577
 21
192.0899257145
  0
LINE
  5
238
100
AcDbEntity
  8
0
100
AcDbLine
 62
7
  6
BYLAYER
 10
202.2073694388
 20
191.8796683008
 11
202.2073694388
 21
191.929012797
  0
LINE
  5
239
100
AcDbEntity
  8
0
100
AcDbLine
 62
7
  6
BYLAYER
 10
208.7946109436
 20
170.5875755365
 11
208.7908101248
 21
187.502957693
  0
LINE
  5
23A
100
AcDbEntity
  8
0
100
AcDbLine
 62
7
  6
BYLAYER
 10
208.2146109436
 20
106.4875755365
 11
208.2146109436
 21
170.5875755365
  0
LINE
  5
23B
100
AcDbEntity
  8
0
100
AcDbLine
 62
7
  6
BYLAYER
 10
215.4996109436
 20
191.121621373
 11
215.4996109436
 21
191.1984757789
  0
LINE
  5
23C
100
AcDbEntity
  8
0
100
AcDbLine
 62
7
  6
BYLAYER
 10
218.3146109436
 20
170.5875755365
 11
218.3146109436
 21
106.4875755365
  0
LINE
  5
23D
100
AcDbEntity
  8
0
100
AcDbLine
 62
7
  6
BYLAYER
 10
221.3146109436
 20
170.5875755365
 11
221.3146109436
 21
187.5029171871
  0
ARC
  5
23E
100
AcDbEntity
  8
0
100
AcDbCircle
 62
7
  6
BYLAYER
 10
43.1367514617
 20
170.6021801023
 40
22.4796791773
100
AcDbArc
 50
95.2494389924
 51
131.2514336043
  0
ARC
  5
23F
100
AcDbEntity
  8
0
100
AcDbCircle
 62
7
  6
BYLAYER
 10
49.4484700911
 20
194.1886002354
 40
1.4877494885
100
AcDbArc
 50
302.0775307192
 51
303.1276790268
  0
ARC
  5
240
100
AcDbEntity
  8
0
100
AcDbCircle
 62
7
  6
BYLAYER
 10
95.8146109436
 20
196.8855755365
 40
1.0
100
AcDbArc
 50
90.0
 51
180.0
  0
ARC
  5
241
100
AcDbEntity
  8
0
100
AcDbCircle
 62
7
  6
BYLAYER
 10
109.5723510806
 20
235.2397057717
 40
19.0292600205
100
AcDbArc
 50
0.4392080263
 51
0.7019198713
  0
ARC
  5
242
100
AcDbEntity
  8
0
100
AcDbCircle
 62
7
  6
BYLAYER
 10
42.1299326676
 20
209.2084044677
 40
18.053950818
100
AcDbArc
 50
268.6180054491
 51
269.9148668942
  0
ARC
  5
243
100
AcDbEntity
  8
0
100
AcDbCircle
 62
7
  6
BYLAYER
 10
42.1296629944
 20
209.071578025
 40
18.0297331204
100
AcDbArc
 50
268.603148744
 51
269.9998345904
  0
ARC
  5
244
100
AcDbEntity
  8
0
100
AcDbCircle
 62
7
  6
BYLAYER
 10
106.8219210193
 20
220.0855755365
 40
12.0
100
AcDbArc
 50
269.9999999974
 51
358.0000000065
  0
ARC
  5
245
100
AcDbEntity
  8
0
100
AcDbCircle
 62
7
  6
BYLAYER
 10
121.8650471849
 20
235.3855755365
 40
2.5
100
AcDbArc
 50
90.0
 51
178.1200425706
  0
ARC
  5
246
100
AcDbEntity
  8
0
100
AcDbCircle
 62
7
  6
BYLAYER
 10
104.3146109436
 20
206.0855755365
 40
2.0
100
AcDbArc
 50
90.0
 51
180.0
  0
ARC
  5
247
100
AcDbEntity
  8
0
100
AcDbCircle
 62
7
  6
BYLAYER
 10
206.4924704254
 20
170.6021801023
 40
22.4796791773
100
AcDbArc
 50
48.7485395805
 51
84.7505610076
  0
ARC
  5
248
100
AcDbEntity
  8
0
100
AcDbCircle
 62
7
  6
BYLAYER
 10
200.1938294159
 20
194.2087580246
 40
1.511784544
100
AcDbArc
 50
236.9463151639
 51
237.985790972
  0
ARC
  5
249
100
AcDbEntity
  8
0
100
AcDbCircle
 62
7
  6
BYLAYER
 10
153.8146109436
 20
196.8855755365
 40
1.0
100
AcDbArc
 50
0.0
 51
90.0
  0
ARC
  5
24A
100
AcDbEntity
  8
0
100
AcDbCircle
 62
7
  6
BYLAYER
 10
140.0567383268
 20
235.2397249565
 40
19.0291274065
100
AcDbArc
 50
179.2981308084
 51
179.5608466791
  0
ARC
  5
24B
100
AcDbEntity
  8
0
100
AcDbCircle
 62
7
  6
BYLAYER
 10
207.4973313349
 20
209.3521076861
 40
18.1975380545
100
AcDbArc
 50
270.0011437872
 51
271.3935801934
  0
ARC
  5
24C
100
AcDbEntity
  8
0
100
AcDbCircle
 62
7
  6
BYLAYER
 10
207.5011489344
 20
209.2420716537
 40
18.0874417598
100
AcDbArc
 50
271.3899678125
 51
273.4871728419
  0
ARC
  5
24D
100
AcDbEntity
  8
0
100
AcDbCircle
 62
7
  6
BYLAYER
 10
207.4995504326
 20
209.0707793956
 40
18.028934491
100
AcDbArc
 50
270.0001923032
 51
271.3969374657
  0
ARC
  5
24E
100
AcDbEntity
  8
0
100
AcDbCircle
 62
7
  6
BYLAYER
 10
207.4963741438
 20
209.1159602679
 40
17.9613906813
100
AcDbArc
 50
268.1888815722
 51
270.0042122085
  0
ARC
  5
24F
100
AcDbEntity
  8
0
100
AcDbCircle
 62
7
  6
BYLAYER
 10
142.8073008678
 20
220.0855755365
 40
12.0
100
AcDbArc
 50
181.9999999851
 51
270.0000000054
  0
ARC
  5
250
100
AcDbEntity
  8
0
100
AcDbCircle
 62
7
  6
BYLAYER
 10
127.7641747022
 20
235.3855755365
 40
2.5
100
AcDbArc
 50
1.8799573376
 51
86.8928931545
  0
ARC
  5
251
100
AcDbEntity
  8
0
100
AcDbCircle
 62
7
  6
BYLAYER
 10
145.3146109436
 20
206.0855755365
 40
2.0
100
AcDbArc
 50
0.0
 51
90.0
  0
SPLINE
  5
252
100
AcDbEntity
  8
0
100
AcDbSpline
 62
7
  6
BYLAYER
 70
0
 71
3
 72
14
 73
10
 74
0
 42
0.0000001
 43
0.0000001
 44
0.0000000001
 40
0.0
 40
0.0
 40
0.0
 40
0.0
 40
0.3383262915
 40
0.4951635089
 40
0.6381184094
 40
0.7635840625
 40
0.867995937
 40
0.9478776683
 40
1.0
 40
1.0
 40
1.0
 40
1.0
 10
42.1296109436
 20
191.0418449046
 30
0.0
 10
43.0766188855
 20
191.0418449046
 30
0.0
 10
44.4656105561
 20
191.1529246878
 30
0.0
 10
46.220302842
 20
191.4908841946
 30
0.0
 10
47.373094719
 20
191.7909201115
 30
0.0
 10
48.3668674349
 20
192.1107873045
 30
0.0
 10
49.1784085094
 20
192.4176557695
 30
0.0
 10
49.7840161099
 20
192.6840263708
 30
0.0
 10
50.1149683144
 20
192.8504631764
 30
0.0
 10
50.2385637502
 20
192.9279850878
 30
0.0
  0
SPLINE
  5
253
100
AcDbEntity
  8
0
100
AcDbSpline
 62
7
  6
BYLAYER
 70
0
 71
3
 72
9
 73
5
 74
0
 42
0.0000001
 43
0.0000001
 44
0.0000000001
 40
0.0
 40
0.0
 40
0.0
 40
0.0
 40
0.2795732227
 40
1.0
 40
1.0
 40
1.0
 40
1.0
 10
50.2615349923
 20
192.9426772815
 30
0.0
 10
50.2675879757
 20
192.9466302595
 30
0.0
 10
50.28911725
 20
192.9609495969
 30
0.0
 10
50.3101843515
 20
192.9760008107
 30
0.0
 10
50.3247815878
 20
192.9875755365
 30
0.0
  0
SPLINE
  5
254
100
AcDbEntity
  8
0
100
AcDbSpline
 62
7
  6
BYLAYER
 70
0
 71
3
 72
9
 73
5
 74
0
 42
0.0000001
 43
0.0000001
 44
0.0000000001
 40
0.0
 40
0.0
 40
0.0
 40
0.0
 40
0.2199872935
 40
1.0
 40
1.0
 40
1.0
 40
1.0
 10
199.3044402993
 20
192.9875755365
 30
0.0
 10
199.3090062529
 20
192.9839550115
 30
0.0
 10
199.3300387678
 20
192.9678463346
 30
0.0
 10
199.3519509714
 20
192.9529159451
 30
0.0
 10
199.3692649191
 20
192.9416408643
 30
0.0
  0
SPLINE
  5
255
100
AcDbEntity
  8
0
100
AcDbSpline
 62
7
  6
BYLAYER
 70
0
 71
3
 72
11
 73
7
 74
0
 42
0.0000001
 43
0.0000001
 44
0.0000000001
 40
0.0
 40
0.0
 40
0.0
 40
0.0
 40
0.1456691529
 40
0.3665394542
 40
0.6543010045
 40
1.0
 40
1.0
 40
1.0
 40
1.0
 10
199.3923877422
 20
192.9268907339
 30
0.0
 10
199.5096200264
 20
192.8535412959
 30
0.0
 10
199.820722918
 20
192.6958202096
 30
0.0
 10
200.3884010099
 20
192.4439658247
 30
0.0
 10
201.1459132513
 20
192.152901102
 30
0.0
 10
201.7171077343
 20
191.9640124643
 30
0.0
 10
202.0311728969
 20
191.8687942839
 30
0.0
  0
SPLINE
  5
256
100
AcDbEntity
  8
0
100
AcDbSpline
 62
7
  6
BYLAYER
 70
0
 71
3
 72
9
 73
5
 74
0
 42
0.0000001
 43
0.0000001
 44
0.0000000001
 40
0.0
 40
0.0
 40
0.0
 40
0.0
 40
0.222024802
 40
1.0
 40
1.0
 40
1.0
 40
1.0
 10
202.0311728969
 20
191.8687942839
 30
0.0
 10
202.4235939636
 20
191.7498201844
 30
0.0
 10
204.2066197311
 20
191.2683584873
 30
0.0
 10
206.06276048
 20
191.0418449046
 30
0.0
 10
207.4996109436
 20
191.0418449046
 30
0.0
  0
SPLINE
  5
257
100
AcDbEntity
  8
0
100
AcDbSpline
 62
7
  6
BYLAYER
 70
0
 71
3
 72
10
 73
6
 74
0
 42
0.0000001
 43
0.0000001
 44
0.0000000001
 40
0.0
 40
0.0
 40
0.0
 40
0.0
 40
0.1162411774
 40
0.3216385609
 40
1.0
 40
1.0
 40
1.0
 40
1.0
 10
215.7432147602
 20
191.0902180331
 30
0.0
 10
215.7339137517
 20
191.0944176424
 30
0.0
 10
215.7059203952
 20
191.1001373554
 30
0.0
 10
215.6194332739
 20
191.1134549265
 30
0.0
 10
215.5418132723
 20
191.119471935
 30
0.0
 10
215.4824180788
 20
191.1238377315
 30
0.0
  0
SPLINE
  5
258
100
AcDbEntity
  8
0
100
AcDbSpline
 62
7
  6
BYLAYER
 70
0
 71
3
 72
12
 73
8
 74
0
 42
0.0000001
 43
0.0000001
 44
0.0000000001
 40
0.0
 40
0.0
 40
0.0
 40
0.0
 40
0.0566134059
 40
0.138027065
 40
0.3668083376
 40
0.6638848046
 40
1.0
 40
1.0
 40
1.0
 40
1.0
 10
215.4824180788
 20
191.1238377315
 30
0.0
 10
215.3404112342
 20
191.1342758316
 30
0.0
 10
214.9935042753
 20
191.1497967434
 30
0.0
 10
214.0711354336
 20
191.1698326367
 30
0.0
 10
212.5435465801
 20
191.1610120793
 30
0.0
 10
210.3761215267
 20
191.1132404554
 30
0.0
 10
208.7841951261
 20
191.0678125546
 30
0.0
 10
207.9390737209
 20
191.0472029941
 30
0.0
  0
SPLINE
  5
259
100
AcDbEntity
  8
0
100
AcDbSpline
 62
7
  6
BYLAYER
 70
0
 71
3
 72
9
 73
5
 74
0
 42
0.0000001
 43
0.0000001
 44
0.0000000001
 40
0.0
 40
0.0
 40
0.0
 40
0.0
 40
0.3251314612
 40
1.0
 40
1.0
 40
1.0
 40
1.0
 10
33.8860070276
 20
191.0902178887
 30
0.0
 10
33.9089004141
 20
191.1005539807
 30
0.0
 10
33.9876043276
 20
191.1080573437
 30
0.0
 10
34.0634106758
 20
191.1173068657
 30
0.0
 10
34.1153862278
 20
191.1214202014
 30
0.0
  0
SPLINE
  5
25A
100
AcDbEntity
  8
0
100
AcDbSpline
 62
7
  6
BYLAYER
 70
0
 71
3
 72
9
 73
5
 74
0
 42
0.0000001
 43
0.0000001
 44
0.0000000001
 40
0.0
 40
0.0
 40
0.0
 40
0.0
 40
0.2105126756
 40
1.0
 40
1.0
 40
1.0
 40
1.0
 10
34.1153862278
 20
191.1214202014
 30
0.0
 10
34.1386185645
 20
191.1232588043
 30
0.0
 10
34.2490372873
 20
191.1312594222
 30
0.0
 10
34.3596155824
 20
191.1368994662
 30
0.0
 10
34.4469341239
 20
191.1406913182
 30
0.0
  0
SPLINE
  5
25B
100
AcDbEntity
  8
0
100
AcDbSpline
 62
7
  6
BYLAYER
 70
0
 71
3
 72
9
 73
5
 74
0
 42
0.0000001
 43
0.0000001
 44
0.0000000001
 40
0.0
 40
0.0
 40
0.0
 40
0.0
 40
0.412944822
 40
1.0
 40
1.0
 40
1.0
 40
1.0
 10
34.4469341239
 20
191.1406913182
 30
0.0
 10
34.7706209178
 20
191.1547475819
 30
0.0
 10
35.5552871795
 20
191.1681807183
 30
0.0
 10
36.3398738382
 20
191.164576055
 30
0.0
 10
36.8004410403
 20
191.1593481449
 30
0.0
  0
SPLINE
  5
25C
100
AcDbEntity
  8
0
100
AcDbSpline
 62
7
  6
BYLAYER
 70
0
 71
3
 72
9
 73
5
 74
0
 42
0.0000001
 43
0.0000001
 44
0.0000000001
 40
0.0
 40
0.0
 40
0.0
 40
0.0
 40
0.2223670543
 40
1.0
 40
1.0
 40
1.0
 40
1.0
 10
36.8004410403
 20
191.1593481449
 30
0.0
 10
37.1629535099
 20
191.1552332567
 30
0.0
 10
38.7931019925
 20
191.1280510018
 30
0.0
 10
40.4227307395
 20
191.0781062216
 30
0.0
 10
41.6901668375
 20
191.0472022081
 30
0.0
  0
SPLINE
  5
25D
100
AcDbEntity
  8
0
100
AcDbSpline
 62
7
  6
BYLAYER
 70
0
 71
3
 72
9
 73
5
 74
0
 42
0.0000001
 43
0.0000001
 44
0.0000000001
 40
0.0
 40
0.0
 40
0.0
 40
0.0
 40
0.2726843988
 40
1.0
 40
1.0
 40
1.0
 40
1.0
 10
41.2449055789
 20
189.4690725043
 30
0.0
 10
41.2795509102
 20
189.6140616984
 30
0.0
 10
41.4113637592
 20
190.1445768119
 30
0.0
 10
41.5626385616
 20
190.6705999613
 30
0.0
 10
41.6901702263
 20
191.0472009381
 30
0.0
  0
SPLINE
  5
25E
100
AcDbEntity
  8
0
100
AcDbSpline
 62
7
  6
BYLAYER
 70
0
 71
3
 72
18
 73
14
 74
0
 42
0.0000001
 43
0.0000001
 44
0.0000000001
 40
0.0
 40
0.0
 40
0.0
 40
0.0
 40
0.0051506541
 40
0.0181444605
 40
0.0398261281
 40
0.070699032
 40
0.1110652771
 40
0.1606306055
 40
0.2856042199
 40
0.4410556705
 40
0.6183241732
 40
0.8077873241
 40
1.0
 40
1.0
 40
1.0
 40
1.0
 10
119.3665795248
 20
235.47295448
 30
0.0
 10
119.3668945858
 20
235.4757952595
 30
0.0
 10
119.3797313252
 20
235.4790375607
 30
0.0
 10
119.3987314665
 20
235.4826450598
 30
0.0
 10
119.436559435
 20
235.4859911388
 30
0.0
 10
119.4873246669
 20
235.4889460714
 30
0.0
 10
119.5546077976
 20
235.4913040196
 30
0.0
 10
119.6737023551
 20
235.4938244993
 30
0.0
 10
119.8569156022
 20
235.4947752584
 30
0.0
 10
120.110858565
 20
235.4930269124
 30
0.0
 10
120.4006096941
 20
235.4886219911
 30
0.0
 10
120.7107018399
 20
235.4818069019
 30
0.0
 10
120.9224236885
 20
235.476009941
 30
0.0
 10
121.0290386851
 20
235.4728263296
 30
0.0
  0
SPLINE
  5
25F
100
AcDbEntity
  8
0
100
AcDbSpline
 62
7
  6
BYLAYER
 70
0
 71
3
 72
18
 73
14
 74
0
 42
0.0000001
 43
0.0000001
 44
0.0000000001
 40
0.0
 40
0.0
 40
0.0
 40
0.0
 40
0.203173334
 40
0.3944714121
 40
0.5671047519
 40
0.7160023598
 40
0.8367485786
 40
0.8854482976
 40
0.925820621
 40
0.9575184068
 40
0.9803974273
 40
0.9944171355
 40
1.0
 40
1.0
 40
1.0
 40
1.0
 10
121.0172092529
 20
235.3859706959
 30
0.0
 10
120.9052134996
 20
235.3899984884
 30
0.0
 10
120.6877693929
 20
235.3978834917
 30
0.0
 10
120.375185572
 20
235.4096439491
 30
0.0
 10
120.0925288935
 20
235.4209672506
 30
0.0
 10
119.8488142969
 20
235.4309311889
 30
0.0
 10
119.6732500285
 20
235.4374403173
 30
0.0
 10
119.557773396
 20
235.4426444228
 30
0.0
 10
119.4909651727
 20
235.4465475412
 30
0.0
 10
119.4395527281
 20
235.4507747545
 30
0.0
 10
119.4001788039
 20
235.4557358282
 30
0.0
 10
119.3804710808
 20
235.4598072812
 30
0.0
 10
119.3665352614
 20
235.4645032907
 30
0.0
 10
119.3666745423
 20
235.4675795854
 30
0.0
  0
SPLINE
  5
260
100
AcDbEntity
  8
0
100
AcDbSpline
 62
7
  6
BYLAYER
 70
0
 71
3
 72
14
 73
10
 74
0
 42
0.0000001
 43
0.0000001
 44
0.0000000001
 40
0.0
 40
0.0
 40
0.0
 40
0.0
 40
0.349521197
 40
0.5080156199
 40
0.6491475693
 40
0.7691012232
 40
0.8660767031
 40
0.9409196448
 40
1.0
 40
1.0
 40
1.0
 40
1.0
 10
121.0290386649
 20
235.4728245731
 30
0.0
 10
121.0346908379
 20
235.785857563
 30
0.0
 10
121.0666760645
 20
236.2417521458
 30
0.0
 10
121.1782681288
 20
236.8130363165
 30
0.0
 10
121.282439725
 20
237.1747299946
 30
0.0
 10
121.4054719358
 20
237.4720197652
 30
0.0
 10
121.5434563273
 20
237.6955757781
 30
0.0
 10
121.6922778239
 20
237.8439410377
 30
0.0
 10
121.812129687
 20
237.8855755365
 30
0.0
 10
121.865050983
 20
237.8855755365
 30
0.0
  0
SPLINE
  5
261
100
AcDbEntity
  8
0
100
AcDbSpline
 62
7
  6
BYLAYER
 70
0
 71
3
 72
18
 73
14
 74
0
 42
0.0000001
 43
0.0000001
 44
0.0000000001
 40
0.0
 40
0.0
 40
0.0
 40
0.0
 40
0.1925348114
 40
0.3822949463
 40
0.5597861445
 40
0.7153356986
 40
0.840259164
 40
0.889744109
 40
0.9299900812
 40
0.9607104309
 40
0.9822186189
 40
0.9950228649
 40
1.0
 40
1.0
 40
1.0
 40
1.0
 10
128.6001831186
 20
235.4728257384
 30
0.0
 10
128.7069826601
 20
235.4760148391
 30
0.0
 10
128.9190596972
 20
235.4818205682
 30
0.0
 10
129.229635692
 20
235.4886418623
 30
0.0
 10
129.5197468182
 20
235.4930424358
 30
0.0
 10
129.7738506415
 20
235.4947803579
 30
0.0
 10
129.9570639683
 20
235.4938025805
 30
0.0
 10
130.076013209
 20
235.4912712093
 30
0.0
 10
130.1431281349
 20
235.4888740643
 30
0.0
 10
130.1935869139
 20
235.4859626117
 30
0.0
 10
130.231254864
 20
235.4824724719
 30
0.0
 10
130.2497561907
 20
235.4790925484
 30
0.0
 10
130.2625611125
 20
235.4755829001
 30
0.0
 10
130.2626518341
 20
235.4728223305
 30
0.0
  0
SPLINE
  5
262
100
AcDbEntity
  8
0
100
AcDbSpline
 62
7
  6
BYLAYER
 70
0
 71
3
 72
18
 73
14
 74
0
 42
0.0000001
 43
0.0000001
 44
0.0000000001
 40
0.0
 40
0.0
 40
0.0
 40
0.0
 40
0.2029286154
 40
0.3941269834
 40
0.5667397666
 40
0.7156817381
 40
0.8365461737
 40
0.8853156932
 40
0.9257473843
 40
0.9574926725
 40
0.9804089457
 40
0.9944468766
 40
1.0
 40
1.0
 40
1.0
 40
1.0
 10
128.6010897885
 20
235.3855754268
 30
0.0
 10
128.7136853744
 20
235.3896206051
 30
0.0
 10
128.9323665391
 20
235.3975449
 30
0.0
 10
129.246800867
 20
235.4093638134
 30
0.0
 10
129.5312724331
 20
235.4207487102
 30
0.0
 10
129.7766669306
 20
235.4307362406
 30
0.0
 10
129.953515626
 20
235.437298714
 30
0.0
 10
130.0698810655
 20
235.4425989945
 30
0.0
 10
130.137233095
 20
235.4465698714
 30
0.0
 10
130.1890352517
 20
235.4508755693
 30
0.0
 10
130.2287842577
 20
235.4558132593
 30
0.0
 10
130.2485409326
 20
235.4599467896
 30
0.0
 10
130.2626875011
 20
235.4644996128
 30
0.0
 10
130.2625473451
 20
235.4675795814
 30
0.0
  0
SPLINE
  5
263
100
AcDbEntity
  8
0
100
AcDbSpline
 62
7
  6
BYLAYER
 70
0
 71
3
 72
18
 73
14
 74
0
 42
0.0000001
 43
0.0000001
 44
0.0000000001
 40
0.0
 40
0.0
 40
0.0
 40
0.0
 40
0.2004772719
 40
0.3949828503
 40
0.5737400622
 40
0.7277454396
 40
0.8493093161
 40
0.8968530867
 40
0.9352235601
 40
0.9642882389
 40
0.9844273758
 40
0.9961521598
 40
1.0
 40
1.0
 40
1.0
 40
1.0
 10
129.2061920819
 20
219.5969821278
 30
0.0
 10
129.3137157949
 20
219.6008856498
 30
0.0
 10
129.5255575732
 20
219.6087025542
 30
0.0
 10
129.833247067
 20
219.6204668173
 30
0.0
 10
130.1160277486
 20
219.6317267826
 30
0.0
 10
130.3595743322
 20
219.6419862248
 30
0.0
 10
130.5329836688
 20
219.6496568691
 30
0.0
 10
130.643941961
 20
219.6552591445
 30
0.0
 10
130.7061004446
 20
219.6581540725
 30
0.0
 10
130.7516885916
 20
219.6617130805
 30
0.0
 10
130.7872174585
 20
219.6620713152
 30
0.0
 10
130.8013990927
 20
219.6667896635
 30
0.0
 10
130.8146830171
 20
219.664717338
 30
0.0
 10
130.8146109572
 20
219.6667811854
 30
0.0
  0
SPLINE
  5
264
100
AcDbEntity
  8
0
100
AcDbSpline
 62
7
  6
BYLAYER
 70
0
 71
3
 72
13
 73
9
 74
0
 42
0.0000001
 43
0.0000001
 44
0.0000000001
 40
0.0
 40
0.0
 40
0.0
 40
0.0
 40
0.1785536313
 40
0.4218749777
 40
0.5608415198
 40
0.7053946425
 40
0.8523212563
 40
1.0
 40
1.0
 40
1.0
 40
1.0
 10
144.5626852482
 20
206.0855755365
 30
0.0
 10
143.2223395769
 20
206.0855697119
 30
0.0
 10
140.0468175919
 20
206.4638884018
 30
0.0
 10
136.0940430216
 20
208.1617816051
 30
0.0
 10
133.0136949033
 20
210.6825767264
 30
0.0
 10
130.999504027
 20
213.2473829363
 30
0.0
 10
129.6257381633
 20
216.2799915708
 30
0.0
 10
129.248697304
 20
218.4892201059
 30
0.0
 10
129.2061920549
 20
219.5969825847
 30
0.0
  0
SPLINE
  5
265
100
AcDbEntity
  8
0
100
AcDbSpline
 62
7
  6
BYLAYER
 70
0
 71
3
 72
11
 73
7
 74
0
 42
0.0000001
 43
0.0000001
 44
0.0000000001
 40
0.0
 40
0.0
 40
0.0
 40
0.0
 40
0.2253998545
 40
0.4787737712
 40
0.7455564513
 40
1.0
 40
1.0
 40
1.0
 40
1.0
 10
142.80730087
 20
208.0855755365
 30
0.0
 10
143.0277113324
 20
208.0855755365
 30
0.0
 10
143.5012700817
 20
207.9809809453
 30
0.0
 10
144.0971247912
 20
207.52343284
 30
0.0
 10
144.4785648635
 20
206.8480180166
 30
0.0
 10
144.5626852531
 20
206.3343867895
 30
0.0
 10
144.5626852531
 20
206.0855755365
 30
0.0
  0
SPLINE
  5
266
100
AcDbEntity
  8
0
100
AcDbSpline
 62
7
  6
BYLAYER
 70
0
 71
3
 72
27
 73
23
 74
0
 42
0.0000001
 43
0.0000001
 44
0.0000000001
 40
0.0
 40
0.0
 40
0.0
 40
0.0
 40
0.1950883318
 40
0.3827308717
 40
0.5555909603
 40
0.6344007825
 40
0.7071111905
 40
0.7730124371
 40
0.8314744219
 40
0.8819205171
 40
0.9238800381
 40
0.9415436579
 40
0.9569424016
 40
0.9700392333
 40
0.9807971462
 40
0.9891872453
 40
0.9924894596
 40
0.9951940577
 40
0.9972992293
 40
0.9988031513
 40
0.999703995
 40
1.0
 40
1.0
 40
1.0
 40
1.0
 10
208.7908101577
 20
187.502957693
 30
0.0
 10
209.6053000229
 20
187.5025584104
 30
0.0
 10
211.2031909357
 20
187.5126558745
 30
0.0
 10
213.5226257025
 20
187.5380840694
 30
0.0
 10
215.3566627398
 20
187.556189226
 30
0.0
 10
216.7109234141
 20
187.5640620508
 30
0.0
 10
217.6186537811
 20
187.5661833776
 30
0.0
 10
218.4414336249
 20
187.564402747
 30
0.0
 10
219.1712434026
 20
187.5590459788
 30
0.0
 10
219.8010591452
 20
187.5504616276
 30
0.0
 10
220.2605025584
 20
187.5410352338
 30
0.0
 10
220.5736068442
 20
187.5325615637
 30
0.0
 10
220.7662195554
 20
187.5265368046
 30
0.0
 10
220.9300197521
 20
187.5206753699
 30
0.0
 10
221.0644716472
 20
187.5152558907
 30
0.0
 10
221.158240494
 20
187.5108884818
 30
0.0
 10
221.2180630539
 20
187.5080207884
 30
0.0
 10
221.2523263249
 20
187.5060186794
 30
0.0
 10
221.2775072772
 20
187.5052380157
 30
0.0
 10
221.2988878773
 20
187.5027696024
 30
0.0
 10
221.3056349919
 20
187.5046693972
 30
0.0
 10
221.3152601048
 20
187.5018488737
 30
0.0
 10
221.3146104943
 20
187.5029001802
 30
0.0
  0
SPLINE
  5
267
100
AcDbEntity
  8
0
100
AcDbSpline
 62
7
  6
BYLAYER
 70
0
 71
3
 72
9
 73
5
 74
0
 42
0.0000001
 43
0.0000001
 44
0.0000000001
 40
0.0
 40
0.0
 40
0.0
 40
0.0
 40
0.581398224
 40
1.0
 40
1.0
 40
1.0
 40
1.0
 10
201.5002626577
 20
192.1517482102
 30
0.0
 10
201.1826304818
 20
192.2586754551
 30
0.0
 10
200.641261616
 20
192.4574435446
 30
0.0
 10
200.1113687576
 20
192.6859714743
 30
0.0
 10
199.8951501298
 20
192.7931008426
 30
0.0
  0
SPLINE
  5
268
100
AcDbEntity
  8
0
100
AcDbSpline
 62
7
  6
BYLAYER
 70
0
 71
3
 72
9
 73
5
 74
0
 42
0.0000001
 43
0.0000001
 44
0.0000000001
 40
0.0
 40
0.0
 40
0.0
 40
0.0
 40
0.5984640207
 40
1.0
 40
1.0
 40
1.0
 40
1.0
 10
199.8951501298
 20
192.7931008426
 30
0.0
 10
199.8252308712
 20
192.8277435839
 30
0.0
 10
199.7096839588
 20
192.8879700968
 30
0.0
 10
199.5976760545
 20
192.9556713907
 30
0.0
 10
199.5561657283
 20
192.9875755365
 30
0.0
  0
SPLINE
  5
269
100
AcDbEntity
  8
0
100
AcDbSpline
 62
7
  6
BYLAYER
 70
0
 71
3
 72
15
 73
11
 74
0
 42
0.0000001
 43
0.0000001
 44
0.0000000001
 40
0.0
 40
0.0
 40
0.0
 40
0.0
 40
0.0173973948
 40
0.04288993
 40
0.1168761147
 40
0.2186039661
 40
0.3441320052
 40
0.4894419052
 40
0.6504013449
 40
1.0
 40
1.0
 40
1.0
 40
1.0
 10
50.0730561588
 20
192.9875755365
 30
0.0
 10
50.035114483
 20
192.9584141959
 30
0.0
 10
49.9342502834
 20
192.8964593816
 30
0.0
 10
49.6500575816
 20
192.7463448525
 30
0.0
 10
49.1432209889
 20
192.5223449558
 30
0.0
 10
48.3693545664
 20
192.2257439012
 30
0.0
 10
47.3939045847
 20
191.9097687961
 30
0.0
 10
46.2442481133
 20
191.6083611868
 30
0.0
 10
44.4723825852
 20
191.2647068232
 30
0.0
 10
43.064716115
 20
191.1530620493
 30
0.0
 10
42.1031071605
 20
191.1544735791
 30
0.0
  0
SPLINE
  5
26A
100
AcDbEntity
  8
0
100
AcDbSpline
 62
7
  6
BYLAYER
 70
0
 71
3
 72
9
 73
5
 74
0
 42
0.0000001
 43
0.0000001
 44
0.0000000001
 40
0.0
 40
0.0
 40
0.0
 40
0.0
 40
0.2716343628
 40
1.0
 40
1.0
 40
1.0
 40
1.0
 10
41.6945071858
 20
191.159705213
 30
0.0
 10
41.2485987799
 20
191.1704550738
 30
0.0
 10
39.6087086599
 20
191.2707948278
 30
0.0
 10
37.9848387947
 20
191.5917213026
 30
0.0
 10
36.8373694389
 20
191.929012797
 30
0.0
  0
SPLINE
  5
26B
100
AcDbEntity
  8
0
100
AcDbSpline
 62
7
  6
BYLAYER
 70
0
 71
3
 72
8
 73
4
 74
0
 42
0.0000001
 43
0.0000001
 44
0.0000000001
 40
0.0
 40
0.0
 40
0.0
 40
0.0
 40
1.0
 40
1.0
 40
1.0
 40
1.0
 10
128.601052014
 20
235.3855755365
 30
0.0
 10
128.8030166721
 20
230.1227208574
 30
0.0
 10
129.004781716
 20
224.8598585068
 30
0.0
 10
129.2061920549
 20
219.5969825847
 30
0.0
  0
SPLINE
  5
26C
100
AcDbEntity
  8
0
100
AcDbSpline
 62
7
  6
BYLAYER
 70
0
 71
3
 72
11
 73
7
 74
0
 42
0.0000001
 43
0.0000001
 44
0.0000000001
 40
0.0
 40
0.0
 40
0.0
 40
0.0
 40
0.2544436924
 40
0.5212264201
 40
0.774600275
 40
1.0
 40
1.0
 40
1.0
 40
1.0
 10
105.0665395363
 20
206.0855755365
 30
0.0
 10
105.0665395255
 20
206.3343869102
 30
0.0
 10
105.1506599455
 20
206.8480182926
 30
0.0
 10
105.532100124
 20
207.5234331425
 30
0.0
 10
106.1279547375
 20
207.9809810353
 30
0.0
 10
106.6015132564
 20
208.0855755375
 30
0.0
 10
106.8219235746
 20
208.0855755365
 30
0.0
  0
SPLINE
  5
26D
100
AcDbEntity
  8
0
100
AcDbSpline
 62
7
  6
BYLAYER
 70
0
 71
3
 72
13
 73
9
 74
0
 42
0.0000001
 43
0.0000001
 44
0.0000000001
 40
0.0
 40
0.0
 40
0.0
 40
0.0
 40
0.1476265981
 40
0.2945369264
 40
0.4390816183
 40
0.578042287
 40
0.8213460975
 40
1.0
 40
1.0
 40
1.0
 40
1.0
 10
120.4230298322
 20
219.5969825838
 30
0.0
 10
120.3805823295
 20
218.4896119637
 30
0.0
 10
120.0034750475
 20
216.2809584565
 30
0.0
 10
118.6306791485
 20
213.2486073211
 30
0.0
 10
116.6167303539
 20
210.683770721
 30
0.0
 10
113.5362633596
 20
208.1637280392
 30
0.0
 10
109.5840409686
 20
206.463105954
 30
0.0
 10
106.4076321776
 20
206.0855702106
 30
0.0
 10
105.0665366371
 20
206.0855755365
 30
0.0
  0
SPLINE
  5
26E
100
AcDbEntity
  8
0
100
AcDbSpline
 62
7
  6
BYLAYER
 70
0
 71
3
 72
9
 73
5
 74
0
 42
0.0000001
 43
0.0000001
 44
0.0000000001
 40
0.0
 40
0.0
 40
0.0
 40
0.0
 40
0.2271952652
 40
1.0
 40
1.0
 40
1.0
 40
1.0
 10
207.9390306506
 20
191.0472000681
 30
0.0
 10
207.9788673686
 20
190.9295626009
 30
0.0
 10
208.1463117245
 20
190.4091069666
 30
0.0
 10
208.2860907901
 20
189.8800496697
 30
0.0
 10
208.3842766284
 20
189.4691529044
 30
0.0
  0
SPLINE
  5
26F
100
AcDbEntity
  8
0
100
AcDbSpline
 62
7
  6
BYLAYER
 70
0
 71
3
 72
9
 73
5
 74
0
 42
0.0000001
 43
0.0000001
 44
0.0000000001
 40
0.0
 40
0.0
 40
0.0
 40
0.0
 40
0.5227988042
 40
1.0
 40
1.0
 40
1.0
 40
1.0
 10
208.7908106122
 20
187.5029658584
 30
0.0
 10
208.7297645525
 20
187.847515787
 30
0.0
 10
208.6003350081
 20
188.5042858304
 30
0.0
 10
208.4583256432
 20
189.1584532704
 30
0.0
 10
208.3843060331
 20
189.4691549814
 30
0.0
  0
SPLINE
  5
270
100
AcDbEntity
  8
0
100
AcDbSpline
 62
7
  6
BYLAYER
 70
0
 71
3
 72
9
 73
5
 74
0
 42
0.0000001
 43
0.0000001
 44
0.0000000001
 40
0.0
 40
0.0
 40
0.0
 40
0.0
 40
0.2592634977
 40
1.0
 40
1.0
 40
1.0
 40
1.0
 10
41.24488482
 20
189.4689856285
 30
0.0
 10
40.8883962349
 20
189.6316567419
 30
0.0
 10
39.4935503776
 20
190.2127557111
 30
0.0
 10
38.0107755031
 20
190.5981162214
 30
0.0
 10
36.8983708928
 20
190.7243596827
 30
0.0
  0
SPLINE
  5
271
100
AcDbEntity
  8
0
100
AcDbSpline
 62
7
  6
BYLAYER
 70
0
 71
3
 72
10
 73
6
 74
0
 42
0.0000001
 43
0.0000001
 44
0.0000000001
 40
0.0
 40
0.0
 40
0.0
 40
0.0
 40
0.5216562074
 40
0.7651609412
 40
1.0
 40
1.0
 40
1.0
 40
1.0
 10
36.8983708928
 20
190.7243596827
 30
0.0
 10
35.823697492
 20
190.8463211422
 30
0.0
 10
34.2001106036
 20
190.8045882014
 30
0.0
 10
32.20880616
 20
190.1956771122
 30
0.0
 10
31.3233165971
 20
189.7337196284
 30
0.0
 10
30.9146682316
 20
189.4689937556
 30
0.0
  0
SPLINE
  5
272
100
AcDbEntity
  8
0
100
AcDbSpline
 62
7
  6
BYLAYER
 70
0
 71
3
 72
18
 73
14
 74
0
 42
0.0000001
 43
0.0000001
 44
0.0000000001
 40
0.0
 40
0.0
 40
0.0
 40
0.0
 40
0.2004773582
 40
0.3949829905
 40
0.5737402179
 40
0.7277455775
 40
0.8493094132
 40
0.89685316
 40
0.9352236103
 40
0.964288269
 40
0.9844273901
 40
0.9961521637
 40
1.0
 40
1.0
 40
1.0
 40
1.0
 10
120.4230298211
 20
219.5969825831
 30
0.0
 10
120.3155060618
 20
219.6008861031
 30
0.0
 10
120.1036642081
 20
219.608703003
 30
0.0
 10
119.7959746306
 20
219.6204672586
 30
0.0
 10
119.5131939211
 20
219.631727215
 30
0.0
 10
119.2696473604
 20
219.6419866472
 30
0.0
 10
119.0962380677
 20
219.6496572828
 30
0.0
 10
118.9852798223
 20
219.6552595515
 30
0.0
 10
118.9231213747
 20
219.6581544751
 30
0.0
 10
118.8775332585
 20
219.6617134789
 30
0.0
 10
118.8420044183
 20
219.6620717112
 30
0.0
 10
118.8278227962
 20
219.6667900552
 30
0.0
 10
118.8145388838
 20
219.6647177303
 30
0.0
 10
118.8146109436
 20
219.6667815756
 30
0.0
  0
SPLINE
  5
273
100
AcDbEntity
  8
0
100
AcDbSpline
 62
7
  6
BYLAYER
 70
0
 71
3
 72
11
 73
7
 74
0
 42
0.0000001
 43
0.0000001
 44
0.0000000001
 40
0.0
 40
0.0
 40
0.0
 40
0.0
 40
0.2819310741
 40
0.5422941783
 40
0.7800246558
 40
1.0
 40
1.0
 40
1.0
 40
1.0
 10
208.3843165809
 20
189.4691556704
 30
0.0
 10
209.3036556386
 20
189.8886577581
 30
0.0
 10
211.147247956
 20
190.5473593727
 30
0.0
 10
213.9448853992
 20
190.9123917433
 30
0.0
 10
216.5296669968
 20
190.5814536928
 30
0.0
 10
218.0525574681
 20
189.897828076
 30
0.0
 10
218.7143037095
 20
189.4691556705
 30
0.0
  0
SPLINE
  5
274
100
AcDbEntity
  8
0
100
AcDbSpline
 62
7
  6
BYLAYER
 70
0
 71
3
 72
27
 73
23
 74
0
 42
0.0000001
 43
0.0000001
 44
0.0000000001
 40
0.0
 40
0.0
 40
0.0
 40
0.0
 40
0.1950469855
 40
0.3826282013
 40
0.5555335525
 40
0.6343699168
 40
0.7070946665
 40
0.7730065863
 40
0.8314712691
 40
0.8819268537
 40
0.9238887695
 40
0.9415557666
 40
0.9569537599
 40
0.9700470157
 40
0.9808022294
 40
0.9891937027
 40
0.9924963838
 40
0.9952002279
 40
0.9973036
 40
0.9988054093
 40
0.9997045581
 40
1.0
 40
1.0
 40
1.0
 40
1.0
 10
40.838429954
 20
187.5029394559
 30
0.0
 10
40.0241112171
 20
187.5025419462
 30
0.0
 10
38.4266462994
 20
187.5126790147
 30
0.0
 10
36.1074464514
 20
187.5380531263
 30
0.0
 10
34.2733627973
 20
187.5561985288
 30
0.0
 10
32.9187401477
 20
187.5641186642
 30
0.0
 10
32.0107928587
 20
187.5662056563
 30
0.0
 10
31.1878956427
 20
187.5644662072
 30
0.0
 10
30.4579894626
 20
187.5590728647
 30
0.0
 10
29.828110871
 20
187.5505397559
 30
0.0
 10
29.3686037405
 20
187.541075623
 30
0.0
 10
29.0554770352
 20
187.5326341783
 30
0.0
 10
28.8628681177
 20
187.5266037795
 30
0.0
 10
28.6990972615
 20
187.5207305568
 30
0.0
 10
28.5646658992
 20
187.5153141394
 30
0.0
 10
28.4708978218
 20
187.5109868735
 30
0.0
 10
28.4110712583
 20
187.5081314695
 30
0.0
 10
28.3768148495
 20
187.5061168859
 30
0.0
 10
28.3516601751
 20
187.5053097832
 30
0.0
 10
28.3302947009
 20
187.5028058616
 30
0.0
 10
28.3235827694
 20
187.5046791871
 30
0.0
 10
28.3139532334
 20
187.5018384186
 30
0.0
 10
28.3146113573
 20
187.5028816409
 30
0.0
  0
SPLINE
  5
275
100
AcDbEntity
  8
0
100
AcDbSpline
 62
7
  6
BYLAYER
 70
0
 71
3
 72
8
 73
4
 74
0
 42
0.0000001
 43
0.0000001
 44
0.0000000001
 40
0.0
 40
0.0
 40
0.0
 40
0.0
 40
1.0
 40
1.0
 40
1.0
 40
1.0
 10
120.4230298322
 20
219.5969825838
 30
0.0
 10
120.6244401707
 20
224.8598585063
 30
0.0
 10
120.8262096747
 20
230.122720686
 30
0.0
 10
121.0281698731
 20
235.3855755365
 30
0.0
  0
SPLINE
  5
276
100
AcDbEntity
  8
0
100
AcDbSpline
 62
7
  6
BYLAYER
 70
0
 71
3
 72
9
 73
5
 74
0
 42
0.0000001
 43
0.0000001
 44
0.0000000001
 40
0.0
 40
0.0
 40
0.0
 40
0.0
 40
0.477193108
 40
1.0
 40
1.0
 40
1.0
 40
1.0
 10
41.2448865517
 20
189.4690738485
 30
0.0
 10
41.171002512
 20
189.1583605954
 30
0.0
 10
41.0290897909
 20
188.5042090676
 30
0.0
 10
40.8994395619
 20
187.8475114235
 30
0.0
 10
40.838430477
 20
187.5029658584
 30
0.0
  0
SPLINE
  5
277
100
AcDbEntity
  8
0
100
AcDbSpline
 62
7
  6
BYLAYER
 70
0
 71
3
 72
10
 73
6
 74
0
 42
0.0000001
 43
0.0000001
 44
0.0000000001
 40
0.0
 40
0.0
 40
0.0
 40
0.0
 40
0.5520782675
 40
0.793980587
 40
1.0
 40
1.0
 40
1.0
 40
1.0
 10
128.6001831402
 20
235.4728238434
 30
0.0
 10
128.5940275785
 20
235.8344731344
 30
0.0
 10
128.551521063
 20
236.3562139799
 30
0.0
 10
128.4054230484
 20
236.9956201488
 30
0.0
 10
128.3079064424
 20
237.2736953512
 30
0.0
 10
128.251711799
 20
237.3964178226
 30
0.0
  0
SPLINE
  5
278
100
AcDbEntity
  8
0
100
AcDbSpline
 62
7
  6
BYLAYER
 70
0
 71
3
 72
11
 73
7
 74
0
 42
0.0000001
 43
0.0000001
 44
0.0000000001
 40
0.0
 40
0.0
 40
0.0
 40
0.0
 40
0.3310133415
 40
0.6023702023
 40
0.8189326275
 40
1.0
 40
1.0
 40
1.0
 40
1.0
 10
128.251711799
 20
237.3964178226
 30
0.0
 10
128.2185365161
 20
237.4688687263
 30
0.0
 10
128.1506875915
 20
237.5976662999
 30
0.0
 10
128.0309040009
 20
237.7556334295
 30
0.0
 10
127.9039449123
 20
237.858759355
 30
0.0
 10
127.8077502107
 20
237.8855755365
 30
0.0
 10
127.7641616601
 20
237.8855755365
 30
0.0
  0
SPLINE
  5
279
100
AcDbEntity
  8
0
100
AcDbSpline
 62
7
  6
BYLAYER
 70
0
 71
3
 72
9
 73
5
 74
0
 42
0.0000001
 43
0.0000001
 44
0.0000000001
 40
0.0
 40
0.0
 40
0.0
 40
0.0
 40
0.2228362141
 40
1.0
 40
1.0
 40
1.0
 40
1.0
 10
202.2073694388
 20
191.929012797
 30
0.0
 10
202.5486928878
 20
191.8286828879
 30
0.0
 10
204.0919705298
 20
191.4196852352
 30
0.0
 10
205.6885701234
 20
191.2028351442
 30
0.0
 10
206.928709494
 20
191.1635422678
 30
0.0
  0
SPLINE
  5
27A
100
AcDbEntity
  8
0
100
AcDbSpline
 62
7
  6
BYLAYER
 70
0
 71
3
 72
9
 73
5
 74
0
 42
0.0000001
 43
0.0000001
 44
0.0000000001
 40
0.0
 40
0.0
 40
0.0
 40
0.0
 40
0.2765300711
 40
1.0
 40
1.0
 40
1.0
 40
1.0
 10
208.6013190163
 20
191.1881198646
 30
0.0
 10
209.0331201981
 20
191.2144584477
 30
0.0
 10
210.5909699438
 20
191.3657853998
 30
0.0
 10
212.1278328013
 20
191.712379439
 30
0.0
 10
213.206244218
 20
192.055879489
 30
0.0
  0
ELLIPSE
  5
27B
100
AcDbEntity
  8
0
100
AcDbEllipse
 62
7
  6
BYLAYER
 10
209.3138582432
 20
170.6021801023
 30
0.0
 11
22.4796791773
 21
-0.0
 31
0.0
 40
1.0
 41
1.7247813245
 42
1.8924432577
  0
ELLIPSE
  5
27C
100
AcDbEntity
  8
0
100
AcDbEllipse
 62
7
  6
BYLAYER
 10
209.3138582432
 20
170.6021801023
 30
0.0
 11
0.0
 21
22.4796791773
 31
0.0
 40
1.0
 41
0.0916199943
 42
0.1539849977
  0
ELLIPSE
  5
27D
100
AcDbEntity
  8
0
100
AcDbEllipse
 62
7
  6
BYLAYER
 10
43.9438582432
 20
170.6021801023
 30
0.0
 11
22.4796791773
 21
-0.0
 31
0.0
 40
1.0
 41
1.6624163211
 42
1.8924432577
  0
ELLIPSE
  5
27E
100
AcDbEntity
  8
0
100
AcDbEllipse
 62
7
  6
BYLAYER
 10
207.8996446809
 20
170.6021801023
 30
0.0
 11
22.4796791773
 21
-0.0
 31
0.0
 40
1.0
 41
1.6624163211
 42
1.8594627522
  0
ENDSEC
  0
SECTION
  2
OBJECTS
  0
DICTIONARY
  5
C
100
AcDbDictionary
280
0
281
1
  3
ACAD_GROUP
350
D
  3
ACAD_MLINESTYLE
350
17
  3
ACAD_LAYOUT
350
1A
  3
ACAD_PLOTSETTINGS
350
19
  3
ACAD_PLOTSTYLENAME
350
E
  0
DICTIONARY
  5
D
102
{ACAD_REACTORS
330
C
102
}
100
AcDbDictionary
280
0
281
1
  0
ACDBDICTIONARYWDFLT
  5
E
102
{ACAD_REACTORS
330
C
102
}
100
AcDbDictionary
281
1
  3
Normal
350
F
100
AcDbDictionaryWithDefault
340
F
  0
DICTIONARY
  5
17
102
{ACAD_REACTORS
330
C
102
}
100
AcDbDictionary
280
0
281
1
  3
Standard
350
18
  0
DICTIONARY
  5
19
102
{ACAD_REACTORS
330
C
102
}
100
AcDbDictionary
281
1
  0
DICTIONARY
  5
1A
102
{ACAD_REACTORS
330
C
102
}
100
AcDbDictionary
281
1
  3
Model
350
27F
  3
Layout1
350
280
  0
ACDBPLACEHOLDER
  5
F
102
{ACAD_REACTORS
330
E
102
}
  0
MLINESTYLE
  5
18
102
{ACAD_REACTORS
330
17
102
}
100
AcDbMlineStyle
  2
STANDARD
 70
0
  3

 62
256
 51
90.0
 52
90.0
 71
2
 49
0.5
 62
256
  6
BYLAYER
 49
-0.5
 62
256
  6
BYLAYER
  0
LAYOUT
  5
27F
102
{ACAD_REACTORS
330
1A
102
}
100
AcDbPlotSettings
  1

  2
none_device
  4

  6

 40
0.0
 41
0.0
 42
0.0
 43
0.0
 44
210.0
 45
297.0
 46
0.0
 47
0.0
 48
0.0
 49
0.0
140
0.0
141
0.0
142
1.0
143
1.0
 70
1024
 72
1
 73
0
 74
0
  7

 75
0
147
1.0
148
0.0
149
0.0
100
AcDbLayout
  1
Model
 70
0
 71
0
 10
0.0
 20
0.0
 11
210.0
 21
297.0
 12
0.0
 22
0.0
 32
0.0
 14
0.0
 24
0.0
 34
0.0
 15
0.0
 25
0.0
 35
0.0
146
0.0
 13
0.0
 23
0.0
 33
0.0
 16
1.0
 26
0.0
 36
0.0
 17
0.0
 27
1.0
 37
0.0
 76
0
330
210
345
0
346
0
  0
LAYOUT
  5
280
102
{ACAD_REACTORS
330
1A
102
}
100
AcDbPlotSettings
  1

  2
none_device
  4

  6

 40
0.0
 41
0.0
 42
0.0
 43
0.0
 44
210.0
 45
297.0
 46
0.0
 47
0.0
 48
0.0
 49
0.0
140
0.0
141
0.0
142
1.0
143
1.0
 70
0
 72
1
 73
0
 74
0
  7

 75
0
147
1.0
148
0.0
149
0.0
100
AcDbLayout
  1
Layout1
 70
0
 71
1
 10
0.0
 20
0.0
 11
210.0
 21
297.0
 12
0.0
 22
0.0
 32
0.0
 14
0.0
 24
0.0
 34
0.0
 15
0.0
 25
0.0
 35
0.0
146
0.0
 13
0.0
 23
0.0
 33
0.0
 16
1.0
 26
0.0
 36
0.0
 17
0.0
 27
1.0
 37
0.0
 76
0
330
211
345
0
346
0
  0
ENDSEC
  0
EOF
