999
DXF file: C:\Users\sesa63760\Dev\_Creo\CAD\MCADID0001841_3D-CAD\drw0001_7.dxf
999
Pro/ENGINEER 2019471 by Parametric Technology Corporation
  0
SECTION
  2
HEADER
  9
$ACADVER
  1
AC1024
  9
$DWGCODEPAGE
  3
ANSI_1252
  9
$EXTMAX
 10
106.4341003028
 20
150.5282275711
 30
0.0
  9
$EXTMIN
 10
0.0
 20
0.0
 30
0.0
  9
$LIMMIN
 10
0.0
 20
0.0
  9
$LIMMAX
 10
106.4341003028
 20
150.5282275711
  9
$VIEWCTR
 10
53.2170501514
 20
75.2641137856
  9
$VIEWSIZE
 40
150.5282275711
  9
$CLAYER
  8
0
  9
$LTSCALE
 40
9.8122103898
  9
$CELTYPE
  6
BYLAYER
  9
$DIMSCALE
 40
1.0
  9
$DIMASZ
 40
1.2670726227
  9
$DIMEXO
 40
1.0
  9
$DIMDLI
 40
6.7793453602
  9
$DIMEXE
 40
1.0
  9
$DIMCEN
 40
1.6056344274
  9
$DIMLFAC
 40
1.0
  9
$DIMBLK
  1
_FILLED
  9
$DIMALT
 70
0
  9
$DIMALTF
 40
0.0393700787
  9
$DIMTXT
 40
1.7739016717
  9
$DIMTOL
 70
1
  9
$DIMLIM
 70
0
  9
$DIMTFAC
 40
1.0
  9
$DIMTP
 40
0.01
  9
$DIMTM
 40
0.01
  9
$DIMGAP
 40
0.625
  9
$DIMDSEP
 70
46
  9
$AUNITS
 70
0
  9
$PDMODE
 70
3
  9
$PDSIZE
 40
0.3125
  9
$HANDSEED
  5
3D7
  9
$TILEMODE
 70
1
  9
$MEASUREMENT
 70
1
  9
$INSUNITS
 70
4
  0
ENDSEC
  0
SECTION
  2
CLASSES
  0
CLASS
  1
ACDBDICTIONARYWDFLT
  2
AcDbDictionaryWithDefault
  3
AutoCAD 2000
 90
0
 91
1
280
0
281
0
  0
CLASS
  1
ACDBPLACEHOLDER
  2
AcDbPlaceHolder
  3
AutoCAD 2000
 90
0
 91
1
280
0
281
0
  0
CLASS
  1
LAYOUT
  2
AcDbLayout
  3
AutoCAD 2000
 90
0
 91
0
280
0
281
0
  0
ENDSEC
  0
SECTION
  2
TABLES
  0
TABLE
  2
VPORT
  5
8
100
AcDbSymbolTable
 70
2
  0
VPORT
  5
1F4
100
AcDbSymbolTableRecord
100
AcDbViewportTableRecord
  2
*ACTIVE
 70
0
 10
0.0
 20
0.0
 11
1.0
 21
1.0
 12
53.2170501514
 22
75.2641137856
 13
0.0
 23
0.0
 14
1.0
 24
1.0
 15
0.0
 25
0.0
 16
0.0
 26
0.0
 36
1.0
 17
0.0
 27
0.0
 37
0.0
 40
150.5282275711
 41
0.7070707071
 42
50.0
 43
0.0
 44
0.0
 50
0.0
 51
0.0
 71
0
 72
100
 73
1
 74
1
 75
0
 76
0
 77
0
 78
0
  0
ENDTAB
  0
TABLE
  2
LTYPE
  5
5
100
AcDbSymbolTable
 70
6
  0
LTYPE
  5
14
100
AcDbSymbolTableRecord
100
AcDbLinetypeTableRecord
  2
BYBLOCK
 70
0
  3

 72
65
 73
0
 40
0.0
  0
LTYPE
  5
15
100
AcDbSymbolTableRecord
100
AcDbLinetypeTableRecord
  2
BYLAYER
 70
0
  3

 72
65
 73
0
 40
0.0
  0
LTYPE
  5
16
100
AcDbSymbolTableRecord
100
AcDbLinetypeTableRecord
  2
CONTINUOUS
 70
64
  3
Solid line
 72
65
 73
0
 40
0.0
  0
LTYPE
  5
1F5
100
AcDbSymbolTableRecord
100
AcDbLinetypeTableRecord
  2
CENTER
 70
64
  3
____ _ ____ _ ____ _ ____ _ ____ _ ____ _ ____
 72
65
 73
4
 40
0.6
 49
0.375
 74
0
 49
-0.075
 74
0
 49
0.075
 74
0
 49
-0.075
 74
0
  0
LTYPE
  5
1F6
100
AcDbSymbolTableRecord
100
AcDbLinetypeTableRecord
  2
HIDDEN
 70
64
  3
- - - - - - - - - - - - - - - - - - - -
 72
65
 73
2
 40
0.2
 49
0.1
 74
0
 49
-0.1
 74
0
  0
LTYPE
  5
1F7
100
AcDbSymbolTableRecord
100
AcDbLinetypeTableRecord
  2
PHANTOM
 70
64
  3
_____ _ _ _____ _ _ _____ _ _ _____
 72
65
 73
6
 40
0.8
 49
0.45
 74
0
 49
-0.05
 74
0
 49
0.1
 74
0
 49
-0.05
 74
0
 49
0.1
 74
0
 49
-0.05
 74
0
  0
LTYPE
  5
1F8
100
AcDbSymbolTableRecord
100
AcDbLinetypeTableRecord
  2
DOT
 70
64
  3
. . . . . . . . . . . . . . . . . . . .
 72
65
 73
2
 40
0.2
 49
0.1
 74
0
 49
-0.1
 74
0
  0
LTYPE
  5
1F9
100
AcDbSymbolTableRecord
100
AcDbLinetypeTableRecord
  2
DASHED
 70
64
  3
- - - - - - - - - - - - - - - - - - - -
 72
65
 73
2
 40
0.2
 49
0.1
 74
0
 49
-0.1
 74
0
  0
ENDTAB
  0
TABLE
  2
LAYER
  5
2
100
AcDbSymbolTable
 70
36
  0
LAYER
  5
10
100
AcDbSymbolTableRecord
100
AcDbLayerTableRecord
  2
0
 70
0
 62
7
  6
CONTINUOUS
370
-3
390
F
  0
LAYER
  5
1FA
100
AcDbSymbolTableRecord
100
AcDbLayerTableRecord
  2
DEFAULT_1
 70
0
 62
7
  6
CENTER
370
-3
390
F
  0
LAYER
  5
1FB
100
AcDbSymbolTableRecord
100
AcDbLayerTableRecord
  2
DEFAULT_2
 70
0
 62
8
  6
HIDDEN
370
-3
390
F
  0
LAYER
  5
1FC
100
AcDbSymbolTableRecord
100
AcDbLayerTableRecord
  2
DEFAULT_3
 70
0
 62
7
  6
PHANTOM
370
-3
390
F
  0
LAYER
  5
1FD
100
AcDbSymbolTableRecord
100
AcDbLayerTableRecord
  2
00_COMPONENTS
 70
0
 62
7
  6
CONTINUOUS
370
-3
390
F
  0
LAYER
  5
1FE
100
AcDbSymbolTableRecord
100
AcDbLayerTableRecord
  2
01_1_DEFAULT_DATUMS
 70
0
 62
7
  6
CONTINUOUS
370
-3
390
F
  0
LAYER
  5
1FF
100
AcDbSymbolTableRecord
100
AcDbLayerTableRecord
  2
01_PLANES
 70
0
 62
7
  6
CONTINUOUS
370
-3
390
F
  0
LAYER
  5
200
100
AcDbSymbolTableRecord
100
AcDbLayerTableRecord
  2
02_COORD_SYS
 70
0
 62
7
  6
CONTINUOUS
370
-3
390
F
  0
LAYER
  5
201
100
AcDbSymbolTableRecord
100
AcDbLayerTableRecord
  2
03_AXES
 70
0
 62
7
  6
CONTINUOUS
370
-3
390
F
  0
LAYER
  5
202
100
AcDbSymbolTableRecord
100
AcDbLayerTableRecord
  2
04_POINTS
 70
0
 62
7
  6
CONTINUOUS
370
-3
390
F
  0
LAYER
  5
203
100
AcDbSymbolTableRecord
100
AcDbLayerTableRecord
  2
05_CURVES
 70
0
 62
7
  6
CONTINUOUS
370
-3
390
F
  0
LAYER
  5
204
100
AcDbSymbolTableRecord
100
AcDbLayerTableRecord
  2
06_SURFS
 70
0
 62
7
  6
CONTINUOUS
370
-3
390
F
  0
LAYER
  5
205
100
AcDbSymbolTableRecord
100
AcDbLayerTableRecord
  2
07_COSMETICS
 70
0
 62
7
  6
CONTINUOUS
370
-3
390
F
  0
LAYER
  5
206
100
AcDbSymbolTableRecord
100
AcDbLayerTableRecord
  2
10_NOTES
 70
0
 62
7
  6
CONTINUOUS
370
-3
390
F
  0
LAYER
  5
207
100
AcDbSymbolTableRecord
100
AcDbLayerTableRecord
  2
11_NOTES_PUB
 70
0
 62
7
  6
CONTINUOUS
370
-3
390
F
  0
LAYER
  5
208
100
AcDbSymbolTableRecord
100
AcDbLayerTableRecord
  2
13_REF_GTOL
 70
0
 62
7
  6
CONTINUOUS
370
-3
390
F
  0
LAYER
  5
209
100
AcDbSymbolTableRecord
100
AcDbLayerTableRecord
  2
16_MISC
 70
0
 62
7
  6
CONTINUOUS
370
-3
390
F
  0
LAYER
  5
20A
100
AcDbSymbolTableRecord
100
AcDbLayerTableRecord
  2
17_NO_PRINT
 70
0
 62
7
  6
CONTINUOUS
370
-3
390
F
  0
LAYER
  5
20B
100
AcDbSymbolTableRecord
100
AcDbLayerTableRecord
  2
18_DATUM_CAMS_JOINTS
 70
0
 62
7
  6
CONTINUOUS
370
-3
390
F
  0
LAYER
  5
20C
100
AcDbSymbolTableRecord
100
AcDbLayerTableRecord
  2
19_DATUM_FUNCTIONAL
 70
0
 62
7
  6
CONTINUOUS
370
-3
390
F
  0
LAYER
  5
20D
100
AcDbSymbolTableRecord
100
AcDbLayerTableRecord
  2
20_DATUM_KINEMATIC_SCHEME
 70
0
 62
7
  6
CONTINUOUS
370
-3
390
F
  0
ENDTAB
  0
TABLE
  2
STYLE
  5
3
100
AcDbSymbolTable
 70
1
  0
STYLE
  5
11
100
AcDbSymbolTableRecord
100
AcDbTextStyleTableRecord
  2
STANDARD
 70
0
 40
0.0
 41
0.8
 50
0.0
 71
0
 42
0.2
  3
txt
  4

  0
STYLE
  5
20E
100
AcDbSymbolTableRecord
100
AcDbTextStyleTableRecord
  2
TEXTSTYLE_1
 70
0
 40
0.0
 41
0.8
 50
0.0
 71
0
 42
0.2
  3
gdt
  4

  0
ENDTAB
  0
TABLE
  2
VIEW
  5
6
100
AcDbSymbolTable
 70
0
  0
ENDTAB
  0
TABLE
  2
UCS
  5
7
100
AcDbSymbolTable
 70
0
  0
ENDTAB
  0
TABLE
  2
APPID
  5
9
100
AcDbSymbolTable
 70
1
  0
APPID
  5
20F
100
AcDbSymbolTableRecord
100
AcDbRegAppTableRecord
  2
ACAD
 70
0
  0
ENDTAB
  0
TABLE
  2
BLOCK_RECORD
  5
1
100
AcDbSymbolTable
 70
0
  0
BLOCK_RECORD
  5
210
100
AcDbSymbolTableRecord
100
AcDbBlockTableRecord
  2
*Model_Space
  0
BLOCK_RECORD
  5
211
100
AcDbSymbolTableRecord
100
AcDbBlockTableRecord
  2
*Paper_Space
  0
BLOCK_RECORD
  5
212
100
AcDbSymbolTableRecord
100
AcDbBlockTableRecord
  2
_FILLED
  0
ENDTAB
  0
TABLE
  2
DIMSTYLE
  5
A
100
AcDbSymbolTable
 70
1
100
AcDbDimStyleTable
 71
0
  0
DIMSTYLE
105
213
100
AcDbSymbolTableRecord
100
AcDbDimStyleTableRecord
  2
STANDARD
 70
0
  3

  4

 40
1.0
 41
1.2670726227
 42
1.0
 43
0.38
 44
1.0
 45
0.0
 46
0.0
 47
0.01
 48
0.01
140
1.7739016717
141
0.09
142
0.0
143
25.4
144
1.0
145
0.0
146
1.0
147
0.625
 71
1
 72
0
 73
0
 74
0
 75
0
 76
0
 77
1
 78
8
 79
2
170
0
171
1
172
0
173
0
174
0
175
0
176
0
177
0
178
0
270
2
179
2
271
2
272
2
273
2
274
2
275
0
280
0
281
0
282
0
283
1
284
8
285
0
286
0
287
3
288
0
340
11
278
46
341
212
342
212
343
212
344
212
  0
ENDTAB
  0
ENDSEC
  0
SECTION
  2
BLOCKS
  0
BLOCK
  5
20
100
AcDbEntity
  8
0
100
AcDbBlockBegin
  2
*Model_Space
 70
0
 10
0.0
 20
0.0
 30
0.0
  3
*Model_Space
  1

  0
ENDBLK
  5
21
100
AcDbEntity
  8
0
100
AcDbBlockEnd
  0
BLOCK
  5
1C
100
AcDbEntity
  8
0
100
AcDbBlockBegin
  2
*Paper_Space
 70
0
 10
0.0
 20
0.0
 30
0.0
  3
*Paper_Space
  1

  0
ENDBLK
  5
1D
100
AcDbEntity
  8
0
100
AcDbBlockEnd
  0
BLOCK
  5
214
100
AcDbEntity
  8
0
100
AcDbBlockBegin
  2
_FILLED
 70
64
 10
0.0
 20
0.0
  3
_FILLED
  1

  0
SOLID
  5
215
100
AcDbEntity
  8
0
  6
BYBLOCK
 62
0
100
AcDbTrace
 10
0.0
 20
0.0
 11
-1.0
 21
0.25
 12
-1.0
 22
-0.25
 13
-1.0
 23
-0.25
  0
ENDBLK
  5
216
100
AcDbEntity
  8
0
  6
BYBLOCK
 62
0
100
AcDbBlockEnd
  0
ENDSEC
  0
SECTION
  2
ENTITIES
  0
LINE
  5
217
100
AcDbEntity
  8
0
100
AcDbLine
 62
7
  6
CONTINUOUS
 10
11.301295228
 20
83.1532194669
 11
11.301295228
 21
68.0532194669
  0
LINE
  5
218
100
AcDbEntity
  8
0
100
AcDbLine
 62
7
  6
CONTINUOUS
 10
11.5691398734
 20
83.1532194669
 11
11.5691398734
 21
68.0532194669
  0
LINE
  5
219
100
AcDbEntity
  8
0
100
AcDbLine
 62
7
  6
CONTINUOUS
 10
11.7652560085
 20
67.8532194669
 11
11.7652560085
 21
83.3532194669
  0
LINE
  5
21A
100
AcDbEntity
  8
0
100
AcDbLine
 62
7
  6
CONTINUOUS
 10
20.301295228
 20
67.8532194669
 11
20.301295228
 21
83.3532194669
  0
LINE
  5
21B
100
AcDbEntity
  8
0
100
AcDbLine
 62
7
  6
CONTINUOUS
 10
20.501295228
 20
67.7826039387
 11
20.501295228
 21
83.3826039387
  0
LINE
  5
21C
100
AcDbEntity
  8
0
100
AcDbLine
 62
7
  6
CONTINUOUS
 10
23.501295228
 20
80.9326039387
 11
23.501295228
 21
79.8326039387
  0
LINE
  5
21D
100
AcDbEntity
  8
0
100
AcDbLine
 62
7
  6
CONTINUOUS
 10
23.501295228
 20
78.8326039387
 11
23.501295228
 21
77.7326039387
  0
LINE
  5
21E
100
AcDbEntity
  8
0
100
AcDbLine
 62
7
  6
CONTINUOUS
 10
23.501295228
 20
73.4326039387
 11
23.501295228
 21
72.3326039387
  0
LINE
  5
21F
100
AcDbEntity
  8
0
100
AcDbLine
 62
7
  6
CONTINUOUS
 10
23.501295228
 20
71.3326039387
 11
23.501295228
 21
70.2326039387
  0
LINE
  5
220
100
AcDbEntity
  8
0
100
AcDbLine
 62
7
  6
CONTINUOUS
 10
24.301295228
 20
70.2326039387
 11
24.301295228
 21
71.3326039387
  0
LINE
  5
221
100
AcDbEntity
  8
0
100
AcDbLine
 62
7
  6
CONTINUOUS
 10
24.301295228
 20
72.3326039387
 11
24.301295228
 21
73.4326039387
  0
LINE
  5
222
100
AcDbEntity
  8
0
100
AcDbLine
 62
7
  6
CONTINUOUS
 10
24.301295228
 20
77.7326039387
 11
24.301295228
 21
78.8326039387
  0
LINE
  5
223
100
AcDbEntity
  8
0
100
AcDbLine
 62
7
  6
CONTINUOUS
 10
24.301295228
 20
79.8326039387
 11
24.301295228
 21
80.9326039387
  0
LINE
  5
224
100
AcDbEntity
  8
0
100
AcDbLine
 62
7
  6
CONTINUOUS
 10
26.4012871074
 20
71.8326039387
 11
26.3690877638
 21
72.2326039387
  0
LINE
  5
225
100
AcDbEntity
  8
0
100
AcDbLine
 62
7
  6
CONTINUOUS
 10
26.4012871074
 20
79.3326039387
 11
26.3690877638
 21
79.7326039387
  0
LINE
  5
226
100
AcDbEntity
  8
0
100
AcDbLine
 62
7
  6
CONTINUOUS
 10
26.3690877638
 20
78.9326039387
 11
26.4012871074
 21
79.3326039387
  0
LINE
  5
227
100
AcDbEntity
  8
0
100
AcDbLine
 62
7
  6
CONTINUOUS
 10
26.3690877638
 20
71.4326039387
 11
26.4012871074
 21
71.8326039387
  0
LINE
  5
228
100
AcDbEntity
  8
0
100
AcDbLine
 62
7
  6
CONTINUOUS
 10
29.501295228
 20
81.3826039387
 11
29.501295228
 21
69.7826039387
  0
LINE
  5
229
100
AcDbEntity
  8
0
100
AcDbLine
 62
7
  6
CONTINUOUS
 10
30.001295228
 20
69.2826039387
 11
30.001295228
 21
81.8826039387
  0
LINE
  5
22A
100
AcDbEntity
  8
0
100
AcDbLine
 62
7
  6
CONTINUOUS
 10
37.601295228
 20
81.8826039387
 11
37.601295228
 21
69.2826039387
  0
LINE
  5
22B
100
AcDbEntity
  8
0
100
AcDbLine
 62
7
  6
CONTINUOUS
 10
38.101295228
 20
69.7826039387
 11
38.101295228
 21
81.3826039387
  0
LINE
  5
22C
100
AcDbEntity
  8
0
100
AcDbLine
 62
7
  6
CONTINUOUS
 10
38.801295228
 20
83.1826039387
 11
38.801295228
 21
76.7326039387
  0
LINE
  5
22D
100
AcDbEntity
  8
0
100
AcDbLine
 62
7
  6
CONTINUOUS
 10
38.801295228
 20
74.4326039387
 11
38.801295228
 21
67.9826039387
  0
LINE
  5
22E
100
AcDbEntity
  8
0
100
AcDbLine
 62
7
  6
CONTINUOUS
 10
39.001295228
 20
67.7826039387
 11
39.001295228
 21
74.4326039387
  0
LINE
  5
22F
100
AcDbEntity
  8
0
100
AcDbLine
 62
7
  6
CONTINUOUS
 10
39.001295228
 20
76.7326039387
 11
39.001295228
 21
83.3826039387
  0
LINE
  5
230
100
AcDbEntity
  8
0
100
AcDbLine
 62
7
  6
CONTINUOUS
 10
39.6290577438
 20
81.7826039387
 11
39.8268450144
 21
81.9803912093
  0
LINE
  5
231
100
AcDbEntity
  8
0
100
AcDbLine
 62
7
  6
CONTINUOUS
 10
39.8268450144
 20
69.1848166682
 11
39.6290577438
 21
69.3826039387
  0
LINE
  5
232
100
AcDbEntity
  8
0
100
AcDbLine
 62
7
  6
CONTINUOUS
 10
39.601295228
 20
74.4326039387
 11
39.601295228
 21
74.5826039387
  0
LINE
  5
233
100
AcDbEntity
  8
0
100
AcDbLine
 62
7
  6
CONTINUOUS
 10
39.601295228
 20
76.5826039387
 11
39.601295228
 21
76.7326039387
  0
LINE
  5
234
100
AcDbEntity
  8
0
100
AcDbLine
 62
7
  6
CONTINUOUS
 10
39.6290577438
 20
83.3826039387
 11
39.6290577438
 21
81.7826039387
  0
LINE
  5
235
100
AcDbEntity
  8
0
100
AcDbLine
 62
7
  6
CONTINUOUS
 10
39.6290577438
 20
69.3826039387
 11
39.6290577438
 21
67.7826039387
  0
LINE
  5
236
100
AcDbEntity
  8
0
100
AcDbLine
 62
7
  6
CONTINUOUS
 10
39.801295228
 20
81.2826039387
 11
39.801295228
 21
69.7826039387
  0
LINE
  5
237
100
AcDbEntity
  8
0
100
AcDbLine
 62
7
  6
CONTINUOUS
 10
39.8268450144
 20
67.9826039387
 11
39.8268450144
 21
69.1848166682
  0
LINE
  5
238
100
AcDbEntity
  8
0
100
AcDbLine
 62
7
  6
CONTINUOUS
 10
39.8268450144
 20
81.9803912093
 11
39.8268450144
 21
83.1826039387
  0
LINE
  5
239
100
AcDbEntity
  8
0
100
AcDbLine
 62
7
  6
CONTINUOUS
 10
40.101295228
 20
69.1826039387
 11
40.101295228
 21
67.9826039387
  0
LINE
  5
23A
100
AcDbEntity
  8
0
100
AcDbLine
 62
7
  6
CONTINUOUS
 10
40.101295228
 20
81.9826039387
 11
40.101295228
 21
83.1826039387
  0
LINE
  5
23B
100
AcDbEntity
  8
0
100
AcDbLine
 62
7
  6
CONTINUOUS
 10
40.301295228
 20
69.2826039387
 11
40.301295228
 21
81.7826039387
  0
LINE
  5
23C
100
AcDbEntity
  8
0
100
AcDbLine
 62
7
  6
CONTINUOUS
 10
40.6100233615
 20
67.7826039387
 11
40.6100233615
 21
83.4826039387
  0
LINE
  5
23D
100
AcDbEntity
  8
0
100
AcDbLine
 62
7
  6
CONTINUOUS
 10
41.8051507819
 20
83.4826039387
 11
41.8051507819
 21
67.7826039387
  0
LINE
  5
23E
100
AcDbEntity
  8
0
100
AcDbLine
 62
7
  6
CONTINUOUS
 10
41.9978169349
 20
83.4826039387
 11
41.9978169349
 21
67.7826039387
  0
LINE
  5
23F
100
AcDbEntity
  8
0
100
AcDbLine
 62
7
  6
CONTINUOUS
 10
42.1886259303
 20
83.4826039387
 11
42.1886259303
 21
67.7826039387
  0
LINE
  5
240
100
AcDbEntity
  8
0
100
AcDbLine
 62
7
  6
CONTINUOUS
 10
42.3794349257
 20
83.4826039387
 11
42.3794349257
 21
67.7826039387
  0
LINE
  5
241
100
AcDbEntity
  8
0
100
AcDbLine
 62
7
  6
CONTINUOUS
 10
42.570243921
 20
83.4826039387
 11
42.570243921
 21
67.7826039387
  0
LINE
  5
242
100
AcDbEntity
  8
0
100
AcDbLine
 62
7
  6
CONTINUOUS
 10
42.7610529164
 20
83.4826039387
 11
42.7610529164
 21
67.7826039387
  0
LINE
  5
243
100
AcDbEntity
  8
0
100
AcDbLine
 62
7
  6
CONTINUOUS
 10
42.9518619118
 20
83.4826039387
 11
42.9518619118
 21
67.7826039387
  0
LINE
  5
244
100
AcDbEntity
  8
0
100
AcDbLine
 62
7
  6
CONTINUOUS
 10
43.0486411067
 20
67.7826039387
 11
43.0486411067
 21
83.4826039387
  0
LINE
  5
245
100
AcDbEntity
  8
0
100
AcDbLine
 62
7
  6
CONTINUOUS
 10
47.21460854
 20
82.0826039387
 11
47.21460854
 21
69.1826039387
  0
LINE
  5
246
100
AcDbEntity
  8
0
100
AcDbLine
 62
7
  6
CONTINUOUS
 10
47.395365102
 20
82.0826039387
 11
47.395365102
 21
83.4826039387
  0
LINE
  5
247
100
AcDbEntity
  8
0
100
AcDbLine
 62
7
  6
CONTINUOUS
 10
47.3955298773
 20
67.7826039387
 11
47.3955298773
 21
69.1826039387
  0
LINE
  5
248
100
AcDbEntity
  8
0
100
AcDbLine
 62
7
  6
CONTINUOUS
 10
47.7620245011
 20
69.1826039387
 11
47.7620244791
 21
72.5474801125
  0
LINE
  5
249
100
AcDbEntity
  8
0
100
AcDbLine
 62
7
  6
CONTINUOUS
 10
47.7620244791
 20
78.7177277648
 11
47.7620244997
 21
82.0826039387
  0
LINE
  5
24A
100
AcDbEntity
  8
0
100
AcDbLine
 62
7
  6
CONTINUOUS
 10
47.8331850879
 20
77.8759921486
 11
47.8331850879
 21
73.389215716
  0
LINE
  5
24B
100
AcDbEntity
  8
0
100
AcDbLine
 62
7
  6
CONTINUOUS
 10
91.1113700134
 20
70.2351563902
 11
90.3113858981
 21
70.2301150263
  0
LINE
  5
24C
100
AcDbEntity
  8
0
100
AcDbLine
 62
7
  6
CONTINUOUS
 10
90.3101255572
 20
70.4301110551
 11
91.1101096724
 21
70.435152419
  0
LINE
  5
24D
100
AcDbEntity
  8
0
100
AcDbLine
 62
7
  6
CONTINUOUS
 10
19.301295228
 20
67.7826039387
 11
95.301295228
 21
67.7826039387
  0
LINE
  5
24E
100
AcDbEntity
  8
0
100
AcDbLine
 62
7
  6
CONTINUOUS
 10
11.5052560085
 20
67.8532194669
 11
20.301295228
 21
67.8532194669
  0
LINE
  5
24F
100
AcDbEntity
  8
0
100
AcDbLine
 62
7
  6
CONTINUOUS
 10
95.501295228
 20
67.9826039387
 11
57.8679618947
 21
67.9826039387
  0
LINE
  5
250
100
AcDbEntity
  8
0
100
AcDbLine
 62
7
  6
CONTINUOUS
 10
40.6100233615
 20
67.9826039387
 11
20.301295228
 21
67.9826039387
  0
LINE
  5
251
100
AcDbEntity
  8
0
100
AcDbLine
 62
7
  6
CONTINUOUS
 10
20.301295228
 20
68.0532194669
 11
11.301295228
 21
68.0532194669
  0
LINE
  5
252
100
AcDbEntity
  8
0
100
AcDbLine
 62
7
  6
CONTINUOUS
 10
58.7346285613
 20
68.3826039387
 11
64.101295228
 21
68.3826039387
  0
LINE
  5
253
100
AcDbEntity
  8
0
100
AcDbLine
 62
7
  6
CONTINUOUS
 10
63.801295228
 20
68.4326039387
 11
60.801295228
 21
68.4326039387
  0
LINE
  5
254
100
AcDbEntity
  8
0
100
AcDbLine
 62
7
  6
CONTINUOUS
 10
59.801295228
 20
68.9826039387
 11
60.801295228
 21
68.9826039387
  0
LINE
  5
255
100
AcDbEntity
  8
0
100
AcDbLine
 62
7
  6
CONTINUOUS
 10
63.801295228
 20
68.9826039387
 11
64.101295228
 21
68.9826039387
  0
LINE
  5
256
100
AcDbEntity
  8
0
100
AcDbLine
 62
7
  6
CONTINUOUS
 10
39.831295228
 20
69.1826039387
 11
40.6100253296
 21
69.1826039387
  0
LINE
  5
257
100
AcDbEntity
  8
0
100
AcDbLine
 62
7
  6
CONTINUOUS
 10
47.21460854
 20
69.1826039387
 11
69.501295228
 21
69.1826039387
  0
LINE
  5
258
100
AcDbEntity
  8
0
100
AcDbLine
 62
7
  6
CONTINUOUS
 10
30.001295228
 20
69.2826039387
 11
37.601295228
 21
69.2826039387
  0
LINE
  5
259
100
AcDbEntity
  8
0
100
AcDbLine
 62
7
  6
CONTINUOUS
 10
40.301295228
 20
69.2826039387
 11
40.6100253296
 21
69.2826039387
  0
LINE
  5
25A
100
AcDbEntity
  8
0
100
AcDbLine
 62
7
  6
CONTINUOUS
 10
47.7620245011
 20
69.2826039387
 11
68.301295228
 21
69.2826039387
  0
LINE
  5
25B
100
AcDbEntity
  8
0
100
AcDbLine
 62
7
  6
CONTINUOUS
 10
69.501295228
 20
69.3826039387
 11
68.601295228
 21
69.3826039387
  0
LINE
  5
25C
100
AcDbEntity
  8
0
100
AcDbLine
 62
7
  6
CONTINUOUS
 10
40.001295228
 20
69.3826039387
 11
39.6290577438
 21
69.3826039387
  0
LINE
  5
25D
100
AcDbEntity
  8
0
100
AcDbLine
 62
7
  6
CONTINUOUS
 10
68.801295228
 20
69.7826039387
 11
47.7620244972
 21
69.7826039387
  0
LINE
  5
25E
100
AcDbEntity
  8
0
100
AcDbLine
 62
7
  6
CONTINUOUS
 10
40.6100233615
 20
69.7826039387
 11
39.801295228
 21
69.7826039387
  0
LINE
  5
25F
100
AcDbEntity
  8
0
100
AcDbLine
 62
7
  6
CONTINUOUS
 10
38.101295228
 20
69.7826039387
 11
29.501295228
 21
69.7826039387
  0
LINE
  5
260
100
AcDbEntity
  8
0
100
AcDbLine
 62
7
  6
CONTINUOUS
 10
95.501295228
 20
69.8326039387
 11
94.301295228
 21
69.8326039387
  0
LINE
  5
261
100
AcDbEntity
  8
0
100
AcDbLine
 62
7
  6
CONTINUOUS
 10
87.101295228
 20
69.8326039387
 11
85.901295228
 21
69.8326039387
  0
LINE
  5
262
100
AcDbEntity
  8
0
100
AcDbLine
 62
7
  6
CONTINUOUS
 10
78.701295228
 20
69.8326039387
 11
77.501295228
 21
69.8326039387
  0
LINE
  5
263
100
AcDbEntity
  8
0
100
AcDbLine
 62
7
  6
CONTINUOUS
 10
24.301295228
 20
70.2326039387
 11
23.501295228
 21
70.2326039387
  0
LINE
  5
264
100
AcDbEntity
  8
0
100
AcDbLine
 62
7
  6
CONTINUOUS
 10
48.2503995882
 20
67.7826039387
 11
48.2501724647
 21
69.1826039387
  0
LINE
  5
265
100
AcDbEntity
  8
0
100
AcDbLine
 62
7
  6
CONTINUOUS
 10
48.2504004423
 20
82.0826039387
 11
48.2501724647
 21
83.4826039387
  0
LINE
  5
266
100
AcDbEntity
  8
0
100
AcDbLine
 62
7
  6
CONTINUOUS
 10
88.2360723744
 20
71.4170605809
 11
90.2038258379
 21
71.4294610287
  0
LINE
  5
267
100
AcDbEntity
  8
0
100
AcDbLine
 62
7
  6
CONTINUOUS
 10
91.203805982
 20
71.4357627335
 11
93.1715594454
 21
71.4481631813
  0
LINE
  5
268
100
AcDbEntity
  8
0
100
AcDbLine
 62
7
  6
CONTINUOUS
 10
88.2310310105
 20
72.2170446961
 11
90.198784474
 21
72.2294451439
  0
LINE
  5
269
100
AcDbEntity
  8
0
100
AcDbLine
 62
7
  6
CONTINUOUS
 10
91.1987646181
 20
72.2357468488
 11
93.1665180816
 21
72.2481472966
  0
LINE
  5
26A
100
AcDbEntity
  8
0
100
AcDbLine
 62
7
  6
CONTINUOUS
 10
91.0924648988
 20
73.2350968224
 11
90.2924807836
 21
73.2300554585
  0
LINE
  5
26B
100
AcDbEntity
  8
0
100
AcDbLine
 62
7
  6
CONTINUOUS
 10
23.501295228
 20
70.4326039387
 11
24.301295228
 21
70.4326039387
  0
LINE
  5
26C
100
AcDbEntity
  8
0
100
AcDbLine
 62
7
  6
CONTINUOUS
 10
21.4335026921
 20
71.4326039387
 11
23.401295228
 21
71.4326039387
  0
LINE
  5
26D
100
AcDbEntity
  8
0
100
AcDbLine
 62
7
  6
CONTINUOUS
 10
24.401295228
 20
71.4326039387
 11
26.3690877638
 21
71.4326039387
  0
LINE
  5
26E
100
AcDbEntity
  8
0
100
AcDbLine
 62
7
  6
CONTINUOUS
 10
21.4335026921
 20
72.2326039387
 11
23.401295228
 21
72.2326039387
  0
LINE
  5
26F
100
AcDbEntity
  8
0
100
AcDbLine
 62
7
  6
CONTINUOUS
 10
24.401295228
 20
72.2326039387
 11
26.3690877638
 21
72.2326039387
  0
LINE
  5
270
100
AcDbEntity
  8
0
100
AcDbLine
 62
7
  6
CONTINUOUS
 10
52.601295228
 20
69.1826039387
 11
52.601295228
 21
69.2826039387
  0
LINE
  5
271
100
AcDbEntity
  8
0
100
AcDbLine
 62
7
  6
CONTINUOUS
 10
52.601295228
 20
81.7826039387
 11
52.601295228
 21
82.0826039387
  0
LINE
  5
272
100
AcDbEntity
  8
0
100
AcDbLine
 62
7
  6
CONTINUOUS
 10
90.2912204426
 20
73.4300514873
 11
91.0912045578
 21
73.4350928512
  0
LINE
  5
273
100
AcDbEntity
  8
0
100
AcDbLine
 62
7
  6
CONTINUOUS
 10
24.301295228
 20
73.2326039387
 11
23.501295228
 21
73.2326039387
  0
LINE
  5
274
100
AcDbEntity
  8
0
100
AcDbLine
 62
7
  6
CONTINUOUS
 10
23.501295228
 20
73.4326039387
 11
24.301295228
 21
73.4326039387
  0
LINE
  5
275
100
AcDbEntity
  8
0
100
AcDbLine
 62
7
  6
CONTINUOUS
 10
77.501295228
 20
73.8326039387
 11
78.701295228
 21
73.8326039387
  0
LINE
  5
276
100
AcDbEntity
  8
0
100
AcDbLine
 62
7
  6
CONTINUOUS
 10
85.901295228
 20
73.8326039387
 11
87.101295228
 21
73.8326039387
  0
LINE
  5
277
100
AcDbEntity
  8
0
100
AcDbLine
 62
7
  6
CONTINUOUS
 10
94.301295228
 20
73.8326039387
 11
95.501295228
 21
73.8326039387
  0
LINE
  5
278
100
AcDbEntity
  8
0
100
AcDbLine
 62
7
  6
CONTINUOUS
 10
38.101295228
 20
74.4326039387
 11
39.801295228
 21
74.4326039387
  0
LINE
  5
279
100
AcDbEntity
  8
0
100
AcDbLine
 62
7
  6
CONTINUOUS
 10
68.801295228
 20
74.4326039387
 11
69.501295228
 21
74.4326039387
  0
LINE
  5
27A
100
AcDbEntity
  8
0
100
AcDbLine
 62
7
  6
CONTINUOUS
 10
39.801295228
 20
74.5826039387
 11
38.101295228
 21
74.5826039387
  0
LINE
  5
27B
100
AcDbEntity
  8
0
100
AcDbLine
 62
7
  6
CONTINUOUS
 10
54.401295228
 20
69.1826039387
 11
54.401295228
 21
69.2826039387
  0
LINE
  5
27C
100
AcDbEntity
  8
0
100
AcDbLine
 62
7
  6
CONTINUOUS
 10
54.401295228
 20
81.7826039387
 11
54.401295228
 21
82.0826039387
  0
LINE
  5
27D
100
AcDbEntity
  8
0
100
AcDbLine
 62
7
  6
CONTINUOUS
 10
38.101295228
 20
76.5826039387
 11
39.801295228
 21
76.5826039387
  0
LINE
  5
27E
100
AcDbEntity
  8
0
100
AcDbLine
 62
7
  6
CONTINUOUS
 10
69.501295228
 20
76.7326039387
 11
68.801295228
 21
76.7326039387
  0
LINE
  5
27F
100
AcDbEntity
  8
0
100
AcDbLine
 62
7
  6
CONTINUOUS
 10
38.101295228
 20
76.7326039387
 11
39.801295228
 21
76.7326039387
  0
LINE
  5
280
100
AcDbEntity
  8
0
100
AcDbLine
 62
7
  6
CONTINUOUS
 10
95.501295228
 20
77.3326039387
 11
94.301295228
 21
77.3326039387
  0
LINE
  5
281
100
AcDbEntity
  8
0
100
AcDbLine
 62
7
  6
CONTINUOUS
 10
87.101295228
 20
77.3326039387
 11
85.901295228
 21
77.3326039387
  0
LINE
  5
282
100
AcDbEntity
  8
0
100
AcDbLine
 62
7
  6
CONTINUOUS
 10
78.701295228
 20
77.3326039387
 11
77.501295228
 21
77.3326039387
  0
LINE
  5
283
100
AcDbEntity
  8
0
100
AcDbLine
 62
7
  6
CONTINUOUS
 10
91.101295228
 20
77.7326039387
 11
90.301295228
 21
77.7326039387
  0
LINE
  5
284
100
AcDbEntity
  8
0
100
AcDbLine
 62
7
  6
CONTINUOUS
 10
82.701295228
 20
77.7326039387
 11
81.901295228
 21
77.7326039387
  0
LINE
  5
285
100
AcDbEntity
  8
0
100
AcDbLine
 62
7
  6
CONTINUOUS
 10
74.301295228
 20
77.7326039387
 11
73.501295228
 21
77.7326039387
  0
LINE
  5
286
100
AcDbEntity
  8
0
100
AcDbLine
 62
7
  6
CONTINUOUS
 10
24.301295228
 20
77.7326039387
 11
23.501295228
 21
77.7326039387
  0
LINE
  5
287
100
AcDbEntity
  8
0
100
AcDbLine
 62
7
  6
CONTINUOUS
 10
23.501295228
 20
77.9326039387
 11
24.301295228
 21
77.9326039387
  0
LINE
  5
288
100
AcDbEntity
  8
0
100
AcDbLine
 62
7
  6
CONTINUOUS
 10
73.501295228
 20
77.9326039387
 11
74.301295228
 21
77.9326039387
  0
LINE
  5
289
100
AcDbEntity
  8
0
100
AcDbLine
 62
7
  6
CONTINUOUS
 10
81.901295228
 20
77.9326039387
 11
82.701295228
 21
77.9326039387
  0
LINE
  5
28A
100
AcDbEntity
  8
0
100
AcDbLine
 62
7
  6
CONTINUOUS
 10
90.301295228
 20
77.9326039387
 11
91.101295228
 21
77.9326039387
  0
LINE
  5
28B
100
AcDbEntity
  8
0
100
AcDbLine
 62
7
  6
CONTINUOUS
 10
21.4335026921
 20
78.9326039387
 11
23.401295228
 21
78.9326039387
  0
LINE
  5
28C
100
AcDbEntity
  8
0
100
AcDbLine
 62
7
  6
CONTINUOUS
 10
24.401295228
 20
78.9326039387
 11
26.3690877638
 21
78.9326039387
  0
LINE
  5
28D
100
AcDbEntity
  8
0
100
AcDbLine
 62
7
  6
CONTINUOUS
 10
71.4335026921
 20
78.9326039387
 11
73.401295228
 21
78.9326039387
  0
LINE
  5
28E
100
AcDbEntity
  8
0
100
AcDbLine
 62
7
  6
CONTINUOUS
 10
74.401295228
 20
78.9326039387
 11
76.3690877638
 21
78.9326039387
  0
LINE
  5
28F
100
AcDbEntity
  8
0
100
AcDbLine
 62
7
  6
CONTINUOUS
 10
79.8335026921
 20
78.9326039387
 11
81.801295228
 21
78.9326039387
  0
LINE
  5
290
100
AcDbEntity
  8
0
100
AcDbLine
 62
7
  6
CONTINUOUS
 10
82.801295228
 20
78.9326039387
 11
84.7690877638
 21
78.9326039387
  0
LINE
  5
291
100
AcDbEntity
  8
0
100
AcDbLine
 62
7
  6
CONTINUOUS
 10
88.2335026921
 20
78.9326039387
 11
90.201295228
 21
78.9326039387
  0
LINE
  5
292
100
AcDbEntity
  8
0
100
AcDbLine
 62
7
  6
CONTINUOUS
 10
91.201295228
 20
78.9326039387
 11
93.1690877638
 21
78.9326039387
  0
LINE
  5
293
100
AcDbEntity
  8
0
100
AcDbLine
 62
7
  6
CONTINUOUS
 10
21.4335026921
 20
79.7326039387
 11
23.401295228
 21
79.7326039387
  0
LINE
  5
294
100
AcDbEntity
  8
0
100
AcDbLine
 62
7
  6
CONTINUOUS
 10
24.401295228
 20
79.7326039387
 11
26.3690877638
 21
79.7326039387
  0
LINE
  5
295
100
AcDbEntity
  8
0
100
AcDbLine
 62
7
  6
CONTINUOUS
 10
71.4335026921
 20
79.7326039387
 11
73.401295228
 21
79.7326039387
  0
LINE
  5
296
100
AcDbEntity
  8
0
100
AcDbLine
 62
7
  6
CONTINUOUS
 10
74.401295228
 20
79.7326039387
 11
76.3690877638
 21
79.7326039387
  0
LINE
  5
297
100
AcDbEntity
  8
0
100
AcDbLine
 62
7
  6
CONTINUOUS
 10
79.8335026921
 20
79.7326039387
 11
81.801295228
 21
79.7326039387
  0
LINE
  5
298
100
AcDbEntity
  8
0
100
AcDbLine
 62
7
  6
CONTINUOUS
 10
82.801295228
 20
79.7326039387
 11
84.7690877638
 21
79.7326039387
  0
LINE
  5
299
100
AcDbEntity
  8
0
100
AcDbLine
 62
7
  6
CONTINUOUS
 10
88.2335026921
 20
79.7326039387
 11
90.201295228
 21
79.7326039387
  0
LINE
  5
29A
100
AcDbEntity
  8
0
100
AcDbLine
 62
7
  6
CONTINUOUS
 10
91.201295228
 20
79.7326039387
 11
93.1690877638
 21
79.7326039387
  0
LINE
  5
29B
100
AcDbEntity
  8
0
100
AcDbLine
 62
7
  6
CONTINUOUS
 10
91.101295228
 20
80.7326039387
 11
90.301295228
 21
80.7326039387
  0
LINE
  5
29C
100
AcDbEntity
  8
0
100
AcDbLine
 62
7
  6
CONTINUOUS
 10
82.701295228
 20
80.7326039387
 11
81.901295228
 21
80.7326039387
  0
LINE
  5
29D
100
AcDbEntity
  8
0
100
AcDbLine
 62
7
  6
CONTINUOUS
 10
74.301295228
 20
80.7326039387
 11
73.501295228
 21
80.7326039387
  0
LINE
  5
29E
100
AcDbEntity
  8
0
100
AcDbLine
 62
7
  6
CONTINUOUS
 10
24.301295228
 20
80.7326039387
 11
23.501295228
 21
80.7326039387
  0
LINE
  5
29F
100
AcDbEntity
  8
0
100
AcDbLine
 62
7
  6
CONTINUOUS
 10
23.501295228
 20
80.9326039387
 11
24.301295228
 21
80.9326039387
  0
LINE
  5
2A0
100
AcDbEntity
  8
0
100
AcDbLine
 62
7
  6
CONTINUOUS
 10
73.501295228
 20
80.9326039387
 11
74.301295228
 21
80.9326039387
  0
LINE
  5
2A1
100
AcDbEntity
  8
0
100
AcDbLine
 62
7
  6
CONTINUOUS
 10
81.901295228
 20
80.9326039387
 11
82.701295228
 21
80.9326039387
  0
LINE
  5
2A2
100
AcDbEntity
  8
0
100
AcDbLine
 62
7
  6
CONTINUOUS
 10
90.301295228
 20
80.9326039387
 11
91.101295228
 21
80.9326039387
  0
LINE
  5
2A3
100
AcDbEntity
  8
0
100
AcDbLine
 62
7
  6
CONTINUOUS
 10
39.801295228
 20
81.2826039387
 11
40.6100233615
 21
81.2826039387
  0
LINE
  5
2A4
100
AcDbEntity
  8
0
100
AcDbLine
 62
7
  6
CONTINUOUS
 10
47.7620244948
 20
81.2826039387
 11
68.801295228
 21
81.2826039387
  0
LINE
  5
2A5
100
AcDbEntity
  8
0
100
AcDbLine
 62
7
  6
CONTINUOUS
 10
77.501295228
 20
81.3326039387
 11
78.701295228
 21
81.3326039387
  0
LINE
  5
2A6
100
AcDbEntity
  8
0
100
AcDbLine
 62
7
  6
CONTINUOUS
 10
85.901295228
 20
81.3326039387
 11
87.101295228
 21
81.3326039387
  0
LINE
  5
2A7
100
AcDbEntity
  8
0
100
AcDbLine
 62
7
  6
CONTINUOUS
 10
94.301295228
 20
81.3326039387
 11
95.501295228
 21
81.3326039387
  0
LINE
  5
2A8
100
AcDbEntity
  8
0
100
AcDbLine
 62
7
  6
CONTINUOUS
 10
29.501295228
 20
81.3826039387
 11
38.101295228
 21
81.3826039387
  0
LINE
  5
2A9
100
AcDbEntity
  8
0
100
AcDbLine
 62
7
  6
CONTINUOUS
 10
59.801295228
 20
82.8826039387
 11
59.801295228
 21
82.2826039387
  0
LINE
  5
2AA
100
AcDbEntity
  8
0
100
AcDbLine
 62
7
  6
CONTINUOUS
 10
59.801295228
 20
68.3826039387
 11
59.801295228
 21
68.9826039387
  0
LINE
  5
2AB
100
AcDbEntity
  8
0
100
AcDbLine
 62
7
  6
CONTINUOUS
 10
60.801295228
 20
68.4326039387
 11
60.801295228
 21
69.1826039387
  0
LINE
  5
2AC
100
AcDbEntity
  8
0
100
AcDbLine
 62
7
  6
CONTINUOUS
 10
60.801295228
 20
81.9826039387
 11
60.801295228
 21
82.7326039387
  0
LINE
  5
2AD
100
AcDbEntity
  8
0
100
AcDbLine
 62
7
  6
CONTINUOUS
 10
57.601295228
 20
67.7826039387
 11
58.1346285614
 21
68.1826039388
  0
LINE
  5
2AE
100
AcDbEntity
  8
0
100
AcDbLine
 62
7
  6
CONTINUOUS
 10
78.701295228
 20
77.3326039387
 11
77.501295228
 21
76.8326039387
  0
LINE
  5
2AF
100
AcDbEntity
  8
0
100
AcDbLine
 62
7
  6
CONTINUOUS
 10
39.6290577438
 20
81.7826039387
 11
40.6100233615
 21
81.7826039387
  0
LINE
  5
2B0
100
AcDbEntity
  8
0
100
AcDbLine
 62
7
  6
CONTINUOUS
 10
47.7620244978
 20
81.7826039387
 11
69.501295228
 21
81.7826039387
  0
LINE
  5
2B1
100
AcDbEntity
  8
0
100
AcDbLine
 62
7
  6
CONTINUOUS
 10
37.601295228
 20
81.8826039387
 11
30.001295228
 21
81.8826039387
  0
LINE
  5
2B2
100
AcDbEntity
  8
0
100
AcDbLine
 62
7
  6
CONTINUOUS
 10
40.6100257134
 20
81.9826039387
 11
39.831295228
 21
81.9826039387
  0
LINE
  5
2B3
100
AcDbEntity
  8
0
100
AcDbLine
 62
7
  6
CONTINUOUS
 10
47.7620244997
 20
81.9826039387
 11
52.589320386
 21
81.9826039387
  0
LINE
  5
2B4
100
AcDbEntity
  8
0
100
AcDbLine
 62
7
  6
CONTINUOUS
 10
54.401295228
 20
81.9826039387
 11
69.501295228
 21
81.9826039387
  0
LINE
  5
2B5
100
AcDbEntity
  8
0
100
AcDbLine
 62
7
  6
CONTINUOUS
 10
63.901295228
 20
82.0826039387
 11
63.801295228
 21
82.0826039387
  0
LINE
  5
2B6
100
AcDbEntity
  8
0
100
AcDbLine
 62
7
  6
CONTINUOUS
 10
47.21460854
 20
82.0826039387
 11
60.801295228
 21
82.0826039387
  0
LINE
  5
2B7
100
AcDbEntity
  8
0
100
AcDbLine
 62
7
  6
CONTINUOUS
 10
64.101295228
 20
82.2826039387
 11
63.801295228
 21
82.2826039387
  0
LINE
  5
2B8
100
AcDbEntity
  8
0
100
AcDbLine
 62
7
  6
CONTINUOUS
 10
60.801295228
 20
82.2826039387
 11
59.801295228
 21
82.2826039387
  0
LINE
  5
2B9
100
AcDbEntity
  8
0
100
AcDbLine
 62
7
  6
CONTINUOUS
 10
60.801295228
 20
82.7326039387
 11
63.801295228
 21
82.7326039387
  0
LINE
  5
2BA
100
AcDbEntity
  8
0
100
AcDbLine
 62
7
  6
CONTINUOUS
 10
58.7346285613
 20
82.8826039387
 11
64.101295228
 21
82.8826039387
  0
LINE
  5
2BB
100
AcDbEntity
  8
0
100
AcDbLine
 62
7
  6
CONTINUOUS
 10
11.301295228
 20
83.1532194669
 11
20.301295228
 21
83.1532194669
  0
LINE
  5
2BC
100
AcDbEntity
  8
0
100
AcDbLine
 62
7
  6
CONTINUOUS
 10
20.301295228
 20
83.1826039387
 11
40.6100257134
 21
83.1826039387
  0
LINE
  5
2BD
100
AcDbEntity
  8
0
100
AcDbLine
 62
7
  6
CONTINUOUS
 10
58.001295228
 20
83.1826039387
 11
95.501295228
 21
83.1826039387
  0
LINE
  5
2BE
100
AcDbEntity
  8
0
100
AcDbLine
 62
7
  6
CONTINUOUS
 10
11.5052560085
 20
83.3532194669
 11
20.301295228
 21
83.3532194669
  0
LINE
  5
2BF
100
AcDbEntity
  8
0
100
AcDbLine
 62
7
  6
CONTINUOUS
 10
95.301295228
 20
83.3826039387
 11
57.7346285613
 21
83.3826039387
  0
LINE
  5
2C0
100
AcDbEntity
  8
0
100
AcDbLine
 62
7
  6
CONTINUOUS
 10
19.301295228
 20
83.3826039387
 11
40.6100239495
 21
83.3826039387
  0
LINE
  5
2C1
100
AcDbEntity
  8
0
100
AcDbLine
 62
7
  6
CONTINUOUS
 10
40.6100239495
 20
83.4826039387
 11
57.601295228
 21
83.4826039387
  0
LINE
  5
2C2
100
AcDbEntity
  8
0
100
AcDbLine
 62
7
  6
CONTINUOUS
 10
77.501295228
 20
74.3326039387
 11
78.701295228
 21
73.8326039387
  0
LINE
  5
2C3
100
AcDbEntity
  8
0
100
AcDbLine
 62
7
  6
CONTINUOUS
 10
58.1346285614
 20
83.0826039387
 11
57.601295228
 21
83.4826039387
  0
LINE
  5
2C4
100
AcDbEntity
  8
0
100
AcDbLine
 62
7
  6
CONTINUOUS
 10
63.801295228
 20
82.8826039387
 11
63.801295228
 21
81.9826039387
  0
LINE
  5
2C5
100
AcDbEntity
  8
0
100
AcDbLine
 62
7
  6
CONTINUOUS
 10
63.801295228
 20
69.1826039387
 11
63.801295228
 21
68.3826039387
  0
LINE
  5
2C6
100
AcDbEntity
  8
0
100
AcDbLine
 62
7
  6
CONTINUOUS
 10
64.101295228
 20
68.3826039387
 11
64.101295228
 21
68.9826039387
  0
LINE
  5
2C7
100
AcDbEntity
  8
0
100
AcDbLine
 62
7
  6
CONTINUOUS
 10
64.101295228
 20
82.2826039387
 11
64.101295228
 21
82.8826039387
  0
LINE
  5
2C8
100
AcDbEntity
  8
0
100
AcDbLine
 62
7
  6
CONTINUOUS
 10
87.101295228
 20
77.3326039387
 11
85.901295228
 21
76.8326039387
  0
LINE
  5
2C9
100
AcDbEntity
  8
0
100
AcDbLine
 62
7
  6
CONTINUOUS
 10
72.972210299
 20
73.1952488649
 11
73.7227590794
 21
73.4721541343
  0
LINE
  5
2CA
100
AcDbEntity
  8
0
100
AcDbLine
 62
7
  6
CONTINUOUS
 10
73.7919853968
 20
73.2845169392
 11
73.0414366163
 21
73.0076116698
  0
LINE
  5
2CB
100
AcDbEntity
  8
0
100
AcDbLine
 62
7
  6
CONTINUOUS
 10
71.4475942457
 20
71.3536973827
 11
73.2937496055
 21
72.0348125356
  0
LINE
  5
2CC
100
AcDbEntity
  8
0
100
AcDbLine
 62
7
  6
CONTINUOUS
 10
74.2319355811
 20
72.3809441223
 11
76.0780909409
 21
73.0620592751
  0
LINE
  5
2CD
100
AcDbEntity
  8
0
100
AcDbLine
 62
7
  6
CONTINUOUS
 10
71.7244995151
 20
70.6031486023
 11
73.5706548749
 21
71.2842637551
  0
LINE
  5
2CE
100
AcDbEntity
  8
0
100
AcDbLine
 62
7
  6
CONTINUOUS
 10
74.5088408504
 20
71.6303953419
 11
76.3549962103
 21
72.3115104947
  0
LINE
  5
2CF
100
AcDbEntity
  8
0
100
AcDbLine
 62
7
  6
CONTINUOUS
 10
85.901295228
 20
74.3326039387
 11
87.101295228
 21
73.8326039387
  0
LINE
  5
2D0
100
AcDbEntity
  8
0
100
AcDbLine
 62
7
  6
CONTINUOUS
 10
95.501295228
 20
77.3326039387
 11
94.301295228
 21
76.8326039387
  0
LINE
  5
2D1
100
AcDbEntity
  8
0
100
AcDbLine
 62
7
  6
CONTINUOUS
 10
74.0106050592
 20
70.3806909383
 11
74.7611538396
 21
70.6575962077
  0
LINE
  5
2D2
100
AcDbEntity
  8
0
100
AcDbLine
 62
7
  6
CONTINUOUS
 10
74.830380157
 20
70.4699590126
 11
74.0798313766
 21
70.1930537432
  0
LINE
  5
2D3
100
AcDbEntity
  8
0
100
AcDbLine
 62
7
  6
CONTINUOUS
 10
94.301295228
 20
74.3326039387
 11
95.501295228
 21
73.8326039387
  0
LINE
  5
2D4
100
AcDbEntity
  8
0
100
AcDbLine
 62
7
  6
CONTINUOUS
 10
83.7002658706
 20
73.9045210553
 11
83.3507396221
 21
74.1016712501
  0
LINE
  5
2D5
100
AcDbEntity
  8
0
100
AcDbLine
 62
7
  6
CONTINUOUS
 10
83.40349046
 20
70.6057520037
 11
82.4918439674
 21
71.2213010859
  0
LINE
  5
2D6
100
AcDbEntity
  8
0
100
AcDbLine
 62
7
  6
CONTINUOUS
 10
81.6630744288
 20
71.7808911606
 11
80.7514279362
 21
72.3964402428
  0
LINE
  5
2D7
100
AcDbEntity
  8
0
100
AcDbLine
 62
7
  6
CONTINUOUS
 10
81.199099996
 20
73.0594558738
 11
82.1107464885
 21
72.4439067916
  0
LINE
  5
2D8
100
AcDbEntity
  8
0
100
AcDbLine
 62
7
  6
CONTINUOUS
 10
82.9395160272
 20
71.8843167168
 11
83.8511625198
 21
71.2687676346
  0
LINE
  5
2D9
100
AcDbEntity
  8
0
100
AcDbLine
 62
7
  6
CONTINUOUS
 10
68.301295228
 20
81.7826039387
 11
68.301295228
 21
69.2826039387
  0
LINE
  5
2DA
100
AcDbEntity
  8
0
100
AcDbLine
 62
7
  6
CONTINUOUS
 10
68.801295228
 20
69.7826039387
 11
68.801295228
 21
81.2826039387
  0
LINE
  5
2DB
100
AcDbEntity
  8
0
100
AcDbLine
 62
7
  6
CONTINUOUS
 10
69.501295228
 20
83.1826039387
 11
69.501295228
 21
67.9826039387
  0
LINE
  5
2DC
100
AcDbEntity
  8
0
100
AcDbLine
 62
7
  6
CONTINUOUS
 10
69.701295228
 20
67.7826039387
 11
69.701295228
 21
83.3826039387
  0
LINE
  5
2DD
100
AcDbEntity
  8
0
100
AcDbLine
 62
7
  6
CONTINUOUS
 10
78.701295228
 20
69.8326039387
 11
77.501295228
 21
69.3326039387
  0
LINE
  5
2DE
100
AcDbEntity
  8
0
100
AcDbLine
 62
7
  6
CONTINUOUS
 10
77.501295228
 20
81.8326039387
 11
78.701295228
 21
81.3326039387
  0
LINE
  5
2DF
100
AcDbEntity
  8
0
100
AcDbLine
 62
7
  6
CONTINUOUS
 10
73.501295228
 20
80.9326039387
 11
73.501295228
 21
79.8326039387
  0
LINE
  5
2E0
100
AcDbEntity
  8
0
100
AcDbLine
 62
7
  6
CONTINUOUS
 10
73.501295228
 20
78.8326039387
 11
73.501295228
 21
77.7326039387
  0
LINE
  5
2E1
100
AcDbEntity
  8
0
100
AcDbLine
 62
7
  6
CONTINUOUS
 10
87.101295228
 20
69.8326039387
 11
85.901295228
 21
69.3326039387
  0
LINE
  5
2E2
100
AcDbEntity
  8
0
100
AcDbLine
 62
7
  6
CONTINUOUS
 10
85.901295228
 20
81.8326039387
 11
87.101295228
 21
81.3326039387
  0
LINE
  5
2E3
100
AcDbEntity
  8
0
100
AcDbLine
 62
7
  6
CONTINUOUS
 10
84.013755253
 20
73.6539991904
 11
83.7002658706
 21
73.9045210553
  0
LINE
  5
2E4
100
AcDbEntity
  8
0
100
AcDbLine
 62
7
  6
CONTINUOUS
 10
76.2467525482
 20
72.6979300948
 11
76.0780909409
 21
73.0620592751
  0
LINE
  5
2E5
100
AcDbEntity
  8
0
100
AcDbLine
 62
7
  6
CONTINUOUS
 10
74.0798313766
 20
70.1930537432
 11
73.6990866312
 21
71.2250583162
  0
LINE
  5
2E6
100
AcDbEntity
  8
0
100
AcDbLine
 62
7
  6
CONTINUOUS
 10
73.3529550444
 20
72.1632442918
 11
72.972210299
 21
73.1952488649
  0
LINE
  5
2E7
100
AcDbEntity
  8
0
100
AcDbLine
 62
7
  6
CONTINUOUS
 10
73.7227590794
 20
73.4721541343
 11
74.1035038248
 21
72.4401495612
  0
LINE
  5
2E8
100
AcDbEntity
  8
0
100
AcDbLine
 62
7
  6
CONTINUOUS
 10
74.4496354116
 20
71.5019635857
 11
74.830380157
 21
70.4699590126
  0
LINE
  5
2E9
100
AcDbEntity
  8
0
100
AcDbLine
 62
7
  6
CONTINUOUS
 10
76.4012871074
 20
79.3326039387
 11
76.3690877638
 21
79.7326039387
  0
LINE
  5
2EA
100
AcDbEntity
  8
0
100
AcDbLine
 62
7
  6
CONTINUOUS
 10
74.301295228
 20
77.7326039387
 11
74.301295228
 21
78.8326039387
  0
LINE
  5
2EB
100
AcDbEntity
  8
0
100
AcDbLine
 62
7
  6
CONTINUOUS
 10
74.301295228
 20
79.8326039387
 11
74.301295228
 21
80.9326039387
  0
LINE
  5
2EC
100
AcDbEntity
  8
0
100
AcDbLine
 62
7
  6
CONTINUOUS
 10
76.3690877638
 20
78.9326039387
 11
76.4012871074
 21
79.3326039387
  0
LINE
  5
2ED
100
AcDbEntity
  8
0
100
AcDbLine
 62
7
  6
CONTINUOUS
 10
95.501295228
 20
69.8326039387
 11
94.301295228
 21
69.3326039387
  0
LINE
  5
2EE
100
AcDbEntity
  8
0
100
AcDbLine
 62
7
  6
CONTINUOUS
 10
94.301295228
 20
81.8326039387
 11
95.501295228
 21
81.3326039387
  0
LINE
  5
2EF
100
AcDbEntity
  8
0
100
AcDbLine
 62
7
  6
CONTINUOUS
 10
76.3549962103
 20
72.3115104947
 11
76.2467525482
 21
72.6979300948
  0
LINE
  5
2F0
100
AcDbEntity
  8
0
100
AcDbLine
 62
7
  6
CONTINUOUS
 10
77.301295228
 20
83.3826039387
 11
77.301295228
 21
67.7826039387
  0
LINE
  5
2F1
100
AcDbEntity
  8
0
100
AcDbLine
 62
7
  6
CONTINUOUS
 10
77.501295228
 20
67.9826039387
 11
77.501295228
 21
83.1826039387
  0
LINE
  5
2F2
100
AcDbEntity
  8
0
100
AcDbLine
 62
7
  6
CONTINUOUS
 10
78.701295228
 20
67.9826039387
 11
78.701295228
 21
69.8326039387
  0
LINE
  5
2F3
100
AcDbEntity
  8
0
100
AcDbLine
 62
7
  6
CONTINUOUS
 10
78.701295228
 20
73.8326039387
 11
78.701295228
 21
77.3326039387
  0
LINE
  5
2F4
100
AcDbEntity
  8
0
100
AcDbLine
 62
7
  6
CONTINUOUS
 10
78.701295228
 20
81.3326039387
 11
78.701295228
 21
83.1826039387
  0
LINE
  5
2F5
100
AcDbEntity
  8
0
100
AcDbLine
 62
7
  6
CONTINUOUS
 10
80.7514279362
 20
72.3964402428
 11
81.199099996
 21
73.0594558738
  0
LINE
  5
2F6
100
AcDbEntity
  8
0
100
AcDbLine
 62
7
  6
CONTINUOUS
 10
81.3648539037
 20
72.9475378588
 11
80.9171818439
 21
72.2845222279
  0
LINE
  5
2F7
100
AcDbEntity
  8
0
100
AcDbLine
 62
7
  6
CONTINUOUS
 10
80.588835203
 20
70.0112086871
 11
81.6899923751
 21
71.6420551993
  0
LINE
  5
2F8
100
AcDbEntity
  8
0
100
AcDbLine
 62
7
  6
CONTINUOUS
 10
82.2495824499
 20
72.470824738
 11
83.3507396221
 21
74.1016712501
  0
LINE
  5
2F9
100
AcDbEntity
  8
0
100
AcDbLine
 62
7
  6
CONTINUOUS
 10
81.901295228
 20
80.9326039387
 11
81.901295228
 21
79.8326039387
  0
LINE
  5
2FA
100
AcDbEntity
  8
0
100
AcDbLine
 62
7
  6
CONTINUOUS
 10
81.901295228
 20
78.8326039387
 11
81.901295228
 21
77.7326039387
  0
LINE
  5
2FB
100
AcDbEntity
  8
0
100
AcDbLine
 62
7
  6
CONTINUOUS
 10
81.2518508339
 20
69.5635366273
 11
82.3530080061
 21
71.1943831395
  0
LINE
  5
2FC
100
AcDbEntity
  8
0
100
AcDbLine
 62
7
  6
CONTINUOUS
 10
82.9125980808
 20
72.0231526782
 11
84.013755253
 21
73.6539991903
  0
LINE
  5
2FD
100
AcDbEntity
  8
0
100
AcDbLine
 62
7
  6
CONTINUOUS
 10
83.2377365523
 20
70.7176700186
 11
83.685408612
 21
71.3806856496
  0
LINE
  5
2FE
100
AcDbEntity
  8
0
100
AcDbLine
 62
7
  6
CONTINUOUS
 10
83.8511625198
 20
71.2687676346
 11
83.40349046
 21
70.6057520037
  0
LINE
  5
2FF
100
AcDbEntity
  8
0
100
AcDbLine
 62
7
  6
CONTINUOUS
 10
84.8012871074
 20
79.3326039387
 11
84.7690877638
 21
79.7326039387
  0
LINE
  5
300
100
AcDbEntity
  8
0
100
AcDbLine
 62
7
  6
CONTINUOUS
 10
82.701295228
 20
77.7326039387
 11
82.701295228
 21
78.8326039387
  0
LINE
  5
301
100
AcDbEntity
  8
0
100
AcDbLine
 62
7
  6
CONTINUOUS
 10
82.701295228
 20
79.8326039387
 11
82.701295228
 21
80.9326039387
  0
LINE
  5
302
100
AcDbEntity
  8
0
100
AcDbLine
 62
7
  6
CONTINUOUS
 10
84.7690877638
 20
78.9326039387
 11
84.8012871074
 21
79.3326039387
  0
LINE
  5
303
100
AcDbEntity
  8
0
100
AcDbLine
 62
7
  6
CONTINUOUS
 10
85.701295228
 20
83.3826039387
 11
85.701295228
 21
67.7826039387
  0
LINE
  5
304
100
AcDbEntity
  8
0
100
AcDbLine
 62
7
  6
CONTINUOUS
 10
85.901295228
 20
67.9826039387
 11
85.901295228
 21
83.1826039387
  0
LINE
  5
305
100
AcDbEntity
  8
0
100
AcDbLine
 62
7
  6
CONTINUOUS
 10
87.101295228
 20
67.9826039387
 11
87.101295228
 21
69.8326039387
  0
LINE
  5
306
100
AcDbEntity
  8
0
100
AcDbLine
 62
7
  6
CONTINUOUS
 10
87.101295228
 20
73.8326039387
 11
87.101295228
 21
77.3326039387
  0
LINE
  5
307
100
AcDbEntity
  8
0
100
AcDbLine
 62
7
  6
CONTINUOUS
 10
87.101295228
 20
81.3326039387
 11
87.101295228
 21
83.1826039387
  0
LINE
  5
308
100
AcDbEntity
  8
0
100
AcDbLine
 62
7
  6
CONTINUOUS
 10
90.2912204426
 20
73.4300514873
 11
90.2981523179
 21
72.3300733288
  0
LINE
  5
309
100
AcDbEntity
  8
0
100
AcDbLine
 62
7
  6
CONTINUOUS
 10
90.3044540228
 20
71.3300931848
 11
90.3113858981
 21
70.2301150263
  0
LINE
  5
30A
100
AcDbEntity
  8
0
100
AcDbLine
 62
7
  6
CONTINUOUS
 10
90.301295228
 20
80.9326039387
 11
90.301295228
 21
79.8326039387
  0
LINE
  5
30B
100
AcDbEntity
  8
0
100
AcDbLine
 62
7
  6
CONTINUOUS
 10
90.301295228
 20
78.8326039387
 11
90.301295228
 21
77.7326039387
  0
LINE
  5
30C
100
AcDbEntity
  8
0
100
AcDbLine
 62
7
  6
CONTINUOUS
 10
93.2012374677
 20
71.8483581497
 11
93.1665180816
 21
72.2481472966
  0
LINE
  5
30D
100
AcDbEntity
  8
0
100
AcDbLine
 62
7
  6
CONTINUOUS
 10
93.2012871074
 20
79.3326039387
 11
93.1690877638
 21
79.7326039387
  0
LINE
  5
30E
100
AcDbEntity
  8
0
100
AcDbLine
 62
7
  6
CONTINUOUS
 10
91.1113700134
 20
70.2351563902
 11
91.104438138
 21
71.3351345486
  0
LINE
  5
30F
100
AcDbEntity
  8
0
100
AcDbLine
 62
7
  6
CONTINUOUS
 10
91.0981364332
 20
72.3351146927
 11
91.0912045578
 21
73.4350928512
  0
LINE
  5
310
100
AcDbEntity
  8
0
100
AcDbLine
 62
7
  6
CONTINUOUS
 10
91.101295228
 20
77.7326039387
 11
91.101295228
 21
78.8326039387
  0
LINE
  5
311
100
AcDbEntity
  8
0
100
AcDbLine
 62
7
  6
CONTINUOUS
 10
91.101295228
 20
79.8326039387
 11
91.101295228
 21
80.9326039387
  0
LINE
  5
312
100
AcDbEntity
  8
0
100
AcDbLine
 62
7
  6
CONTINUOUS
 10
94.101295228
 20
83.3826039387
 11
94.101295228
 21
67.7826039387
  0
LINE
  5
313
100
AcDbEntity
  8
0
100
AcDbLine
 62
7
  6
CONTINUOUS
 10
94.301295228
 20
67.9826039387
 11
94.301295228
 21
83.1826039387
  0
LINE
  5
314
100
AcDbEntity
  8
0
100
AcDbLine
 62
7
  6
CONTINUOUS
 10
95.501295228
 20
67.9826039387
 11
95.501295228
 21
83.1826039387
  0
LINE
  5
315
100
AcDbEntity
  8
0
100
AcDbLine
 62
7
  6
CONTINUOUS
 10
93.1715594454
 20
71.4481631813
 11
93.2012374677
 21
71.8483581497
  0
LINE
  5
316
100
AcDbEntity
  8
0
100
AcDbLine
 62
7
  6
CONTINUOUS
 10
93.1690877638
 20
78.9326039387
 11
93.2012871074
 21
79.3326039387
  0
ARC
  5
317
100
AcDbEntity
  8
0
100
AcDbCircle
 62
7
  6
CONTINUOUS
 10
30.001295228
 20
69.7826039387
 40
0.5
100
AcDbArc
 50
180.0
 51
270.0
  0
ARC
  5
318
100
AcDbEntity
  8
0
100
AcDbCircle
 62
7
  6
CONTINUOUS
 10
20.501295228
 20
67.9826039387
 40
0.2
100
AcDbArc
 50
180.0
 51
270.0
  0
ARC
  5
319
100
AcDbEntity
  8
0
100
AcDbCircle
 62
7
  6
CONTINUOUS
 10
19.301295228
 20
67.9826039387
 40
0.2
100
AcDbArc
 50
221.0104533819
 51
270.0
  0
ARC
  5
31A
100
AcDbEntity
  8
0
100
AcDbCircle
 62
7
  6
CONTINUOUS
 10
23.401295228
 20
71.3326039387
 40
0.1
100
AcDbArc
 50
0.0
 51
90.0
  0
ARC
  5
31B
100
AcDbEntity
  8
0
100
AcDbCircle
 62
7
  6
CONTINUOUS
 10
24.401295228
 20
71.3326039387
 40
0.1
100
AcDbArc
 50
90.0
 51
180.0
  0
CIRCLE
  5
31C
100
AcDbEntity
  8
0
100
AcDbCircle
 62
7
  6
CONTINUOUS
 10
23.901295228
 20
71.8326039387
 40
2.65
  0
ARC
  5
31D
100
AcDbEntity
  8
0
100
AcDbCircle
 62
7
  6
CONTINUOUS
 10
23.901295228
 20
71.8326039387
 40
2.5
100
AcDbArc
 50
9.2068962213
 51
350.7931037787
  0
ARC
  5
31E
100
AcDbEntity
  8
0
100
AcDbCircle
 62
7
  6
CONTINUOUS
 10
23.901295228
 20
71.8326039387
 40
2.2
100
AcDbArc
 50
10.4756816964
 51
169.5243183036
  0
ARC
  5
31F
100
AcDbEntity
  8
0
100
AcDbCircle
 62
7
  6
CONTINUOUS
 10
23.901295228
 20
71.8326039387
 40
2.2
100
AcDbArc
 50
190.4756816964
 51
349.5243183036
  0
ARC
  5
320
100
AcDbEntity
  8
0
100
AcDbCircle
 62
7
  6
CONTINUOUS
 10
23.901295228
 20
71.8326039387
 40
1.3876815526
100
AcDbArc
 50
73.2467507844
 51
106.7532492156
  0
ARC
  5
321
100
AcDbEntity
  8
0
100
AcDbCircle
 62
7
  6
CONTINUOUS
 10
23.901295228
 20
71.8326039387
 40
1.3876815526
100
AcDbArc
 50
163.2467507844
 51
196.7532492156
  0
ARC
  5
322
100
AcDbEntity
  8
0
100
AcDbCircle
 62
7
  6
CONTINUOUS
 10
23.901295228
 20
71.8326039387
 40
1.3876815526
100
AcDbArc
 50
253.2467507844
 51
286.7532492156
  0
ARC
  5
323
100
AcDbEntity
  8
0
100
AcDbCircle
 62
7
  6
CONTINUOUS
 10
23.901295228
 20
71.8326039387
 40
1.3876815526
100
AcDbArc
 50
343.2467507844
 51
16.7532492156
  0
ARC
  5
324
100
AcDbEntity
  8
0
100
AcDbCircle
 62
7
  6
CONTINUOUS
 10
23.901295228
 20
71.8326039387
 40
0.7597753402
100
AcDbArc
 50
58.2326487549
 51
121.7673512451
  0
ARC
  5
325
100
AcDbEntity
  8
0
100
AcDbCircle
 62
7
  6
CONTINUOUS
 10
23.901295228
 20
71.8326039387
 40
0.7597753402
100
AcDbArc
 50
148.232648755
 51
211.767351245
  0
ARC
  5
326
100
AcDbEntity
  8
0
100
AcDbCircle
 62
7
  6
CONTINUOUS
 10
23.901295228
 20
71.8326039387
 40
0.7597753402
100
AcDbArc
 50
328.2326487547
 51
31.7673512453
  0
ARC
  5
327
100
AcDbEntity
  8
0
100
AcDbCircle
 62
7
  6
CONTINUOUS
 10
23.901295228
 20
71.8326039387
 40
0.7597753402
100
AcDbArc
 50
238.2326487549
 51
301.7673512451
  0
CIRCLE
  5
328
100
AcDbEntity
  8
0
100
AcDbCircle
 62
7
  6
CONTINUOUS
 10
23.901295228
 20
71.8326039387
 40
0.4
  0
ARC
  5
329
100
AcDbEntity
  8
0
100
AcDbCircle
 62
7
  6
CONTINUOUS
 10
24.401295228
 20
72.3326039387
 40
0.1
100
AcDbArc
 50
180.0
 51
270.0
  0
ARC
  5
32A
100
AcDbEntity
  8
0
100
AcDbCircle
 62
7
  6
CONTINUOUS
 10
23.401295228
 20
72.3326039387
 40
0.1
100
AcDbArc
 50
270.0
 51
360.0
  0
ARC
  5
32B
100
AcDbEntity
  8
0
100
AcDbCircle
 62
7
  6
CONTINUOUS
 10
30.851295228
 20
74.2286075559
 40
2.0732050808
100
AcDbArc
 50
130.6295470494
 51
229.3704529506
  0
ARC
  5
32C
100
AcDbEntity
  8
0
100
AcDbCircle
 62
7
  6
CONTINUOUS
 10
30.851295228
 20
74.2286075559
 40
1.9
100
AcDbArc
 50
133.1012387722
 51
223.9551174707
  0
CIRCLE
  5
32D
100
AcDbEntity
  8
0
100
AcDbCircle
 62
7
  6
CONTINUOUS
 10
33.801295228
 20
75.5826039387
 40
1.5
  0
ARC
  5
32E
100
AcDbEntity
  8
0
100
AcDbCircle
 62
7
  6
CONTINUOUS
 10
37.601295228
 20
69.7826039387
 40
0.5
100
AcDbArc
 50
270.0
 51
360.0
  0
ARC
  5
32F
100
AcDbEntity
  8
0
100
AcDbCircle
 62
7
  6
CONTINUOUS
 10
40.301295228
 20
69.7826039387
 40
0.5
100
AcDbArc
 50
180.0
 51
270.0
  0
ARC
  5
330
100
AcDbEntity
  8
0
100
AcDbCircle
 62
7
  6
CONTINUOUS
 10
54.701295228
 20
69.3826039387
 40
0.2
100
AcDbArc
 50
211.8417866987
 51
270.0
  0
ARC
  5
331
100
AcDbEntity
  8
0
100
AcDbCircle
 62
7
  6
CONTINUOUS
 10
39.901295228
 20
67.9826039387
 40
0.2
100
AcDbArc
 50
270.0000000001
 51
360.0
  0
ARC
  5
332
100
AcDbEntity
  8
0
100
AcDbCircle
 62
7
  6
CONTINUOUS
 10
39.001295228
 20
67.9826039387
 40
0.2
100
AcDbArc
 50
180.0
 51
270.0
  0
ARC
  5
333
100
AcDbEntity
  8
0
100
AcDbCircle
 62
7
  6
CONTINUOUS
 10
23.401295228
 20
78.8326039387
 40
0.1
100
AcDbArc
 50
0.0
 51
90.0
  0
ARC
  5
334
100
AcDbEntity
  8
0
100
AcDbCircle
 62
7
  6
CONTINUOUS
 10
24.401295228
 20
78.8326039387
 40
0.1
100
AcDbArc
 50
90.0
 51
180.0
  0
CIRCLE
  5
335
100
AcDbEntity
  8
0
100
AcDbCircle
 62
7
  6
CONTINUOUS
 10
23.901295228
 20
79.3326039387
 40
2.65
  0
ARC
  5
336
100
AcDbEntity
  8
0
100
AcDbCircle
 62
7
  6
CONTINUOUS
 10
23.901295228
 20
79.3326039387
 40
2.5
100
AcDbArc
 50
9.2068962213
 51
350.7931037787
  0
ARC
  5
337
100
AcDbEntity
  8
0
100
AcDbCircle
 62
7
  6
CONTINUOUS
 10
23.901295228
 20
79.3326039387
 40
2.2
100
AcDbArc
 50
10.4756816964
 51
169.5243183036
  0
ARC
  5
338
100
AcDbEntity
  8
0
100
AcDbCircle
 62
7
  6
CONTINUOUS
 10
23.901295228
 20
79.3326039387
 40
2.2
100
AcDbArc
 50
190.4756816964
 51
349.5243183036
  0
ARC
  5
339
100
AcDbEntity
  8
0
100
AcDbCircle
 62
7
  6
CONTINUOUS
 10
23.901295228
 20
79.3326039387
 40
1.3876815526
100
AcDbArc
 50
73.2467507844
 51
106.7532492156
  0
ARC
  5
33A
100
AcDbEntity
  8
0
100
AcDbCircle
 62
7
  6
CONTINUOUS
 10
23.901295228
 20
79.3326039387
 40
1.3876815526
100
AcDbArc
 50
163.2467507844
 51
196.7532492156
  0
ARC
  5
33B
100
AcDbEntity
  8
0
100
AcDbCircle
 62
7
  6
CONTINUOUS
 10
23.901295228
 20
79.3326039387
 40
1.3876815526
100
AcDbArc
 50
253.2467507844
 51
286.7532492156
  0
ARC
  5
33C
100
AcDbEntity
  8
0
100
AcDbCircle
 62
7
  6
CONTINUOUS
 10
23.901295228
 20
79.3326039387
 40
1.3876815526
100
AcDbArc
 50
343.2467507844
 51
16.7532492156
  0
ARC
  5
33D
100
AcDbEntity
  8
0
100
AcDbCircle
 62
7
  6
CONTINUOUS
 10
23.901295228
 20
79.3326039387
 40
0.7597753402
100
AcDbArc
 50
58.232648755
 51
121.767351245
  0
ARC
  5
33E
100
AcDbEntity
  8
0
100
AcDbCircle
 62
7
  6
CONTINUOUS
 10
23.901295228
 20
79.3326039387
 40
0.7597753402
100
AcDbArc
 50
148.232648755
 51
211.767351245
  0
ARC
  5
33F
100
AcDbEntity
  8
0
100
AcDbCircle
 62
7
  6
CONTINUOUS
 10
23.901295228
 20
79.3326039387
 40
0.7597753402
100
AcDbArc
 50
328.2326487547
 51
31.7673512453
  0
ARC
  5
340
100
AcDbEntity
  8
0
100
AcDbCircle
 62
7
  6
CONTINUOUS
 10
23.901295228
 20
79.3326039387
 40
0.7597753402
100
AcDbArc
 50
238.232648755
 51
301.767351245
  0
CIRCLE
  5
341
100
AcDbEntity
  8
0
100
AcDbCircle
 62
7
  6
CONTINUOUS
 10
23.901295228
 20
79.3326039387
 40
0.4
  0
ARC
  5
342
100
AcDbEntity
  8
0
100
AcDbCircle
 62
7
  6
CONTINUOUS
 10
24.401295228
 20
79.8326039387
 40
0.1
100
AcDbArc
 50
180.0
 51
270.0
  0
ARC
  5
343
100
AcDbEntity
  8
0
100
AcDbCircle
 62
7
  6
CONTINUOUS
 10
23.401295228
 20
79.8326039387
 40
0.1
100
AcDbArc
 50
270.0
 51
360.0
  0
CIRCLE
  5
344
100
AcDbEntity
  8
0
100
AcDbCircle
 62
7
  6
CONTINUOUS
 10
33.801295228
 20
79.2663044556
 40
0.5
  0
ARC
  5
345
100
AcDbEntity
  8
0
100
AcDbCircle
 62
7
  6
CONTINUOUS
 10
30.001295228
 20
81.3826039387
 40
0.5
100
AcDbArc
 50
90.0
 51
180.0
  0
ARC
  5
346
100
AcDbEntity
  8
0
100
AcDbCircle
 62
7
  6
CONTINUOUS
 10
19.301295228
 20
83.1826039387
 40
0.2
100
AcDbArc
 50
90.0
 51
112.5155483413
  0
ARC
  5
347
100
AcDbEntity
  8
0
100
AcDbCircle
 62
7
  6
CONTINUOUS
 10
20.501295228
 20
83.1826039387
 40
0.2
100
AcDbArc
 50
90.0
 51
180.0
  0
ARC
  5
348
100
AcDbEntity
  8
0
100
AcDbCircle
 62
7
  6
CONTINUOUS
 10
37.601295228
 20
81.3826039387
 40
0.5
100
AcDbArc
 50
0.0
 51
90.0
  0
ARC
  5
349
100
AcDbEntity
  8
0
100
AcDbCircle
 62
7
  6
CONTINUOUS
 10
40.301295228
 20
81.2826039387
 40
0.5
100
AcDbArc
 50
90.0
 51
180.0
  0
ARC
  5
34A
100
AcDbEntity
  8
0
100
AcDbCircle
 62
7
  6
CONTINUOUS
 10
39.001295228
 20
83.1826039387
 40
0.2
100
AcDbArc
 50
90.0
 51
180.0
  0
ARC
  5
34B
100
AcDbEntity
  8
0
100
AcDbCircle
 62
7
  6
CONTINUOUS
 10
54.701295228
 20
81.7826039387
 40
0.2
100
AcDbArc
 50
90.0
 51
180.0
  0
ARC
  5
34C
100
AcDbEntity
  8
0
100
AcDbCircle
 62
7
  6
CONTINUOUS
 10
39.901295228
 20
83.1826039387
 40
0.2
100
AcDbArc
 50
0.0
 51
90.0
  0
ARC
  5
34D
100
AcDbEntity
  8
0
100
AcDbCircle
 62
7
  6
CONTINUOUS
 10
58.7346285613
 20
67.3826039387
 40
1.0
100
AcDbArc
 50
90.0000000001
 51
126.8698976456
  0
ARC
  5
34E
100
AcDbEntity
  8
0
100
AcDbCircle
 62
7
  6
CONTINUOUS
 10
68.301295228
 20
69.7826039387
 40
0.5
100
AcDbArc
 50
270.0
 51
360.0
  0
ARC
  5
34F
100
AcDbEntity
  8
0
100
AcDbCircle
 62
7
  6
CONTINUOUS
 10
63.901295228
 20
68.9826039387
 40
0.2
100
AcDbArc
 50
0.0000000004
 51
89.9999999997
  0
ARC
  5
350
100
AcDbEntity
  8
0
100
AcDbCircle
 62
7
  6
CONTINUOUS
 10
69.701295228
 20
67.9826039387
 40
0.2
100
AcDbArc
 50
180.0
 51
270.0
  0
ARC
  5
351
100
AcDbEntity
  8
0
100
AcDbCircle
 62
7
  6
CONTINUOUS
 10
73.6052680336
 20
71.1904451576
 40
0.1
100
AcDbArc
 50
20.2508873188
 51
110.2508873333
  0
ARC
  5
352
100
AcDbEntity
  8
0
100
AcDbCircle
 62
7
  6
CONTINUOUS
 10
73.2591364469
 20
72.1286311331
 40
0.1
100
AcDbArc
 50
290.2508873386
 51
20.2508873323
  0
ARC
  5
353
100
AcDbEntity
  8
0
100
AcDbCircle
 62
7
  6
CONTINUOUS
 10
74.5434540091
 20
71.5365767443
 40
0.1
100
AcDbArc
 50
110.2508873374
 51
200.2508873323
  0
CIRCLE
  5
354
100
AcDbEntity
  8
0
100
AcDbCircle
 62
7
  6
CONTINUOUS
 10
73.901295228
 20
71.8326039387
 40
2.65
  0
ARC
  5
355
100
AcDbEntity
  8
0
100
AcDbCircle
 62
7
  6
CONTINUOUS
 10
73.901295228
 20
71.8326039387
 40
2.5
100
AcDbArc
 50
29.4577835575
 51
11.0439911148
  0
ARC
  5
356
100
AcDbEntity
  8
0
100
AcDbCircle
 62
7
  6
CONTINUOUS
 10
73.901295228
 20
71.8326039387
 40
2.2
100
AcDbArc
 50
30.7265690325
 51
189.7752056397
  0
ARC
  5
357
100
AcDbEntity
  8
0
100
AcDbCircle
 62
7
  6
CONTINUOUS
 10
73.901295228
 20
71.8326039387
 40
2.2
100
AcDbArc
 50
210.7265690325
 51
9.7752056397
  0
ARC
  5
358
100
AcDbEntity
  8
0
100
AcDbCircle
 62
7
  6
CONTINUOUS
 10
73.901295228
 20
71.8326039387
 40
1.3876815526
100
AcDbArc
 50
93.4976381206
 51
127.0041365518
  0
ARC
  5
359
100
AcDbEntity
  8
0
100
AcDbCircle
 62
7
  6
CONTINUOUS
 10
73.901295228
 20
71.8326039387
 40
1.3876815526
100
AcDbArc
 50
183.4976381206
 51
217.0041365516
  0
ARC
  5
35A
100
AcDbEntity
  8
0
100
AcDbCircle
 62
7
  6
CONTINUOUS
 10
73.901295228
 20
71.8326039387
 40
1.3876815526
100
AcDbArc
 50
273.4976381206
 51
307.0041365518
  0
ARC
  5
35B
100
AcDbEntity
  8
0
100
AcDbCircle
 62
7
  6
CONTINUOUS
 10
73.901295228
 20
71.8326039387
 40
1.3876815526
100
AcDbArc
 50
3.4976381205
 51
37.0041365518
  0
ARC
  5
35C
100
AcDbEntity
  8
0
100
AcDbCircle
 62
7
  6
CONTINUOUS
 10
73.901295228
 20
71.8326039387
 40
0.7597753402
100
AcDbArc
 50
78.4835360907
 51
142.0182385814
  0
ARC
  5
35D
100
AcDbEntity
  8
0
100
AcDbCircle
 62
7
  6
CONTINUOUS
 10
73.901295228
 20
71.8326039387
 40
0.7597753402
100
AcDbArc
 50
168.483536091
 51
232.0182385812
  0
ARC
  5
35E
100
AcDbEntity
  8
0
100
AcDbCircle
 62
7
  6
CONTINUOUS
 10
73.901295228
 20
71.8326039387
 40
0.7597753402
100
AcDbArc
 50
348.483536091
 51
52.0182385812
  0
ARC
  5
35F
100
AcDbEntity
  8
0
100
AcDbCircle
 62
7
  6
CONTINUOUS
 10
73.901295228
 20
71.8326039387
 40
0.7597753402
100
AcDbArc
 50
258.4835360907
 51
322.0182385814
  0
CIRCLE
  5
360
100
AcDbEntity
  8
0
100
AcDbCircle
 62
7
  6
CONTINUOUS
 10
73.901295228
 20
71.8326039387
 40
0.4
  0
ARC
  5
361
100
AcDbEntity
  8
0
100
AcDbCircle
 62
7
  6
CONTINUOUS
 10
74.1973224224
 20
72.4747627199
 40
0.1
100
AcDbArc
 50
200.2508873188
 51
290.2508873342
  0
ARC
  5
362
100
AcDbEntity
  8
0
100
AcDbCircle
 62
7
  6
CONTINUOUS
 10
86.901295228
 20
67.9826039387
 40
0.2
100
AcDbArc
 50
270.0
 51
360.0
  0
ARC
  5
363
100
AcDbEntity
  8
0
100
AcDbCircle
 62
7
  6
CONTINUOUS
 10
94.101295228
 20
67.9826039387
 40
0.2
100
AcDbArc
 50
270.0
 51
360.0
  0
ARC
  5
364
100
AcDbEntity
  8
0
100
AcDbCircle
 62
7
  6
CONTINUOUS
 10
95.301295228
 20
67.9826039387
 40
0.2
100
AcDbArc
 50
270.0
 51
360.0
  0
ARC
  5
365
100
AcDbEntity
  8
0
100
AcDbCircle
 62
7
  6
CONTINUOUS
 10
85.701295228
 20
67.9826039387
 40
0.2
100
AcDbArc
 50
270.0
 51
360.0
  0
ARC
  5
366
100
AcDbEntity
  8
0
100
AcDbCircle
 62
7
  6
CONTINUOUS
 10
78.501295228
 20
67.9826039387
 40
0.2
100
AcDbArc
 50
270.0
 51
360.0
  0
ARC
  5
367
100
AcDbEntity
  8
0
100
AcDbCircle
 62
7
  6
CONTINUOUS
 10
77.301295228
 20
67.9826039387
 40
0.2
100
AcDbArc
 50
270.0
 51
360.0
  0
ARC
  5
368
100
AcDbEntity
  8
0
100
AcDbCircle
 62
7
  6
CONTINUOUS
 10
81.6071154213
 20
71.6980142068
 40
0.1
100
AcDbArc
 50
325.9725465784
 51
55.9725465751
  0
ARC
  5
369
100
AcDbEntity
  8
0
100
AcDbCircle
 62
7
  6
CONTINUOUS
 10
82.43588496
 20
71.138424132
 40
0.1
100
AcDbArc
 50
55.9725465832
 51
145.9725465834
  0
CIRCLE
  5
36A
100
AcDbEntity
  8
0
100
AcDbCircle
 62
7
  6
CONTINUOUS
 10
82.301295228
 20
71.8326039387
 40
2.65
  0
ARC
  5
36B
100
AcDbEntity
  8
0
100
AcDbCircle
 62
7
  6
CONTINUOUS
 10
82.301295228
 20
71.8326039387
 40
2.5
100
AcDbArc
 50
65.1794428022
 51
46.7656503595
  0
ARC
  5
36C
100
AcDbEntity
  8
0
100
AcDbCircle
 62
7
  6
CONTINUOUS
 10
82.301295228
 20
71.8326039387
 40
2.2
100
AcDbArc
 50
66.4482282773
 51
225.4968648845
  0
ARC
  5
36D
100
AcDbEntity
  8
0
100
AcDbCircle
 62
7
  6
CONTINUOUS
 10
82.301295228
 20
71.8326039387
 40
2.2
100
AcDbArc
 50
246.4482282773
 51
45.4968648845
  0
ARC
  5
36E
100
AcDbEntity
  8
0
100
AcDbCircle
 62
7
  6
CONTINUOUS
 10
82.301295228
 20
71.8326039387
 40
1.3876815526
100
AcDbArc
 50
129.2192973652
 51
162.7257957963
  0
ARC
  5
36F
100
AcDbEntity
  8
0
100
AcDbCircle
 62
7
  6
CONTINUOUS
 10
82.301295228
 20
71.8326039387
 40
1.3876815526
100
AcDbArc
 50
219.2192973651
 51
252.7257957963
  0
ARC
  5
370
100
AcDbEntity
  8
0
100
AcDbCircle
 62
7
  6
CONTINUOUS
 10
82.301295228
 20
71.8326039387
 40
1.3876815526
100
AcDbArc
 50
309.2192973652
 51
342.7257957963
  0
ARC
  5
371
100
AcDbEntity
  8
0
100
AcDbCircle
 62
7
  6
CONTINUOUS
 10
82.301295228
 20
71.8326039387
 40
1.3876815526
100
AcDbArc
 50
39.2192973653
 51
72.7257957965
  0
ARC
  5
372
100
AcDbEntity
  8
0
100
AcDbCircle
 62
7
  6
CONTINUOUS
 10
82.301295228
 20
71.8326039387
 40
0.7597753402
100
AcDbArc
 50
114.2051953356
 51
177.7398978259
  0
ARC
  5
373
100
AcDbEntity
  8
0
100
AcDbCircle
 62
7
  6
CONTINUOUS
 10
82.301295228
 20
71.8326039387
 40
0.7597753402
100
AcDbArc
 50
204.2051953357
 51
267.7398978259
  0
ARC
  5
374
100
AcDbEntity
  8
0
100
AcDbCircle
 62
7
  6
CONTINUOUS
 10
82.301295228
 20
71.8326039387
 40
0.7597753402
100
AcDbArc
 50
24.2051953357
 51
87.7398978259
  0
ARC
  5
375
100
AcDbEntity
  8
0
100
AcDbCircle
 62
7
  6
CONTINUOUS
 10
82.301295228
 20
71.8326039387
 40
0.7597753402
100
AcDbArc
 50
294.2051953356
 51
357.7398978259
  0
CIRCLE
  5
376
100
AcDbEntity
  8
0
100
AcDbCircle
 62
7
  6
CONTINUOUS
 10
82.301295228
 20
71.8326039387
 40
0.4
  0
ARC
  5
377
100
AcDbEntity
  8
0
100
AcDbCircle
 62
7
  6
CONTINUOUS
 10
82.166705496
 20
72.5267837454
 40
0.1
100
AcDbArc
 50
235.9725465832
 51
325.97254658
  0
ARC
  5
378
100
AcDbEntity
  8
0
100
AcDbCircle
 62
7
  6
CONTINUOUS
 10
82.9954750347
 20
71.9671936707
 40
0.1
100
AcDbArc
 50
145.9725465749
 51
235.9725465751
  0
ARC
  5
379
100
AcDbEntity
  8
0
100
AcDbCircle
 62
7
  6
CONTINUOUS
 10
90.2044560084
 20
71.3294630143
 40
0.1
100
AcDbArc
 50
0.3610634825
 51
90.3610634817
  0
ARC
  5
37A
100
AcDbEntity
  8
0
100
AcDbCircle
 62
7
  6
CONTINUOUS
 10
91.2044361525
 20
71.3357647191
 40
0.1
100
AcDbArc
 50
90.3610634823
 51
180.3610634817
  0
CIRCLE
  5
37B
100
AcDbEntity
  8
0
100
AcDbCircle
 62
7
  6
CONTINUOUS
 10
90.701295228
 20
71.8326039387
 40
2.65
  0
ARC
  5
37C
100
AcDbEntity
  8
0
100
AcDbCircle
 62
7
  6
CONTINUOUS
 10
90.701295228
 20
71.8326039387
 40
2.5
100
AcDbArc
 50
9.5679597033
 51
351.1541672606
  0
ARC
  5
37D
100
AcDbEntity
  8
0
100
AcDbCircle
 62
7
  6
CONTINUOUS
 10
90.701295228
 20
71.8326039387
 40
2.2
100
AcDbArc
 50
10.8367451783
 51
169.8853817855
  0
ARC
  5
37E
100
AcDbEntity
  8
0
100
AcDbCircle
 62
7
  6
CONTINUOUS
 10
90.701295228
 20
71.8326039387
 40
2.2
100
AcDbArc
 50
190.8367451783
 51
349.8853817855
  0
ARC
  5
37F
100
AcDbEntity
  8
0
100
AcDbCircle
 62
7
  6
CONTINUOUS
 10
90.701295228
 20
71.8326039387
 40
1.3876815526
100
AcDbArc
 50
73.6078142663
 51
107.1143126975
  0
ARC
  5
380
100
AcDbEntity
  8
0
100
AcDbCircle
 62
7
  6
CONTINUOUS
 10
90.701295228
 20
71.8326039387
 40
1.3876815526
100
AcDbArc
 50
163.6078142663
 51
197.1143126975
  0
ARC
  5
381
100
AcDbEntity
  8
0
100
AcDbCircle
 62
7
  6
CONTINUOUS
 10
90.701295228
 20
71.8326039387
 40
1.3876815526
100
AcDbArc
 50
253.6078142663
 51
287.1143126975
  0
ARC
  5
382
100
AcDbEntity
  8
0
100
AcDbCircle
 62
7
  6
CONTINUOUS
 10
90.701295228
 20
71.8326039387
 40
1.3876815526
100
AcDbArc
 50
343.6078142663
 51
17.1143126975
  0
ARC
  5
383
100
AcDbEntity
  8
0
100
AcDbCircle
 62
7
  6
CONTINUOUS
 10
90.701295228
 20
71.8326039387
 40
0.7597753402
100
AcDbArc
 50
58.5937122368
 51
122.1284147271
  0
ARC
  5
384
100
AcDbEntity
  8
0
100
AcDbCircle
 62
7
  6
CONTINUOUS
 10
90.701295228
 20
71.8326039387
 40
0.7597753402
100
AcDbArc
 50
148.5937122368
 51
212.1284147271
  0
ARC
  5
385
100
AcDbEntity
  8
0
100
AcDbCircle
 62
7
  6
CONTINUOUS
 10
90.701295228
 20
71.8326039387
 40
0.7597753402
100
AcDbArc
 50
328.5937122368
 51
32.1284147271
  0
ARC
  5
386
100
AcDbEntity
  8
0
100
AcDbCircle
 62
7
  6
CONTINUOUS
 10
90.701295228
 20
71.8326039387
 40
0.7597753402
100
AcDbArc
 50
238.5937122368
 51
302.1284147271
  0
CIRCLE
  5
387
100
AcDbEntity
  8
0
100
AcDbCircle
 62
7
  6
CONTINUOUS
 10
90.701295228
 20
71.8326039387
 40
0.4
  0
ARC
  5
388
100
AcDbEntity
  8
0
100
AcDbCircle
 62
7
  6
CONTINUOUS
 10
91.1981344476
 20
72.3357448632
 40
0.1
100
AcDbArc
 50
180.3610634825
 51
270.3610634819
  0
ARC
  5
389
100
AcDbEntity
  8
0
100
AcDbCircle
 62
7
  6
CONTINUOUS
 10
90.1981543035
 20
72.3294431583
 40
0.1
100
AcDbArc
 50
270.3610634821
 51
0.3610634817
  0
ARC
  5
38A
100
AcDbEntity
  8
0
100
AcDbCircle
 62
7
  6
CONTINUOUS
 10
68.301295228
 20
81.2826039387
 40
0.5
100
AcDbArc
 50
0.0
 51
90.0
  0
ARC
  5
38B
100
AcDbEntity
  8
0
100
AcDbCircle
 62
7
  6
CONTINUOUS
 10
73.401295228
 20
78.8326039387
 40
0.1
100
AcDbArc
 50
0.0
 51
90.0
  0
ARC
  5
38C
100
AcDbEntity
  8
0
100
AcDbCircle
 62
7
  6
CONTINUOUS
 10
73.401295228
 20
79.8326039387
 40
0.1
100
AcDbArc
 50
270.0
 51
360.0
  0
ARC
  5
38D
100
AcDbEntity
  8
0
100
AcDbCircle
 62
7
  6
CONTINUOUS
 10
74.401295228
 20
78.8326039387
 40
0.1
100
AcDbArc
 50
90.0
 51
180.0
  0
CIRCLE
  5
38E
100
AcDbEntity
  8
0
100
AcDbCircle
 62
7
  6
CONTINUOUS
 10
73.901295228
 20
79.3326039387
 40
2.65
  0
ARC
  5
38F
100
AcDbEntity
  8
0
100
AcDbCircle
 62
7
  6
CONTINUOUS
 10
73.901295228
 20
79.3326039387
 40
2.5
100
AcDbArc
 50
9.2068962213
 51
350.7931037787
  0
ARC
  5
390
100
AcDbEntity
  8
0
100
AcDbCircle
 62
7
  6
CONTINUOUS
 10
73.901295228
 20
79.3326039387
 40
2.2
100
AcDbArc
 50
10.4756816964
 51
169.5243183036
  0
ARC
  5
391
100
AcDbEntity
  8
0
100
AcDbCircle
 62
7
  6
CONTINUOUS
 10
73.901295228
 20
79.3326039387
 40
2.2
100
AcDbArc
 50
190.4756816964
 51
349.5243183036
  0
ARC
  5
392
100
AcDbEntity
  8
0
100
AcDbCircle
 62
7
  6
CONTINUOUS
 10
73.901295228
 20
79.3326039387
 40
1.3876815526
100
AcDbArc
 50
73.2467507844
 51
106.7532492156
  0
ARC
  5
393
100
AcDbEntity
  8
0
100
AcDbCircle
 62
7
  6
CONTINUOUS
 10
73.901295228
 20
79.3326039387
 40
1.3876815526
100
AcDbArc
 50
163.2467507844
 51
196.7532492156
  0
ARC
  5
394
100
AcDbEntity
  8
0
100
AcDbCircle
 62
7
  6
CONTINUOUS
 10
73.901295228
 20
79.3326039387
 40
1.3876815526
100
AcDbArc
 50
253.2467507844
 51
286.7532492156
  0
ARC
  5
395
100
AcDbEntity
  8
0
100
AcDbCircle
 62
7
  6
CONTINUOUS
 10
73.901295228
 20
79.3326039387
 40
1.3876815526
100
AcDbArc
 50
343.2467507844
 51
16.7532492156
  0
ARC
  5
396
100
AcDbEntity
  8
0
100
AcDbCircle
 62
7
  6
CONTINUOUS
 10
73.901295228
 20
79.3326039387
 40
0.7597753402
100
AcDbArc
 50
58.232648755
 51
121.767351245
  0
ARC
  5
397
100
AcDbEntity
  8
0
100
AcDbCircle
 62
7
  6
CONTINUOUS
 10
73.901295228
 20
79.3326039387
 40
0.7597753402
100
AcDbArc
 50
148.232648755
 51
211.767351245
  0
ARC
  5
398
100
AcDbEntity
  8
0
100
AcDbCircle
 62
7
  6
CONTINUOUS
 10
73.901295228
 20
79.3326039387
 40
0.7597753402
100
AcDbArc
 50
328.232648755
 51
31.767351245
  0
ARC
  5
399
100
AcDbEntity
  8
0
100
AcDbCircle
 62
7
  6
CONTINUOUS
 10
73.901295228
 20
79.3326039387
 40
0.7597753402
100
AcDbArc
 50
238.232648755
 51
301.767351245
  0
CIRCLE
  5
39A
100
AcDbEntity
  8
0
100
AcDbCircle
 62
7
  6
CONTINUOUS
 10
73.901295228
 20
79.3326039387
 40
0.4
  0
ARC
  5
39B
100
AcDbEntity
  8
0
100
AcDbCircle
 62
7
  6
CONTINUOUS
 10
74.401295228
 20
79.8326039387
 40
0.1
100
AcDbArc
 50
180.0
 51
270.0
  0
ARC
  5
39C
100
AcDbEntity
  8
0
100
AcDbCircle
 62
7
  6
CONTINUOUS
 10
58.7346285613
 20
83.8826039387
 40
1.0
100
AcDbArc
 50
233.1301023551
 51
270.0000000001
  0
ARC
  5
39D
100
AcDbEntity
  8
0
100
AcDbCircle
 62
7
  6
CONTINUOUS
 10
63.901295228
 20
82.2826039387
 40
0.2
100
AcDbArc
 50
269.9999999994
 51
360.0
  0
ARC
  5
39E
100
AcDbEntity
  8
0
100
AcDbCircle
 62
7
  6
CONTINUOUS
 10
69.701295228
 20
83.1826039387
 40
0.2
100
AcDbArc
 50
90.0
 51
180.0
  0
ARC
  5
39F
100
AcDbEntity
  8
0
100
AcDbCircle
 62
7
  6
CONTINUOUS
 10
81.801295228
 20
78.8326039387
 40
0.1
100
AcDbArc
 50
0.0
 51
90.0
  0
ARC
  5
3A0
100
AcDbEntity
  8
0
100
AcDbCircle
 62
7
  6
CONTINUOUS
 10
82.801295228
 20
78.8326039387
 40
0.1
100
AcDbArc
 50
90.0
 51
180.0
  0
CIRCLE
  5
3A1
100
AcDbEntity
  8
0
100
AcDbCircle
 62
7
  6
CONTINUOUS
 10
82.301295228
 20
79.3326039387
 40
2.65
  0
ARC
  5
3A2
100
AcDbEntity
  8
0
100
AcDbCircle
 62
7
  6
CONTINUOUS
 10
82.301295228
 20
79.3326039387
 40
2.5
100
AcDbArc
 50
9.2068962213
 51
350.7931037787
  0
ARC
  5
3A3
100
AcDbEntity
  8
0
100
AcDbCircle
 62
7
  6
CONTINUOUS
 10
82.301295228
 20
79.3326039387
 40
2.2
100
AcDbArc
 50
10.4756816964
 51
169.5243183036
  0
ARC
  5
3A4
100
AcDbEntity
  8
0
100
AcDbCircle
 62
7
  6
CONTINUOUS
 10
82.301295228
 20
79.3326039387
 40
2.2
100
AcDbArc
 50
190.4756816964
 51
349.5243183036
  0
ARC
  5
3A5
100
AcDbEntity
  8
0
100
AcDbCircle
 62
7
  6
CONTINUOUS
 10
82.301295228
 20
79.3326039387
 40
1.3876815526
100
AcDbArc
 50
73.2467507844
 51
106.7532492156
  0
ARC
  5
3A6
100
AcDbEntity
  8
0
100
AcDbCircle
 62
7
  6
CONTINUOUS
 10
82.301295228
 20
79.3326039387
 40
1.3876815526
100
AcDbArc
 50
163.2467507844
 51
196.7532492156
  0
ARC
  5
3A7
100
AcDbEntity
  8
0
100
AcDbCircle
 62
7
  6
CONTINUOUS
 10
82.301295228
 20
79.3326039387
 40
1.3876815526
100
AcDbArc
 50
253.2467507844
 51
286.7532492156
  0
ARC
  5
3A8
100
AcDbEntity
  8
0
100
AcDbCircle
 62
7
  6
CONTINUOUS
 10
82.301295228
 20
79.3326039387
 40
1.3876815526
100
AcDbArc
 50
343.2467507844
 51
16.7532492156
  0
ARC
  5
3A9
100
AcDbEntity
  8
0
100
AcDbCircle
 62
7
  6
CONTINUOUS
 10
82.301295228
 20
79.3326039387
 40
0.7597753402
100
AcDbArc
 50
58.232648755
 51
121.767351245
  0
ARC
  5
3AA
100
AcDbEntity
  8
0
100
AcDbCircle
 62
7
  6
CONTINUOUS
 10
82.301295228
 20
79.3326039387
 40
0.7597753402
100
AcDbArc
 50
148.232648755
 51
211.767351245
  0
ARC
  5
3AB
100
AcDbEntity
  8
0
100
AcDbCircle
 62
7
  6
CONTINUOUS
 10
82.301295228
 20
79.3326039387
 40
0.7597753402
100
AcDbArc
 50
328.232648755
 51
31.767351245
  0
ARC
  5
3AC
100
AcDbEntity
  8
0
100
AcDbCircle
 62
7
  6
CONTINUOUS
 10
82.301295228
 20
79.3326039387
 40
0.7597753402
100
AcDbArc
 50
238.232648755
 51
301.767351245
  0
CIRCLE
  5
3AD
100
AcDbEntity
  8
0
100
AcDbCircle
 62
7
  6
CONTINUOUS
 10
82.301295228
 20
79.3326039387
 40
0.4
  0
ARC
  5
3AE
100
AcDbEntity
  8
0
100
AcDbCircle
 62
7
  6
CONTINUOUS
 10
82.801295228
 20
79.8326039387
 40
0.1
100
AcDbArc
 50
180.0
 51
270.0
  0
ARC
  5
3AF
100
AcDbEntity
  8
0
100
AcDbCircle
 62
7
  6
CONTINUOUS
 10
81.801295228
 20
79.8326039387
 40
0.1
100
AcDbArc
 50
270.0
 51
360.0
  0
ARC
  5
3B0
100
AcDbEntity
  8
0
100
AcDbCircle
 62
7
  6
CONTINUOUS
 10
90.201295228
 20
78.8326039387
 40
0.1
100
AcDbArc
 50
0.0
 51
90.0
  0
ARC
  5
3B1
100
AcDbEntity
  8
0
100
AcDbCircle
 62
7
  6
CONTINUOUS
 10
91.201295228
 20
78.8326039387
 40
0.1
100
AcDbArc
 50
90.0
 51
180.0
  0
CIRCLE
  5
3B2
100
AcDbEntity
  8
0
100
AcDbCircle
 62
7
  6
CONTINUOUS
 10
90.701295228
 20
79.3326039387
 40
2.65
  0
ARC
  5
3B3
100
AcDbEntity
  8
0
100
AcDbCircle
 62
7
  6
CONTINUOUS
 10
90.701295228
 20
79.3326039387
 40
2.5
100
AcDbArc
 50
9.2068962213
 51
350.7931037787
  0
ARC
  5
3B4
100
AcDbEntity
  8
0
100
AcDbCircle
 62
7
  6
CONTINUOUS
 10
90.701295228
 20
79.3326039387
 40
2.2
100
AcDbArc
 50
10.4756816964
 51
169.5243183036
  0
ARC
  5
3B5
100
AcDbEntity
  8
0
100
AcDbCircle
 62
7
  6
CONTINUOUS
 10
90.701295228
 20
79.3326039387
 40
2.2
100
AcDbArc
 50
190.4756816964
 51
349.5243183036
  0
ARC
  5
3B6
100
AcDbEntity
  8
0
100
AcDbCircle
 62
7
  6
CONTINUOUS
 10
90.701295228
 20
79.3326039387
 40
1.3876815526
100
AcDbArc
 50
73.2467507844
 51
106.7532492156
  0
ARC
  5
3B7
100
AcDbEntity
  8
0
100
AcDbCircle
 62
7
  6
CONTINUOUS
 10
90.701295228
 20
79.3326039387
 40
1.3876815526
100
AcDbArc
 50
163.2467507844
 51
196.7532492156
  0
ARC
  5
3B8
100
AcDbEntity
  8
0
100
AcDbCircle
 62
7
  6
CONTINUOUS
 10
90.701295228
 20
79.3326039387
 40
1.3876815526
100
AcDbArc
 50
253.2467507844
 51
286.7532492156
  0
ARC
  5
3B9
100
AcDbEntity
  8
0
100
AcDbCircle
 62
7
  6
CONTINUOUS
 10
90.701295228
 20
79.3326039387
 40
1.3876815526
100
AcDbArc
 50
343.2467507844
 51
16.7532492156
  0
ARC
  5
3BA
100
AcDbEntity
  8
0
100
AcDbCircle
 62
7
  6
CONTINUOUS
 10
90.701295228
 20
79.3326039387
 40
0.7597753402
100
AcDbArc
 50
58.232648755
 51
121.767351245
  0
ARC
  5
3BB
100
AcDbEntity
  8
0
100
AcDbCircle
 62
7
  6
CONTINUOUS
 10
90.701295228
 20
79.3326039387
 40
0.7597753402
100
AcDbArc
 50
148.2326487549
 51
211.7673512451
  0
ARC
  5
3BC
100
AcDbEntity
  8
0
100
AcDbCircle
 62
7
  6
CONTINUOUS
 10
90.701295228
 20
79.3326039387
 40
0.7597753402
100
AcDbArc
 50
328.2326487549
 51
31.7673512451
  0
ARC
  5
3BD
100
AcDbEntity
  8
0
100
AcDbCircle
 62
7
  6
CONTINUOUS
 10
90.701295228
 20
79.3326039387
 40
0.7597753402
100
AcDbArc
 50
238.232648755
 51
301.767351245
  0
CIRCLE
  5
3BE
100
AcDbEntity
  8
0
100
AcDbCircle
 62
7
  6
CONTINUOUS
 10
90.701295228
 20
79.3326039387
 40
0.4
  0
ARC
  5
3BF
100
AcDbEntity
  8
0
100
AcDbCircle
 62
7
  6
CONTINUOUS
 10
91.201295228
 20
79.8326039387
 40
0.1
100
AcDbArc
 50
180.0
 51
270.0
  0
ARC
  5
3C0
100
AcDbEntity
  8
0
100
AcDbCircle
 62
7
  6
CONTINUOUS
 10
90.201295228
 20
79.8326039387
 40
0.1
100
AcDbArc
 50
270.0
 51
360.0
  0
ARC
  5
3C1
100
AcDbEntity
  8
0
100
AcDbCircle
 62
7
  6
CONTINUOUS
 10
78.501295228
 20
83.1826039387
 40
0.2
100
AcDbArc
 50
0.0
 51
90.0
  0
ARC
  5
3C2
100
AcDbEntity
  8
0
100
AcDbCircle
 62
7
  6
CONTINUOUS
 10
86.901295228
 20
83.1826039387
 40
0.2
100
AcDbArc
 50
0.0
 51
90.0
  0
ARC
  5
3C3
100
AcDbEntity
  8
0
100
AcDbCircle
 62
7
  6
CONTINUOUS
 10
95.301295228
 20
83.1826039387
 40
0.2
100
AcDbArc
 50
0.0
 51
90.0
  0
ARC
  5
3C4
100
AcDbEntity
  8
0
100
AcDbCircle
 62
7
  6
CONTINUOUS
 10
94.101295228
 20
83.1826039387
 40
0.2
100
AcDbArc
 50
0.0
 51
90.0
  0
ARC
  5
3C5
100
AcDbEntity
  8
0
100
AcDbCircle
 62
7
  6
CONTINUOUS
 10
85.701295228
 20
83.1826039387
 40
0.2
100
AcDbArc
 50
0.0
 51
90.0
  0
ARC
  5
3C6
100
AcDbEntity
  8
0
100
AcDbCircle
 62
7
  6
CONTINUOUS
 10
77.301295228
 20
83.1826039387
 40
0.2
100
AcDbArc
 50
0.0
 51
90.0
  0
SPLINE
  5
3C7
100
AcDbEntity
  8
0
100
AcDbSpline
 62
7
  6
CONTINUOUS
 70
0
 71
3
 72
11
 73
7
 74
0
 42
0.0000001
 43
0.0000001
 44
0.0000000001
 40
0.0
 40
0.0
 40
0.0
 40
0.0
 40
0.2935333939
 40
0.5692841891
 40
0.8099909075
 40
1.0
 40
1.0
 40
1.0
 40
1.0
 10
47.7620244821
 20
72.5474807026
 30
0.0
 10
47.7620245103
 20
72.630179832
 30
0.0
 10
47.7682309191
 20
72.7906135102
 30
0.0
 10
47.7916715325
 20
73.0177321837
 30
0.0
 10
47.8182479892
 20
73.2148642962
 30
0.0
 10
47.8319635258
 20
73.3356971401
 30
0.0
 10
47.8331850858
 20
73.3892157353
 30
0.0
  0
SPLINE
  5
3C8
100
AcDbEntity
  8
0
100
AcDbSpline
 62
7
  6
CONTINUOUS
 70
0
 71
3
 72
11
 73
7
 74
0
 42
0.0000001
 43
0.0000001
 44
0.0000000001
 40
0.0
 40
0.0
 40
0.0
 40
0.0
 40
0.1900090853
 40
0.430715821
 40
0.7064666113
 40
1.0
 40
1.0
 40
1.0
 40
1.0
 10
47.8331850858
 20
77.875992168
 30
0.0
 10
47.8319635255
 20
77.9295107596
 30
0.0
 10
47.8182479831
 20
78.0503436022
 30
0.0
 10
47.7916715342
 20
78.2474757112
 30
0.0
 10
47.768230914
 20
78.4745943794
 30
0.0
 10
47.7620245102
 20
78.6350280503
 30
0.0
 10
47.7620244821
 20
78.7177271758
 30
0.0
  0
SPLINE
  5
3C9
100
AcDbEntity
  8
0
100
AcDbSpline
 62
7
  6
CONTINUOUS
 70
0
 71
3
 72
12
 73
8
 74
0
 42
0.0000001
 43
0.0000001
 44
0.0000000001
 40
0.0
 40
0.0
 40
0.0
 40
0.0
 40
0.3397991536
 40
0.6287360916
 40
0.7459754177
 40
0.8449176357
 40
1.0
 40
1.0
 40
1.0
 40
1.0
 10
51.3302516709
 20
81.7826039387
 30
0.0
 10
51.3302516709
 20
81.8093497799
 30
0.0
 10
51.3257611441
 20
81.8589235114
 30
0.0
 10
51.3090240383
 20
81.9158763555
 30
0.0
 10
51.2890877101
 20
81.9505854355
 30
0.0
 10
51.2701492825
 20
81.9727890649
 30
0.0
 10
51.2503367206
 20
81.9826039387
 30
0.0
 10
51.2381300737
 20
81.9826039387
 30
0.0
  0
SPLINE
  5
3CA
100
AcDbEntity
  8
0
100
AcDbSpline
 62
7
  6
CONTINUOUS
 70
0
 71
3
 72
11
 73
7
 74
0
 42
0.0000001
 43
0.0000001
 44
0.0000000001
 40
0.0
 40
0.0
 40
0.0
 40
0.0
 40
0.2477311936
 40
0.4967974633
 40
0.7477396905
 40
1.0
 40
1.0
 40
1.0
 40
1.0
 10
11.7652560085
 20
83.3532194669
 30
0.0
 10
11.7397296933
 20
83.3532194669
 30
0.0
 10
11.687964583
 20
83.3427391348
 30
0.0
 10
11.6227747352
 20
83.2980806625
 30
0.0
 10
11.5792772373
 20
83.2316150021
 30
0.0
 10
11.5691398734
 20
83.1792124639
 30
0.0
 10
11.5691398734
 20
83.1532194669
 30
0.0
  0
SPLINE
  5
3CB
100
AcDbEntity
  8
0
100
AcDbSpline
 62
7
  6
CONTINUOUS
 70
0
 71
3
 72
11
 73
7
 74
0
 42
0.0000001
 43
0.0000001
 44
0.0000000001
 40
0.0
 40
0.0
 40
0.0
 40
0.0
 40
0.2522603095
 40
0.5032025367
 40
0.7522688064
 40
1.0
 40
1.0
 40
1.0
 40
1.0
 10
11.5691398734
 20
68.0532194669
 30
0.0
 10
11.5691398734
 20
68.0272264698
 30
0.0
 10
11.5792772373
 20
67.9748239316
 30
0.0
 10
11.6227747352
 20
67.9083582712
 30
0.0
 10
11.687964583
 20
67.8636997989
 30
0.0
 10
11.7397296933
 20
67.8532194669
 30
0.0
 10
11.7652560085
 20
67.8532194669
 30
0.0
  0
SPLINE
  5
3CC
100
AcDbEntity
  8
0
100
AcDbSpline
 62
7
  6
CONTINUOUS
 70
0
 71
3
 72
10
 73
6
 74
0
 42
0.0000001
 43
0.0000001
 44
0.0000000001
 40
0.0
 40
0.0
 40
0.0
 40
0.0
 40
0.1808777486
 40
0.5250358228
 40
1.0
 40
1.0
 40
1.0
 40
1.0
 10
51.2381300737
 20
69.1826039387
 30
0.0
 10
51.2458525808
 20
69.1826039387
 30
0.0
 10
51.2683825254
 20
69.1894192064
 30
0.0
 10
51.2973357584
 20
69.2233876179
 30
0.0
 10
51.3102644517
 20
69.2561135194
 30
0.0
 10
51.3159486011
 20
69.2755789914
 30
0.0
  0
SPLINE
  5
3CD
100
AcDbEntity
  8
0
100
AcDbSpline
 62
7
  6
CONTINUOUS
 70
0
 71
3
 72
11
 73
7
 74
0
 42
0.0000001
 43
0.0000001
 44
0.0000000001
 40
0.0
 40
0.0
 40
0.0
 40
0.0
 40
0.2487137907
 40
0.4981831845
 40
0.748716837
 40
1.0
 40
1.0
 40
1.0
 40
1.0
 10
39.6290577438
 20
67.7826039387
 30
0.0
 10
39.6547930045
 20
67.7826039387
 30
0.0
 10
39.7069143412
 20
67.7930524999
 30
0.0
 10
39.772658989
 20
67.8376468654
 30
0.0
 10
39.8165918459
 20
67.9041183601
 30
0.0
 10
39.8268450144
 20
67.9566028163
 30
0.0
 10
39.8268450144
 20
67.9826039387
 30
0.0
  0
SPLINE
  5
3CE
100
AcDbEntity
  8
0
100
AcDbSpline
 62
7
  6
CONTINUOUS
 70
0
 71
3
 72
11
 73
7
 74
0
 42
0.0000001
 43
0.0000001
 44
0.0000000001
 40
0.0
 40
0.0
 40
0.0
 40
0.0
 40
0.2512831864
 40
0.5018168114
 40
0.7512861809
 40
1.0
 40
1.0
 40
1.0
 40
1.0
 10
39.8268450144
 20
83.1826039387
 30
0.0
 10
39.8268450144
 20
83.2086050635
 30
0.0
 10
39.8165918444
 20
83.2610895192
 30
0.0
 10
39.7726589891
 20
83.3275610108
 30
0.0
 10
39.7069143444
 20
83.3721553754
 30
0.0
 10
39.6547930075
 20
83.3826039387
 30
0.0
 10
39.6290577438
 20
83.3826039387
 30
0.0
  0
ELLIPSE
  5
3CF
100
AcDbEntity
  8
0
100
AcDbEllipse
 62
7
  6
CONTINUOUS
 10
11.5052560085
 20
83.1532194669
 30
0.0
 11
0.2039607805
 21
0.0
 31
0.0
 40
0.9805806757
 41
1.5707963268
 42
3.1415926536
  0
ELLIPSE
  5
3D0
100
AcDbEntity
  8
0
100
AcDbEllipse
 62
7
  6
CONTINUOUS
 10
11.5052560085
 20
68.0532194669
 30
0.0
 11
-0.2039607805
 21
0.0
 31
0.0
 40
0.9805806757
 41
0.0
 42
1.5707963268
  0
ELLIPSE
  5
3D1
100
AcDbEntity
  8
0
100
AcDbEllipse
 62
7
  6
CONTINUOUS
 10
39.831295228
 20
81.7826039387
 30
0.0
 11
-0.0
 21
0.2
 31
0.0
 40
0.15
 41
-0.0
 42
0.1488899476
  0
ELLIPSE
  5
3D2
100
AcDbEntity
  8
0
100
AcDbEllipse
 62
7
  6
CONTINUOUS
 10
39.831295228
 20
69.3826039387
 30
0.0
 11
-0.0
 21
0.2
 31
0.0
 40
0.15
 41
-3.2904826012
 42
-3.1415926536
  0
ELLIPSE
  5
3D3
100
AcDbEntity
  8
0
100
AcDbEllipse
 62
7
  6
CONTINUOUS
 10
59.8902537797
 20
82.2826039387
 30
0.0
 11
-0.0
 21
0.2
 31
0.0
 40
0.4447927585
 41
-4.7123889804
 42
-3.1415926536
  0
ELLIPSE
  5
3D4
100
AcDbEntity
  8
0
100
AcDbEllipse
 62
7
  6
CONTINUOUS
 10
59.8902537797
 20
68.9826039387
 30
0.0
 11
-0.0
 21
0.2
 31
0.0
 40
0.4447927585
 41
0.0
 42
1.5707963268
  0
ENDSEC
  0
SECTION
  2
OBJECTS
  0
DICTIONARY
  5
C
100
AcDbDictionary
280
0
281
1
  3
ACAD_GROUP
350
D
  3
ACAD_MLINESTYLE
350
17
  3
ACAD_LAYOUT
350
1A
  3
ACAD_PLOTSETTINGS
350
19
  3
ACAD_PLOTSTYLENAME
350
E
  0
DICTIONARY
  5
D
102
{ACAD_REACTORS
330
C
102
}
100
AcDbDictionary
280
0
281
1
  0
ACDBDICTIONARYWDFLT
  5
E
102
{ACAD_REACTORS
330
C
102
}
100
AcDbDictionary
281
1
  3
Normal
350
F
100
AcDbDictionaryWithDefault
340
F
  0
DICTIONARY
  5
17
102
{ACAD_REACTORS
330
C
102
}
100
AcDbDictionary
280
0
281
1
  3
Standard
350
18
  0
DICTIONARY
  5
19
102
{ACAD_REACTORS
330
C
102
}
100
AcDbDictionary
281
1
  0
DICTIONARY
  5
1A
102
{ACAD_REACTORS
330
C
102
}
100
AcDbDictionary
281
1
  3
Model
350
3D5
  3
Layout1
350
3D6
  0
ACDBPLACEHOLDER
  5
F
102
{ACAD_REACTORS
330
E
102
}
  0
MLINESTYLE
  5
18
102
{ACAD_REACTORS
330
17
102
}
100
AcDbMlineStyle
  2
STANDARD
 70
0
  3

 62
256
 51
90.0
 52
90.0
 71
2
 49
0.5
 62
256
  6
BYLAYER
 49
-0.5
 62
256
  6
BYLAYER
  0
LAYOUT
  5
3D5
102
{ACAD_REACTORS
330
1A
102
}
100
AcDbPlotSettings
  1

  2
none_device
  4

  6

 40
0.0
 41
0.0
 42
0.0
 43
0.0
 44
210.0
 45
297.0
 46
0.0
 47
0.0
 48
0.0
 49
0.0
140
0.0
141
0.0
142
1.0
143
1.0
 70
1024
 72
1
 73
0
 74
0
  7

 75
0
147
1.0
148
0.0
149
0.0
100
AcDbLayout
  1
Model
 70
0
 71
0
 10
0.0
 20
0.0
 11
210.0
 21
297.0
 12
0.0
 22
0.0
 32
0.0
 14
0.0
 24
0.0
 34
0.0
 15
0.0
 25
0.0
 35
0.0
146
0.0
 13
0.0
 23
0.0
 33
0.0
 16
1.0
 26
0.0
 36
0.0
 17
0.0
 27
1.0
 37
0.0
 76
0
330
210
345
0
346
0
  0
LAYOUT
  5
3D6
102
{ACAD_REACTORS
330
1A
102
}
100
AcDbPlotSettings
  1

  2
none_device
  4

  6

 40
0.0
 41
0.0
 42
0.0
 43
0.0
 44
210.0
 45
297.0
 46
0.0
 47
0.0
 48
0.0
 49
0.0
140
0.0
141
0.0
142
1.0
143
1.0
 70
0
 72
1
 73
0
 74
0
  7

 75
0
147
1.0
148
0.0
149
0.0
100
AcDbLayout
  1
Layout1
 70
0
 71
1
 10
0.0
 20
0.0
 11
210.0
 21
297.0
 12
0.0
 22
0.0
 32
0.0
 14
0.0
 24
0.0
 34
0.0
 15
0.0
 25
0.0
 35
0.0
146
0.0
 13
0.0
 23
0.0
 33
0.0
 16
1.0
 26
0.0
 36
0.0
 17
0.0
 27
1.0
 37
0.0
 76
0
330
211
345
0
346
0
  0
ENDSEC
  0
EOF
