999
DXF file: C:\Users\sesa63760\Dev\_Creo\CAD\MCADID0004041_3D-CAD\drw0001_6.dxf
999
Pro/ENGINEER 2019471 by Parametric Technology Corporation
  0
SECTION
  2
HEADER
  9
$ACADVER
  1
AC1024
  9
$DWGCODEPAGE
  3
ANSI_1252
  9
$EXTMAX
 10
92.9086267489
 20
131.3993435449
 30
0.0
  9
$EXTMIN
 10
0.0
 20
0.0
 30
0.0
  9
$LIMMIN
 10
0.0
 20
0.0
  9
$LIMMAX
 10
92.9086267489
 20
131.3993435449
  9
$VIEWCTR
 10
46.4543133744
 20
65.6996717724
  9
$VIEWSIZE
 40
131.3993435449
  9
$CLAYER
  8
0
  9
$LTSCALE
 40
8.5652905422
  9
$CELTYPE
  6
BYLAYER
  9
$DIMSCALE
 40
1.0
  9
$DIMASZ
 40
1.1060550803
  9
$DIMEXO
 40
1.0
  9
$DIMDLI
 40
5.9178371019
  9
$DIMEXE
 40
1.0
  9
$DIMCEN
 40
1.4015929978
  9
$DIMLFAC
 40
1.0
  9
$DIMBLK
  1
_FILLED
  9
$DIMALT
 70
0
  9
$DIMALTF
 40
0.0393700787
  9
$DIMTXT
 40
1.5484771125
  9
$DIMTOL
 70
1
  9
$DIMLIM
 70
0
  9
$DIMTFAC
 40
1.0
  9
$DIMTP
 40
0.01
  9
$DIMTM
 40
0.01
  9
$DIMGAP
 40
0.625
  9
$DIMDSEP
 70
46
  9
$AUNITS
 70
0
  9
$PDMODE
 70
3
  9
$PDSIZE
 40
0.3125
  9
$HANDSEED
  5
39E
  9
$TILEMODE
 70
1
  9
$MEASUREMENT
 70
1
  9
$INSUNITS
 70
4
  0
ENDSEC
  0
SECTION
  2
CLASSES
  0
CLASS
  1
ACDBDICTIONARYWDFLT
  2
AcDbDictionaryWithDefault
  3
AutoCAD 2000
 90
0
 91
1
280
0
281
0
  0
CLASS
  1
ACDBPLACEHOLDER
  2
AcDbPlaceHolder
  3
AutoCAD 2000
 90
0
 91
1
280
0
281
0
  0
CLASS
  1
LAYOUT
  2
AcDbLayout
  3
AutoCAD 2000
 90
0
 91
0
280
0
281
0
  0
ENDSEC
  0
SECTION
  2
TABLES
  0
TABLE
  2
VPORT
  5
8
100
AcDbSymbolTable
 70
2
  0
VPORT
  5
1F4
100
AcDbSymbolTableRecord
100
AcDbViewportTableRecord
  2
*ACTIVE
 70
0
 10
0.0
 20
0.0
 11
1.0
 21
1.0
 12
46.4543133744
 22
65.6996717724
 13
0.0
 23
0.0
 14
1.0
 24
1.0
 15
0.0
 25
0.0
 16
0.0
 26
0.0
 36
1.0
 17
0.0
 27
0.0
 37
0.0
 40
131.3993435449
 41
0.7070707071
 42
50.0
 43
0.0
 44
0.0
 50
0.0
 51
0.0
 71
0
 72
100
 73
1
 74
1
 75
0
 76
0
 77
0
 78
0
  0
ENDTAB
  0
TABLE
  2
LTYPE
  5
5
100
AcDbSymbolTable
 70
6
  0
LTYPE
  5
14
100
AcDbSymbolTableRecord
100
AcDbLinetypeTableRecord
  2
BYBLOCK
 70
0
  3

 72
65
 73
0
 40
0.0
  0
LTYPE
  5
15
100
AcDbSymbolTableRecord
100
AcDbLinetypeTableRecord
  2
BYLAYER
 70
0
  3

 72
65
 73
0
 40
0.0
  0
LTYPE
  5
16
100
AcDbSymbolTableRecord
100
AcDbLinetypeTableRecord
  2
CONTINUOUS
 70
64
  3
Solid line
 72
65
 73
0
 40
0.0
  0
LTYPE
  5
1F5
100
AcDbSymbolTableRecord
100
AcDbLinetypeTableRecord
  2
CENTER
 70
64
  3
____ _ ____ _ ____ _ ____ _ ____ _ ____ _ ____
 72
65
 73
4
 40
0.6
 49
0.375
 74
0
 49
-0.075
 74
0
 49
0.075
 74
0
 49
-0.075
 74
0
  0
LTYPE
  5
1F6
100
AcDbSymbolTableRecord
100
AcDbLinetypeTableRecord
  2
HIDDEN
 70
64
  3
- - - - - - - - - - - - - - - - - - - -
 72
65
 73
2
 40
0.2
 49
0.1
 74
0
 49
-0.1
 74
0
  0
LTYPE
  5
1F7
100
AcDbSymbolTableRecord
100
AcDbLinetypeTableRecord
  2
PHANTOM
 70
64
  3
_____ _ _ _____ _ _ _____ _ _ _____
 72
65
 73
6
 40
0.8
 49
0.45
 74
0
 49
-0.05
 74
0
 49
0.1
 74
0
 49
-0.05
 74
0
 49
0.1
 74
0
 49
-0.05
 74
0
  0
LTYPE
  5
1F8
100
AcDbSymbolTableRecord
100
AcDbLinetypeTableRecord
  2
DOT
 70
64
  3
. . . . . . . . . . . . . . . . . . . .
 72
65
 73
2
 40
0.2
 49
0.1
 74
0
 49
-0.1
 74
0
  0
LTYPE
  5
1F9
100
AcDbSymbolTableRecord
100
AcDbLinetypeTableRecord
  2
DASHED
 70
64
  3
- - - - - - - - - - - - - - - - - - - -
 72
65
 73
2
 40
0.2
 49
0.1
 74
0
 49
-0.1
 74
0
  0
ENDTAB
  0
TABLE
  2
LAYER
  5
2
100
AcDbSymbolTable
 70
36
  0
LAYER
  5
10
100
AcDbSymbolTableRecord
100
AcDbLayerTableRecord
  2
0
 70
0
 62
7
  6
CONTINUOUS
370
-3
390
F
  0
LAYER
  5
1FA
100
AcDbSymbolTableRecord
100
AcDbLayerTableRecord
  2
DEFAULT_1
 70
0
 62
7
  6
CENTER
370
-3
390
F
  0
LAYER
  5
1FB
100
AcDbSymbolTableRecord
100
AcDbLayerTableRecord
  2
DEFAULT_2
 70
0
 62
7
  6
HIDDEN
370
-3
390
F
  0
LAYER
  5
1FC
100
AcDbSymbolTableRecord
100
AcDbLayerTableRecord
  2
DEFAULT_3
 70
0
 62
7
  6
PHANTOM
370
-3
390
F
  0
LAYER
  5
1FD
100
AcDbSymbolTableRecord
100
AcDbLayerTableRecord
  2
00_COMPONENTS
 70
0
 62
7
  6
CONTINUOUS
370
-3
390
F
  0
LAYER
  5
1FE
100
AcDbSymbolTableRecord
100
AcDbLayerTableRecord
  2
01_1_DEFAULT_DATUMS
 70
0
 62
7
  6
CONTINUOUS
370
-3
390
F
  0
LAYER
  5
1FF
100
AcDbSymbolTableRecord
100
AcDbLayerTableRecord
  2
01_PLANES
 70
0
 62
7
  6
CONTINUOUS
370
-3
390
F
  0
LAYER
  5
200
100
AcDbSymbolTableRecord
100
AcDbLayerTableRecord
  2
02_COORD_SYS
 70
0
 62
7
  6
CONTINUOUS
370
-3
390
F
  0
LAYER
  5
201
100
AcDbSymbolTableRecord
100
AcDbLayerTableRecord
  2
03_AXES
 70
0
 62
7
  6
CONTINUOUS
370
-3
390
F
  0
LAYER
  5
202
100
AcDbSymbolTableRecord
100
AcDbLayerTableRecord
  2
04_POINTS
 70
0
 62
7
  6
CONTINUOUS
370
-3
390
F
  0
LAYER
  5
203
100
AcDbSymbolTableRecord
100
AcDbLayerTableRecord
  2
05_CURVES
 70
0
 62
7
  6
CONTINUOUS
370
-3
390
F
  0
LAYER
  5
204
100
AcDbSymbolTableRecord
100
AcDbLayerTableRecord
  2
06_SURFS
 70
0
 62
7
  6
CONTINUOUS
370
-3
390
F
  0
LAYER
  5
205
100
AcDbSymbolTableRecord
100
AcDbLayerTableRecord
  2
07_COSMETICS
 70
0
 62
7
  6
CONTINUOUS
370
-3
390
F
  0
LAYER
  5
206
100
AcDbSymbolTableRecord
100
AcDbLayerTableRecord
  2
10_NOTES
 70
0
 62
7
  6
CONTINUOUS
370
-3
390
F
  0
LAYER
  5
207
100
AcDbSymbolTableRecord
100
AcDbLayerTableRecord
  2
11_NOTES_PUB
 70
0
 62
7
  6
CONTINUOUS
370
-3
390
F
  0
LAYER
  5
208
100
AcDbSymbolTableRecord
100
AcDbLayerTableRecord
  2
13_REF_GTOL
 70
0
 62
7
  6
CONTINUOUS
370
-3
390
F
  0
LAYER
  5
209
100
AcDbSymbolTableRecord
100
AcDbLayerTableRecord
  2
16_MISC
 70
0
 62
7
  6
CONTINUOUS
370
-3
390
F
  0
LAYER
  5
20A
100
AcDbSymbolTableRecord
100
AcDbLayerTableRecord
  2
17_NO_PRINT
 70
0
 62
7
  6
CONTINUOUS
370
-3
390
F
  0
LAYER
  5
20B
100
AcDbSymbolTableRecord
100
AcDbLayerTableRecord
  2
18_DATUM_CAMS_JOINTS
 70
0
 62
7
  6
CONTINUOUS
370
-3
390
F
  0
LAYER
  5
20C
100
AcDbSymbolTableRecord
100
AcDbLayerTableRecord
  2
19_DATUM_FUNCTIONAL
 70
0
 62
7
  6
CONTINUOUS
370
-3
390
F
  0
LAYER
  5
20D
100
AcDbSymbolTableRecord
100
AcDbLayerTableRecord
  2
20_DATUM_KINEMATIC_SCHEME
 70
0
 62
7
  6
CONTINUOUS
370
-3
390
F
  0
ENDTAB
  0
TABLE
  2
STYLE
  5
3
100
AcDbSymbolTable
 70
1
  0
STYLE
  5
11
100
AcDbSymbolTableRecord
100
AcDbTextStyleTableRecord
  2
STANDARD
 70
0
 40
0.0
 41
1.0
 50
0.0
 71
0
 42
0.2
  3
ARIAL.TTF
  4

  0
STYLE
  5
20E
100
AcDbSymbolTableRecord
100
AcDbTextStyleTableRecord
  2
TEXTSTYLE_1
 70
0
 40
0.0
 41
0.8
 50
0.0
 71
0
 42
0.2
  3
gdt
  4

  0
ENDTAB
  0
TABLE
  2
VIEW
  5
6
100
AcDbSymbolTable
 70
0
  0
ENDTAB
  0
TABLE
  2
UCS
  5
7
100
AcDbSymbolTable
 70
0
  0
ENDTAB
  0
TABLE
  2
APPID
  5
9
100
AcDbSymbolTable
 70
1
  0
APPID
  5
20F
100
AcDbSymbolTableRecord
100
AcDbRegAppTableRecord
  2
ACAD
 70
0
  0
ENDTAB
  0
TABLE
  2
BLOCK_RECORD
  5
1
100
AcDbSymbolTable
 70
0
  0
BLOCK_RECORD
  5
210
100
AcDbSymbolTableRecord
100
AcDbBlockTableRecord
  2
*Model_Space
  0
BLOCK_RECORD
  5
211
100
AcDbSymbolTableRecord
100
AcDbBlockTableRecord
  2
*Paper_Space
  0
BLOCK_RECORD
  5
212
100
AcDbSymbolTableRecord
100
AcDbBlockTableRecord
  2
_FILLED
  0
ENDTAB
  0
TABLE
  2
DIMSTYLE
  5
A
100
AcDbSymbolTable
 70
1
100
AcDbDimStyleTable
 71
0
  0
DIMSTYLE
105
213
100
AcDbSymbolTableRecord
100
AcDbDimStyleTableRecord
  2
STANDARD
 70
0
  3

  4

 40
1.0
 41
1.1060550803
 42
1.0
 43
0.38
 44
1.0
 45
0.0
 46
0.0
 47
0.01
 48
0.01
140
1.5484771125
141
0.09
142
0.0
143
25.4
144
1.0
145
0.0
146
1.0
147
0.625
 71
1
 72
0
 73
0
 74
0
 75
0
 76
0
 77
1
 78
8
 79
2
170
0
171
1
172
0
173
0
174
0
175
0
176
0
177
0
178
0
270
2
179
2
271
2
272
2
273
2
274
2
275
0
280
0
281
0
282
0
283
1
284
8
285
0
286
0
287
3
288
0
340
11
278
46
341
212
342
212
343
212
344
212
  0
ENDTAB
  0
ENDSEC
  0
SECTION
  2
BLOCKS
  0
BLOCK
  5
20
100
AcDbEntity
  8
0
100
AcDbBlockBegin
  2
*Model_Space
 70
0
 10
0.0
 20
0.0
 30
0.0
  3
*Model_Space
  1

  0
ENDBLK
  5
21
100
AcDbEntity
  8
0
100
AcDbBlockEnd
  0
BLOCK
  5
1C
100
AcDbEntity
  8
0
100
AcDbBlockBegin
  2
*Paper_Space
 70
0
 10
0.0
 20
0.0
 30
0.0
  3
*Paper_Space
  1

  0
ENDBLK
  5
1D
100
AcDbEntity
  8
0
100
AcDbBlockEnd
  0
BLOCK
  5
214
100
AcDbEntity
  8
0
100
AcDbBlockBegin
  2
_FILLED
 70
64
 10
0.0
 20
0.0
  3
_FILLED
  1

  0
SOLID
  5
215
100
AcDbEntity
  8
0
  6
BYBLOCK
 62
0
100
AcDbTrace
 10
0.0
 20
0.0
 11
-1.0
 21
0.25
 12
-1.0
 22
-0.25
 13
-1.0
 23
-0.25
  0
ENDBLK
  5
216
100
AcDbEntity
  8
0
  6
BYBLOCK
 62
0
100
AcDbBlockEnd
  0
ENDSEC
  0
SECTION
  2
ENTITIES
  0
LINE
  5
217
100
AcDbEntity
  8
0
100
AcDbLine
 62
7
  6
BYLAYER
 10
10.5084709237
 20
61.0623769886
 11
10.5084709237
 21
63.0623530866
  0
LINE
  5
218
100
AcDbEntity
  8
0
100
AcDbLine
 62
7
  6
BYLAYER
 10
20.5084709237
 20
60.8579947175
 11
20.5084709237
 21
63.2668767768
  0
LINE
  5
219
100
AcDbEntity
  8
0
100
AcDbLine
 62
7
  6
BYLAYER
 10
20.6980037325
 20
60.6572476415
 11
20.6980037325
 21
63.4674825116
  0
LINE
  5
21A
100
AcDbEntity
  8
0
100
AcDbLine
 62
7
  6
BYLAYER
 10
22.3189381149
 20
63.5524320829
 11
22.3189381149
 21
60.5722980701
  0
LINE
  5
21B
100
AcDbEntity
  8
0
100
AcDbLine
 62
7
  6
BYLAYER
 10
22.5084709237
 20
59.6820422124
 11
22.5084709237
 21
71.7174541714
  0
LINE
  5
21C
100
AcDbEntity
  8
0
100
AcDbLine
 62
7
  6
BYLAYER
 10
22.6737412882
 20
59.4847764863
 11
22.6737412882
 21
71.9145670585
  0
LINE
  5
21D
100
AcDbEntity
  8
0
100
AcDbLine
 62
7
  6
BYLAYER
 10
25.5432005592
 20
72.4205301481
 11
25.5432005592
 21
58.9788133968
  0
LINE
  5
21E
100
AcDbEntity
  8
0
100
AcDbLine
 62
7
  6
BYLAYER
 10
25.7084709237
 20
79.7495616619
 11
25.7084709237
 21
51.6497818829
  0
LINE
  5
21F
100
AcDbEntity
  8
0
100
AcDbLine
 62
7
  6
BYLAYER
 10
25.9084709237
 20
51.4496717724
 11
25.9084709237
 21
79.9496717724
  0
LINE
  5
220
100
AcDbEntity
  8
0
100
AcDbLine
 62
7
  6
BYLAYER
 10
32.5084709237
 20
79.9496717724
 11
33.2584709237
 21
80.6996717724
  0
LINE
  5
221
100
AcDbEntity
  8
0
100
AcDbLine
 62
7
  6
BYLAYER
 10
69.2084709237
 20
49.4482616109
 11
69.0084709237
 21
49.3946717724
  0
LINE
  5
222
100
AcDbEntity
  8
0
100
AcDbLine
 62
7
  6
BYLAYER
 10
68.3281011661
 20
45.1650620816
 11
65.6888406813
 21
45.1650620816
  0
LINE
  5
223
100
AcDbEntity
  8
0
100
AcDbLine
 62
7
  6
BYLAYER
 10
75.6888407101
 20
45.1650620816
 11
78.3281011613
 21
45.1650620816
  0
LINE
  5
224
100
AcDbEntity
  8
0
100
AcDbLine
 62
7
  6
BYLAYER
 10
32.5084709237
 20
51.4496717724
 11
33.2584709237
 21
50.6996717724
  0
LINE
  5
225
100
AcDbEntity
  8
0
100
AcDbLine
 62
7
  6
BYLAYER
 10
28.7084709237
 20
79.9496336534
 11
28.7084709237
 21
51.4496537105
  0
LINE
  5
226
100
AcDbEntity
  8
0
100
AcDbLine
 62
7
  6
BYLAYER
 10
28.8084709237
 20
51.4496553598
 11
28.8084709237
 21
79.9496881851
  0
LINE
  5
227
100
AcDbEntity
  8
0
100
AcDbLine
 62
7
  6
BYLAYER
 10
32.5084709237
 20
79.9496717724
 11
32.5084709237
 21
51.4496717724
  0
LINE
  5
228
100
AcDbEntity
  8
0
100
AcDbLine
 62
7
  6
BYLAYER
 10
33.2584709237
 20
50.6996717724
 11
33.2584709237
 21
80.6996717724
  0
LINE
  5
229
100
AcDbEntity
  8
0
100
AcDbLine
 62
7
  6
BYLAYER
 10
83.1084709237
 20
50.6996717724
 11
79.0084709237
 21
50.6996717724
  0
LINE
  5
22A
100
AcDbEntity
  8
0
100
AcDbLine
 62
7
  6
BYLAYER
 10
74.361633781
 20
50.6996717724
 11
69.6553064249
 21
50.6996717724
  0
LINE
  5
22B
100
AcDbEntity
  8
0
100
AcDbLine
 62
7
  6
BYLAYER
 10
65.0084709237
 20
50.6996717724
 11
33.2584709237
 21
50.6996717724
  0
LINE
  5
22C
100
AcDbEntity
  8
0
100
AcDbLine
 62
7
  6
BYLAYER
 10
32.5084709237
 20
51.4496717724
 11
28.8084709237
 21
51.4496717724
  0
LINE
  5
22D
100
AcDbEntity
  8
0
100
AcDbLine
 62
7
  6
BYLAYER
 10
28.7084709237
 20
51.4496717724
 11
25.9084709237
 21
51.4496717724
  0
LINE
  5
22E
100
AcDbEntity
  8
0
100
AcDbLine
 62
7
  6
BYLAYER
 10
28.8084709237
 20
51.4996717724
 11
28.7084709237
 21
51.4996717724
  0
LINE
  5
22F
100
AcDbEntity
  8
0
100
AcDbLine
 62
7
  6
BYLAYER
 10
83.6084709237
 20
51.4996717724
 11
83.9407873021
 21
51.4996717724
  0
LINE
  5
230
100
AcDbEntity
  8
0
100
AcDbLine
 62
7
  6
BYLAYER
 10
68.3281011302
 20
55.057366927
 11
65.6888407128
 21
55.057366927
  0
LINE
  5
231
100
AcDbEntity
  8
0
100
AcDbLine
 62
7
  6
BYLAYER
 10
75.6888407119
 20
55.057366927
 11
78.3281011354
 21
55.057366927
  0
LINE
  5
232
100
AcDbEntity
  8
0
100
AcDbLine
 62
7
  6
BYLAYER
 10
68.3537103626
 20
56.007366927
 11
65.6632314847
 21
56.007366927
  0
LINE
  5
233
100
AcDbEntity
  8
0
100
AcDbLine
 62
7
  6
BYLAYER
 10
75.6632315065
 20
56.007366927
 11
78.3537103408
 21
56.007366927
  0
LINE
  5
234
100
AcDbEntity
  8
0
100
AcDbLine
 62
7
  6
BYLAYER
 10
22.6737412882
 20
59.4847764863
 11
25.5432005592
 21
58.9788133968
  0
LINE
  5
235
100
AcDbEntity
  8
0
100
AcDbLine
 62
7
  6
BYLAYER
 10
74.8084709237
 20
49.4482616109
 11
75.0084709237
 21
49.3946717724
  0
LINE
  5
236
100
AcDbEntity
  8
0
100
AcDbLine
 62
7
  6
BYLAYER
 10
20.6980037325
 20
60.6572476415
 11
22.3189381149
 21
60.5722980701
  0
LINE
  5
237
100
AcDbEntity
  8
0
100
AcDbLine
 62
7
  6
BYLAYER
 10
10.5084709237
 20
61.0623650376
 11
20.5084709237
 21
61.0623650376
  0
LINE
  5
238
100
AcDbEntity
  8
0
100
AcDbLine
 62
7
  6
BYLAYER
 10
10.5084709237
 20
63.0623650376
 11
20.5084709237
 21
63.0623650376
  0
LINE
  5
239
100
AcDbEntity
  8
0
100
AcDbLine
 62
7
  6
BYLAYER
 10
20.6980037325
 20
63.4674825116
 11
22.3189381149
 21
63.5524320829
  0
LINE
  5
23A
100
AcDbEntity
  8
0
100
AcDbLine
 62
7
  6
BYLAYER
 10
74.8084709237
 20
81.9510819339
 11
75.0084709237
 21
82.0046717724
  0
LINE
  5
23B
100
AcDbEntity
  8
0
100
AcDbLine
 62
7
  6
BYLAYER
 10
22.6737412882
 20
71.9145670585
 11
25.5432005592
 21
72.4205301481
  0
LINE
  5
23C
100
AcDbEntity
  8
0
100
AcDbLine
 62
7
  6
BYLAYER
 10
68.3537103409
 20
75.3919766178
 11
65.6632315065
 21
75.3919766178
  0
LINE
  5
23D
100
AcDbEntity
  8
0
100
AcDbLine
 62
7
  6
BYLAYER
 10
75.6632314847
 20
75.3919766178
 11
78.3537103626
 21
75.3919766178
  0
LINE
  5
23E
100
AcDbEntity
  8
0
100
AcDbLine
 62
7
  6
BYLAYER
 10
68.3281011661
 20
76.3419766178
 11
65.6888406813
 21
76.3419766178
  0
LINE
  5
23F
100
AcDbEntity
  8
0
100
AcDbLine
 62
7
  6
BYLAYER
 10
75.6888407101
 20
76.3419766178
 11
78.3281011613
 21
76.3419766178
  0
LINE
  5
240
100
AcDbEntity
  8
0
100
AcDbLine
 62
7
  6
BYLAYER
 10
65.0084709237
 20
83.6996717724
 11
65.6764529938
 21
86.1926147966
  0
LINE
  5
241
100
AcDbEntity
  8
0
100
AcDbLine
 62
7
  6
BYLAYER
 10
28.8084709237
 20
79.8996717724
 11
28.7084709237
 21
79.8996717724
  0
LINE
  5
242
100
AcDbEntity
  8
0
100
AcDbLine
 62
7
  6
BYLAYER
 10
83.6084709237
 20
79.8996717724
 11
83.9407873021
 21
79.8996717724
  0
LINE
  5
243
100
AcDbEntity
  8
0
100
AcDbLine
 62
7
  6
BYLAYER
 10
32.5084709237
 20
79.9496717724
 11
28.8084709237
 21
79.9496717724
  0
LINE
  5
244
100
AcDbEntity
  8
0
100
AcDbLine
 62
7
  6
BYLAYER
 10
28.7084709237
 20
79.9496717724
 11
25.9084709237
 21
79.9496717724
  0
LINE
  5
245
100
AcDbEntity
  8
0
100
AcDbLine
 62
7
  6
BYLAYER
 10
65.0084709237
 20
47.6996717724
 11
65.6764529938
 21
45.2067287483
  0
LINE
  5
246
100
AcDbEntity
  8
0
100
AcDbLine
 62
7
  6
BYLAYER
 10
69.7084709237
 20
66.1996717724
 11
69.2084709237
 21
65.6996717724
  0
LINE
  5
247
100
AcDbEntity
  8
0
100
AcDbLine
 62
7
  6
BYLAYER
 10
83.1084709237
 20
80.6996717724
 11
79.0084709237
 21
80.6996717724
  0
LINE
  5
248
100
AcDbEntity
  8
0
100
AcDbLine
 62
7
  6
BYLAYER
 10
74.3616354224
 20
80.6996717724
 11
69.6553080664
 21
80.6996717724
  0
LINE
  5
249
100
AcDbEntity
  8
0
100
AcDbLine
 62
7
  6
BYLAYER
 10
65.0084709237
 20
80.6996717724
 11
33.2584709237
 21
80.6996717724
  0
LINE
  5
24A
100
AcDbEntity
  8
0
100
AcDbLine
 62
7
  6
BYLAYER
 10
69.7084709237
 20
65.1996717724
 11
69.2084709237
 21
65.6996717724
  0
LINE
  5
24B
100
AcDbEntity
  8
0
100
AcDbLine
 62
7
  6
BYLAYER
 10
65.0084709237
 20
47.6996778449
 11
65.0084709237
 21
83.6996657
  0
LINE
  5
24C
100
AcDbEntity
  8
0
100
AcDbLine
 62
7
  6
BYLAYER
 10
74.3084709237
 20
65.1996717724
 11
74.8084709237
 21
65.6996717724
  0
LINE
  5
24D
100
AcDbEntity
  8
0
100
AcDbLine
 62
7
  6
BYLAYER
 10
74.3084709237
 20
66.1996717724
 11
74.8084709237
 21
65.6996717724
  0
LINE
  5
24E
100
AcDbEntity
  8
0
100
AcDbLine
 62
7
  6
BYLAYER
 10
69.0084709237
 20
83.6996657
 11
69.0084709237
 21
47.6996778449
  0
LINE
  5
24F
100
AcDbEntity
  8
0
100
AcDbLine
 62
7
  6
BYLAYER
 10
69.7084709237
 20
81.8093498946
 11
69.7084709237
 21
81.4862421077
  0
LINE
  5
250
100
AcDbEntity
  8
0
100
AcDbLine
 62
7
  6
BYLAYER
 10
69.7084709237
 20
81.4777835969
 11
69.7084709237
 21
81.2278129959
  0
LINE
  5
251
100
AcDbEntity
  8
0
100
AcDbLine
 62
7
  6
BYLAYER
 10
69.7084709237
 20
81.1310164013
 11
69.7084709237
 21
80.8512053533
  0
LINE
  5
252
100
AcDbEntity
  8
0
100
AcDbLine
 62
7
  6
BYLAYER
 10
69.7084709237
 20
80.6668073555
 11
69.7084709237
 21
80.3592853913
  0
LINE
  5
253
100
AcDbEntity
  8
0
100
AcDbLine
 62
7
  6
BYLAYER
 10
69.7084709237
 20
80.0886893704
 11
69.7084709237
 21
79.755796918
  0
LINE
  5
254
100
AcDbEntity
  8
0
100
AcDbLine
 62
7
  6
BYLAYER
 10
69.7084709237
 20
79.4010622731
 11
69.7084709237
 21
79.045332845
  0
LINE
  5
255
100
AcDbEntity
  8
0
100
AcDbLine
 62
7
  6
BYLAYER
 10
69.7084709237
 20
78.6091593209
 11
69.7084709237
 21
78.2333002329
  0
LINE
  5
256
100
AcDbEntity
  8
0
100
AcDbLine
 62
7
  6
BYLAYER
 10
69.7084709237
 20
77.7190073735
 11
69.7084709237
 21
77.3258791402
  0
LINE
  5
257
100
AcDbEntity
  8
0
100
AcDbLine
 62
7
  6
BYLAYER
 10
69.7084709237
 20
76.7373810248
 11
69.7084709237
 21
76.3299755894
  0
LINE
  5
258
100
AcDbEntity
  8
0
100
AcDbLine
 62
7
  6
BYLAYER
 10
69.7084709237
 20
75.6717510439
 11
69.7084709237
 21
75.2531690078
  0
LINE
  5
259
100
AcDbEntity
  8
0
100
AcDbLine
 62
7
  6
BYLAYER
 10
69.7084709237
 20
74.5302275184
 11
69.7084709237
 21
74.1036545436
  0
LINE
  5
25A
100
AcDbEntity
  8
0
100
AcDbLine
 62
7
  6
BYLAYER
 10
69.7084709237
 20
73.3214981316
 11
69.7084709237
 21
72.8901806961
  0
LINE
  5
25B
100
AcDbEntity
  8
0
100
AcDbLine
 62
7
  6
BYLAYER
 10
69.7084709237
 20
72.0547620441
 11
69.7084709237
 21
71.6219827339
  0
LINE
  5
25C
100
AcDbEntity
  8
0
100
AcDbLine
 62
7
  6
BYLAYER
 10
69.7084709237
 20
70.7396598823
 11
69.7084709237
 21
70.3087124093
  0
LINE
  5
25D
100
AcDbEntity
  8
0
100
AcDbLine
 62
7
  6
BYLAYER
 10
69.7084709237
 20
69.3862003678
 11
69.7084709237
 21
68.9603645025
  0
LINE
  5
25E
100
AcDbEntity
  8
0
100
AcDbLine
 62
7
  6
BYLAYER
 10
69.7084709237
 20
68.0046841446
 11
69.7084709237
 21
67.5872007551
  0
LINE
  5
25F
100
AcDbEntity
  8
0
100
AcDbLine
 62
7
  6
BYLAYER
 10
69.7084709237
 20
66.6056253855
 11
69.7084709237
 21
66.1996717724
  0
LINE
  5
260
100
AcDbEntity
  8
0
100
AcDbLine
 62
7
  6
BYLAYER
 10
69.7084709237
 20
65.1996717724
 11
69.7084709237
 21
64.7937181593
  0
LINE
  5
261
100
AcDbEntity
  8
0
100
AcDbLine
 62
7
  6
BYLAYER
 10
69.7084709237
 20
63.8121427898
 11
69.7084709237
 21
63.3946594002
  0
LINE
  5
262
100
AcDbEntity
  8
0
100
AcDbLine
 62
7
  6
BYLAYER
 10
69.7084709237
 20
62.4389790424
 11
69.7084709237
 21
62.0131431771
  0
LINE
  5
263
100
AcDbEntity
  8
0
100
AcDbLine
 62
7
  6
BYLAYER
 10
69.7084709237
 20
61.0906311355
 11
69.7084709237
 21
60.6596836625
  0
LINE
  5
264
100
AcDbEntity
  8
0
100
AcDbLine
 62
7
  6
BYLAYER
 10
69.7084709237
 20
59.777360811
 11
69.7084709237
 21
59.3445815007
  0
LINE
  5
265
100
AcDbEntity
  8
0
100
AcDbLine
 62
7
  6
BYLAYER
 10
69.7084709237
 20
58.5091628488
 11
69.7084709237
 21
58.0778454132
  0
LINE
  5
266
100
AcDbEntity
  8
0
100
AcDbLine
 62
7
  6
BYLAYER
 10
69.7084709237
 20
57.2956890013
 11
69.7084709237
 21
56.8691160265
  0
LINE
  5
267
100
AcDbEntity
  8
0
100
AcDbLine
 62
7
  6
BYLAYER
 10
69.7084709237
 20
56.1461745371
 11
69.7084709237
 21
55.727592501
  0
LINE
  5
268
100
AcDbEntity
  8
0
100
AcDbLine
 62
7
  6
BYLAYER
 10
69.7084709237
 20
55.0693679554
 11
69.7084709237
 21
54.6619625201
  0
LINE
  5
269
100
AcDbEntity
  8
0
100
AcDbLine
 62
7
  6
BYLAYER
 10
69.7084709237
 20
54.0734644046
 11
69.7084709237
 21
53.6803361713
  0
LINE
  5
26A
100
AcDbEntity
  8
0
100
AcDbLine
 62
7
  6
BYLAYER
 10
69.7084709237
 20
53.1660433119
 11
69.7084709237
 21
52.790184224
  0
LINE
  5
26B
100
AcDbEntity
  8
0
100
AcDbLine
 62
7
  6
BYLAYER
 10
69.7084709237
 20
52.3540106998
 11
69.7084709237
 21
51.9982812718
  0
LINE
  5
26C
100
AcDbEntity
  8
0
100
AcDbLine
 62
7
  6
BYLAYER
 10
69.7084709237
 20
51.6435466268
 11
69.7084709237
 21
51.3106541745
  0
LINE
  5
26D
100
AcDbEntity
  8
0
100
AcDbLine
 62
7
  6
BYLAYER
 10
69.7084709237
 20
51.0400581535
 11
69.7084709237
 21
50.7325361894
  0
LINE
  5
26E
100
AcDbEntity
  8
0
100
AcDbLine
 62
7
  6
BYLAYER
 10
69.7084709237
 20
50.5481381916
 11
69.7084709237
 21
50.2683271435
  0
LINE
  5
26F
100
AcDbEntity
  8
0
100
AcDbLine
 62
7
  6
BYLAYER
 10
69.7084709237
 20
50.1715305489
 11
69.7084709237
 21
49.921559948
  0
LINE
  5
270
100
AcDbEntity
  8
0
100
AcDbLine
 62
7
  6
BYLAYER
 10
69.7084709237
 20
49.9131014371
 11
69.7084709237
 21
49.5899936502
  0
LINE
  5
271
100
AcDbEntity
  8
0
100
AcDbLine
 62
7
  6
BYLAYER
 10
75.0084709237
 20
83.6996717724
 11
75.6764529938
 21
86.1926147966
  0
LINE
  5
272
100
AcDbEntity
  8
0
100
AcDbLine
 62
7
  6
BYLAYER
 10
68.3281011302
 20
86.2342814632
 11
65.6888407128
 21
86.2342814632
  0
LINE
  5
273
100
AcDbEntity
  8
0
100
AcDbLine
 62
7
  6
BYLAYER
 10
75.6888407119
 20
86.2342814632
 11
78.3281011354
 21
86.2342814632
  0
LINE
  5
274
100
AcDbEntity
  8
0
100
AcDbLine
 62
7
  6
BYLAYER
 10
69.2084709237
 20
81.9510819339
 11
69.0084709237
 21
82.0046717724
  0
LINE
  5
275
100
AcDbEntity
  8
0
100
AcDbLine
 62
7
  6
BYLAYER
 10
75.0084709237
 20
47.6996717724
 11
75.6764529938
 21
45.2067287483
  0
LINE
  5
276
100
AcDbEntity
  8
0
100
AcDbLine
 62
7
  6
BYLAYER
 10
74.3084709237
 20
49.5899936502
 11
74.3084709237
 21
49.9131014371
  0
LINE
  5
277
100
AcDbEntity
  8
0
100
AcDbLine
 62
7
  6
BYLAYER
 10
74.3084709237
 20
49.921559948
 11
74.3084709237
 21
50.1715305489
  0
LINE
  5
278
100
AcDbEntity
  8
0
100
AcDbLine
 62
7
  6
BYLAYER
 10
74.3084709237
 20
50.2683271435
 11
74.3084709237
 21
50.5481381916
  0
LINE
  5
279
100
AcDbEntity
  8
0
100
AcDbLine
 62
7
  6
BYLAYER
 10
74.3084709237
 20
50.7325361894
 11
74.3084709237
 21
51.0400581535
  0
LINE
  5
27A
100
AcDbEntity
  8
0
100
AcDbLine
 62
7
  6
BYLAYER
 10
74.3084709237
 20
51.3106541745
 11
74.3084709237
 21
51.6435466268
  0
LINE
  5
27B
100
AcDbEntity
  8
0
100
AcDbLine
 62
7
  6
BYLAYER
 10
74.3084709237
 20
51.9982812718
 11
74.3084709237
 21
52.3540106998
  0
LINE
  5
27C
100
AcDbEntity
  8
0
100
AcDbLine
 62
7
  6
BYLAYER
 10
74.3084709237
 20
52.790184224
 11
74.3084709237
 21
53.1660433119
  0
LINE
  5
27D
100
AcDbEntity
  8
0
100
AcDbLine
 62
7
  6
BYLAYER
 10
74.3084709237
 20
53.6803361713
 11
74.3084709237
 21
54.0734644046
  0
LINE
  5
27E
100
AcDbEntity
  8
0
100
AcDbLine
 62
7
  6
BYLAYER
 10
74.3084709237
 20
54.6619625201
 11
74.3084709237
 21
55.0693679554
  0
LINE
  5
27F
100
AcDbEntity
  8
0
100
AcDbLine
 62
7
  6
BYLAYER
 10
74.3084709237
 20
55.727592501
 11
74.3084709237
 21
56.1461745371
  0
LINE
  5
280
100
AcDbEntity
  8
0
100
AcDbLine
 62
7
  6
BYLAYER
 10
74.3084709237
 20
56.8691160265
 11
74.3084709237
 21
57.2956890013
  0
LINE
  5
281
100
AcDbEntity
  8
0
100
AcDbLine
 62
7
  6
BYLAYER
 10
74.3084709237
 20
58.0778454132
 11
74.3084709237
 21
58.5091628488
  0
LINE
  5
282
100
AcDbEntity
  8
0
100
AcDbLine
 62
7
  6
BYLAYER
 10
74.3084709237
 20
59.3445815007
 11
74.3084709237
 21
59.777360811
  0
LINE
  5
283
100
AcDbEntity
  8
0
100
AcDbLine
 62
7
  6
BYLAYER
 10
74.3084709237
 20
60.6596836625
 11
74.3084709237
 21
61.0906311355
  0
LINE
  5
284
100
AcDbEntity
  8
0
100
AcDbLine
 62
7
  6
BYLAYER
 10
74.3084709237
 20
62.0131431771
 11
74.3084709237
 21
62.4389790424
  0
LINE
  5
285
100
AcDbEntity
  8
0
100
AcDbLine
 62
7
  6
BYLAYER
 10
74.3084709237
 20
63.3946594002
 11
74.3084709237
 21
63.8121427898
  0
LINE
  5
286
100
AcDbEntity
  8
0
100
AcDbLine
 62
7
  6
BYLAYER
 10
74.3084709237
 20
64.7937181593
 11
74.3084709237
 21
65.1996717724
  0
LINE
  5
287
100
AcDbEntity
  8
0
100
AcDbLine
 62
7
  6
BYLAYER
 10
74.3084709237
 20
66.1996717724
 11
74.3084709237
 21
66.6056253855
  0
LINE
  5
288
100
AcDbEntity
  8
0
100
AcDbLine
 62
7
  6
BYLAYER
 10
74.3084709237
 20
67.5872007551
 11
74.3084709237
 21
68.0046841446
  0
LINE
  5
289
100
AcDbEntity
  8
0
100
AcDbLine
 62
7
  6
BYLAYER
 10
74.3084709237
 20
68.9603645025
 11
74.3084709237
 21
69.3862003678
  0
LINE
  5
28A
100
AcDbEntity
  8
0
100
AcDbLine
 62
7
  6
BYLAYER
 10
74.3084709237
 20
70.3087124093
 11
74.3084709237
 21
70.7396598823
  0
LINE
  5
28B
100
AcDbEntity
  8
0
100
AcDbLine
 62
7
  6
BYLAYER
 10
74.3084709237
 20
71.6219827339
 11
74.3084709237
 21
72.0547620441
  0
LINE
  5
28C
100
AcDbEntity
  8
0
100
AcDbLine
 62
7
  6
BYLAYER
 10
74.3084709237
 20
72.8901806961
 11
74.3084709237
 21
73.3214981316
  0
LINE
  5
28D
100
AcDbEntity
  8
0
100
AcDbLine
 62
7
  6
BYLAYER
 10
74.3084709237
 20
74.1036545436
 11
74.3084709237
 21
74.5302275184
  0
LINE
  5
28E
100
AcDbEntity
  8
0
100
AcDbLine
 62
7
  6
BYLAYER
 10
74.3084709237
 20
75.2531690078
 11
74.3084709237
 21
75.6717510439
  0
LINE
  5
28F
100
AcDbEntity
  8
0
100
AcDbLine
 62
7
  6
BYLAYER
 10
74.3084709237
 20
76.3299755894
 11
74.3084709237
 21
76.7373810248
  0
LINE
  5
290
100
AcDbEntity
  8
0
100
AcDbLine
 62
7
  6
BYLAYER
 10
74.3084709237
 20
77.3258791402
 11
74.3084709237
 21
77.7190073735
  0
LINE
  5
291
100
AcDbEntity
  8
0
100
AcDbLine
 62
7
  6
BYLAYER
 10
74.3084709237
 20
78.2333002329
 11
74.3084709237
 21
78.6091593209
  0
LINE
  5
292
100
AcDbEntity
  8
0
100
AcDbLine
 62
7
  6
BYLAYER
 10
74.3084709237
 20
79.045332845
 11
74.3084709237
 21
79.4010622731
  0
LINE
  5
293
100
AcDbEntity
  8
0
100
AcDbLine
 62
7
  6
BYLAYER
 10
74.3084709237
 20
79.755796918
 11
74.3084709237
 21
80.0886893704
  0
LINE
  5
294
100
AcDbEntity
  8
0
100
AcDbLine
 62
7
  6
BYLAYER
 10
74.3084709237
 20
80.3592853913
 11
74.3084709237
 21
80.6668073555
  0
LINE
  5
295
100
AcDbEntity
  8
0
100
AcDbLine
 62
7
  6
BYLAYER
 10
74.3084709237
 20
80.8512053533
 11
74.3084709237
 21
81.1310164013
  0
LINE
  5
296
100
AcDbEntity
  8
0
100
AcDbLine
 62
7
  6
BYLAYER
 10
74.3084709237
 20
81.2278129959
 11
74.3084709237
 21
81.4777835969
  0
LINE
  5
297
100
AcDbEntity
  8
0
100
AcDbLine
 62
7
  6
BYLAYER
 10
74.3084709237
 20
81.4862421077
 11
74.3084709237
 21
81.8093498946
  0
LINE
  5
298
100
AcDbEntity
  8
0
100
AcDbLine
 62
7
  6
BYLAYER
 10
75.0084709237
 20
47.6996778449
 11
75.0084709237
 21
83.6996657
  0
LINE
  5
299
100
AcDbEntity
  8
0
100
AcDbLine
 62
7
  6
BYLAYER
 10
69.0084709237
 20
47.6996717724
 11
68.3404888536
 21
45.2067287483
  0
LINE
  5
29A
100
AcDbEntity
  8
0
100
AcDbLine
 62
7
  6
BYLAYER
 10
69.0084709237
 20
83.6996717724
 11
68.3404888536
 21
86.1926147966
  0
LINE
  5
29B
100
AcDbEntity
  8
0
100
AcDbLine
 62
7
  6
BYLAYER
 10
79.0084709237
 20
83.6996657
 11
79.0084709237
 21
47.6996778449
  0
LINE
  5
29C
100
AcDbEntity
  8
0
100
AcDbLine
 62
7
  6
BYLAYER
 10
83.1084709237
 20
80.6996717724
 11
83.1084709237
 21
50.6996717724
  0
LINE
  5
29D
100
AcDbEntity
  8
0
100
AcDbLine
 62
7
  6
BYLAYER
 10
83.6084709237
 20
80.1995255663
 11
83.6084709237
 21
51.1994941303
  0
LINE
  5
29E
100
AcDbEntity
  8
0
100
AcDbLine
 62
7
  6
BYLAYER
 10
83.8084709237
 20
79.8996717724
 11
83.8084709237
 21
51.4996717724
  0
LINE
  5
29F
100
AcDbEntity
  8
0
100
AcDbLine
 62
7
  6
BYLAYER
 10
84.0084709237
 20
79.7497268635
 11
84.0084709237
 21
51.6496783458
  0
LINE
  5
2A0
100
AcDbEntity
  8
0
100
AcDbLine
 62
7
  6
BYLAYER
 10
79.0084709237
 20
47.6996717724
 11
78.3404888536
 21
45.2067287483
  0
LINE
  5
2A1
100
AcDbEntity
  8
0
100
AcDbLine
 62
7
  6
BYLAYER
 10
83.6084709237
 20
51.1996717724
 11
83.1084709237
 21
50.6996717724
  0
LINE
  5
2A2
100
AcDbEntity
  8
0
100
AcDbLine
 62
7
  6
BYLAYER
 10
83.6084709237
 20
80.1996717724
 11
83.1084709237
 21
80.6996717724
  0
LINE
  5
2A3
100
AcDbEntity
  8
0
100
AcDbLine
 62
7
  6
BYLAYER
 10
79.0084709237
 20
83.6996717724
 11
78.3404888536
 21
86.1926147966
  0
LINE
  5
2A4
100
AcDbEntity
  8
0
100
AcDbLine
 62
7
  6
BYLAYER
 10
83.9407584892
 20
51.4996717724
 11
84.0084709237
 21
51.6496717724
  0
LINE
  5
2A5
100
AcDbEntity
  8
0
100
AcDbLine
 62
7
  6
BYLAYER
 10
83.9407584892
 20
79.8996717724
 11
84.0084709237
 21
79.7496717724
  0
ARC
  5
2A6
100
AcDbEntity
  8
0
100
AcDbCircle
 62
7
  6
BYLAYER
 10
139.5778359178
 20
57.2549729393
 40
63.9267798391
100
AcDbArc
 50
181.1182652667
 51
181.9700407757
  0
ARC
  5
2A7
100
AcDbEntity
  8
0
100
AcDbCircle
 62
7
  6
BYLAYER
 10
4.4391059299
 20
57.2549729407
 40
63.9267798388
100
AcDbArc
 50
358.0299592231
 51
358.8817347321
  0
ARC
  5
2A8
100
AcDbEntity
  8
0
100
AcDbCircle
 62
7
  6
BYLAYER
 10
129.5778348477
 20
57.2549729118
 40
63.9267787686
100
AcDbArc
 50
181.1182652607
 51
181.970040784
  0
ARC
  5
2A9
100
AcDbEntity
  8
0
100
AcDbCircle
 62
7
  6
BYLAYER
 10
14.4391069997
 20
57.2549729105
 40
63.9267787686
100
AcDbArc
 50
358.0299592172
 51
358.8817347405
  0
ARC
  5
2AA
100
AcDbEntity
  8
0
100
AcDbCircle
 62
7
  6
BYLAYER
 10
4.439114573
 20
74.1443728992
 40
63.9267711526
100
AcDbArc
 50
1.1182633625
 51
1.9700389865
  0
ARC
  5
2AB
100
AcDbEntity
  8
0
100
AcDbCircle
 62
7
  6
BYLAYER
 10
139.5778272742
 20
74.1443729032
 40
63.9267711523
100
AcDbArc
 50
178.0299610172
 51
178.8817366412
  0
ARC
  5
2AC
100
AcDbEntity
  8
0
100
AcDbCircle
 62
7
  6
BYLAYER
 10
129.5778232062
 20
74.1443730089
 40
63.926767083
100
AcDbArc
 50
178.0299609864
 51
178.8817366646
  0
ARC
  5
2AD
100
AcDbEntity
  8
0
100
AcDbCircle
 62
7
  6
BYLAYER
 10
14.4391186413
 20
74.1443730129
 40
63.9267670828
100
AcDbArc
 50
1.1182633317
 51
1.97003901
  0
ARC
  5
2AE
100
AcDbEntity
  8
0
100
AcDbCircle
 62
7
  6
BYLAYER
 10
20.7084709237
 20
60.8569735484
 40
0.2
100
AcDbArc
 50
180.0000000016
 51
267.0
  0
ARC
  5
2AF
100
AcDbEntity
  8
0
100
AcDbCircle
 62
7
  6
BYLAYER
 10
20.7084709237
 20
63.2677566046
 40
0.2
100
AcDbArc
 50
93.0
 51
180.0
  0
ARC
  5
2B0
100
AcDbEntity
  8
0
100
AcDbCircle
 62
7
  6
BYLAYER
 10
22.3084709237
 20
63.7521579899
 40
0.2
100
AcDbArc
 50
273.0
 51
360.0
  0
ARC
  5
2B1
100
AcDbEntity
  8
0
100
AcDbCircle
 62
7
  6
BYLAYER
 10
22.3084709237
 20
60.3725721632
 40
0.2
100
AcDbArc
 50
0.0
 51
87.0
  0
ARC
  5
2B2
100
AcDbEntity
  8
0
100
AcDbCircle
 62
7
  6
BYLAYER
 10
22.7084709237
 20
59.6817380369
 40
0.2
100
AcDbArc
 50
180.0
 51
260.0
  0
ARC
  5
2B3
100
AcDbEntity
  8
0
100
AcDbCircle
 62
7
  6
BYLAYER
 10
22.7084709237
 20
71.7176055079
 40
0.2
100
AcDbArc
 50
100.0
 51
180.0
  0
ARC
  5
2B4
100
AcDbEntity
  8
0
100
AcDbCircle
 62
7
  6
BYLAYER
 10
25.5084709237
 20
58.7818518462
 40
0.2
100
AcDbArc
 50
0.0
 51
80.0
  0
ARC
  5
2B5
100
AcDbEntity
  8
0
100
AcDbCircle
 62
7
  6
BYLAYER
 10
25.5084709237
 20
72.6174916987
 40
0.2
100
AcDbArc
 50
280.0
 51
360.0
  0
ARC
  5
2B6
100
AcDbEntity
  8
0
100
AcDbCircle
 62
7
  6
BYLAYER
 10
25.9084709237
 20
51.6496717724
 40
0.2
100
AcDbArc
 50
180.0
 51
270.0
  0
ARC
  5
2B7
100
AcDbEntity
  8
0
100
AcDbCircle
 62
7
  6
BYLAYER
 10
25.9084709237
 20
79.7496717724
 40
0.2
100
AcDbArc
 50
90.0
 51
180.0
  0
SPLINE
  5
2B8
100
AcDbEntity
  8
0
100
AcDbSpline
 62
7
  6
BYLAYER
 70
0
 71
3
 72
10
 73
6
 74
0
 42
0.0000001
 43
0.0000001
 44
0.0000000001
 40
0.0
 40
0.0
 40
0.0
 40
0.0
 40
0.2479559383
 40
0.4968689641
 40
1.0
 40
1.0
 40
1.0
 40
1.0
 10
65.0084709522
 20
81.2881314675
 30
0.0
 10
65.0084710107
 20
81.7017651236
 30
0.0
 10
65.0393246875
 20
82.5309702814
 30
0.0
 10
65.2208295797
 20
84.1903141934
 30
0.0
 10
65.4790844743
 20
85.4216045237
 30
0.0
 10
65.6888407128
 20
86.2342814632
 30
0.0
  0
SPLINE
  5
2B9
100
AcDbEntity
  8
0
100
AcDbSpline
 62
7
  6
BYLAYER
 70
0
 71
3
 72
10
 73
6
 74
0
 42
0.0000001
 43
0.0000001
 44
0.0000000001
 40
0.0
 40
0.0
 40
0.0
 40
0.0
 40
0.2479559942
 40
0.4968691215
 40
1.0
 40
1.0
 40
1.0
 40
1.0
 10
69.0084708977
 20
50.1112170011
 30
0.0
 10
69.0084709767
 20
49.697582895
 30
0.0
 10
68.977617652
 20
48.8683765856
 30
0.0
 10
68.7961024118
 20
47.2090325425
 30
0.0
 10
68.5378574888
 20
45.9777394684
 30
0.0
 10
68.3281011372
 20
45.1650620816
 30
0.0
  0
SPLINE
  5
2BA
100
AcDbEntity
  8
0
100
AcDbSpline
 62
7
  6
BYLAYER
 70
0
 71
3
 72
10
 73
6
 74
0
 42
0.0000001
 43
0.0000001
 44
0.0000000001
 40
0.0
 40
0.0
 40
0.0
 40
0.0
 40
0.5031309294
 40
0.7520439742
 40
1.0
 40
1.0
 40
1.0
 40
1.0
 10
65.6888406861
 20
45.1650620816
 30
0.0
 10
65.4790843251
 20
45.9777395096
 30
0.0
 10
65.2208323662
 20
47.2090316483
 30
0.0
 10
65.0393322305
 20
48.8683770539
 30
0.0
 10
65.0084708911
 20
49.6975827936
 30
0.0
 10
65.0084709522
 20
50.1112169313
 30
0.0
  0
SPLINE
  5
2BB
100
AcDbEntity
  8
0
100
AcDbSpline
 62
7
  6
BYLAYER
 70
0
 71
3
 72
10
 73
6
 74
0
 42
0.0000001
 43
0.0000001
 44
0.0000000001
 40
0.0
 40
0.0
 40
0.0
 40
0.0
 40
0.5031308781
 40
0.7520440155
 40
1.0
 40
1.0
 40
1.0
 40
1.0
 10
68.3281011302
 20
86.2342814632
 30
0.0
 10
68.5378572787
 20
85.4216048733
 30
0.0
 10
68.7961012521
 20
84.1903129662
 30
0.0
 10
68.9776190905
 20
82.5309707945
 30
0.0
 10
69.0084708537
 20
81.7017652221
 30
0.0
 10
69.0084708977
 20
81.2881315373
 30
0.0
  0
SPLINE
  5
2BC
100
AcDbEntity
  8
0
100
AcDbSpline
 62
7
  6
BYLAYER
 70
0
 71
3
 72
10
 73
6
 74
0
 42
0.0000001
 43
0.0000001
 44
0.0000000001
 40
0.0
 40
0.0
 40
0.0
 40
0.0
 40
0.2479559942
 40
0.4968691215
 40
1.0
 40
1.0
 40
1.0
 40
1.0
 10
69.0084708977
 20
81.2881315373
 30
0.0
 10
69.0084709767
 20
80.8744974312
 30
0.0
 10
68.977617652
 20
80.0452911218
 30
0.0
 10
68.7961024118
 20
78.3859470787
 30
0.0
 10
68.5378574888
 20
77.1546540046
 30
0.0
 10
68.3281011372
 20
76.3419766178
 30
0.0
  0
SPLINE
  5
2BD
100
AcDbEntity
  8
0
100
AcDbSpline
 62
7
  6
BYLAYER
 70
0
 71
3
 72
10
 73
6
 74
0
 42
0.0000001
 43
0.0000001
 44
0.0000000001
 40
0.0
 40
0.0
 40
0.0
 40
0.0
 40
0.4999749991
 40
0.7499876268
 40
1.0
 40
1.0
 40
1.0
 40
1.0
 10
68.3537103409
 20
75.3919766178
 30
0.0
 10
68.5578576396
 20
73.7849558182
 30
0.0
 10
68.8058375937
 20
71.3658797482
 30
0.0
 10
68.9790057987
 20
68.12998244
 30
0.0
 10
69.0084709237
 20
66.5097202596
 30
0.0
 10
69.0084709237
 20
65.6996717724
 30
0.0
  0
SPLINE
  5
2BE
100
AcDbEntity
  8
0
100
AcDbSpline
 62
7
  6
BYLAYER
 70
0
 71
3
 72
10
 73
6
 74
0
 42
0.0000001
 43
0.0000001
 44
0.0000000001
 40
0.0
 40
0.0
 40
0.0
 40
0.0
 40
0.5031309294
 40
0.7520439742
 40
1.0
 40
1.0
 40
1.0
 40
1.0
 10
65.6888406861
 20
76.3419766178
 30
0.0
 10
65.4790843251
 20
77.1546540458
 30
0.0
 10
65.2208323662
 20
78.3859461845
 30
0.0
 10
65.0393322305
 20
80.0452915901
 30
0.0
 10
65.0084708911
 20
80.8744973298
 30
0.0
 10
65.0084709522
 20
81.2881314675
 30
0.0
  0
SPLINE
  5
2BF
100
AcDbEntity
  8
0
100
AcDbSpline
 62
7
  6
BYLAYER
 70
0
 71
3
 72
10
 73
6
 74
0
 42
0.0000001
 43
0.0000001
 44
0.0000000001
 40
0.0
 40
0.0
 40
0.0
 40
0.0
 40
0.2500123748
 40
0.5000250032
 40
1.0
 40
1.0
 40
1.0
 40
1.0
 10
65.0084709237
 20
65.6996717724
 30
0.0
 10
65.0084709237
 20
66.5097202648
 30
0.0
 10
65.037936045
 20
68.1299824528
 30
0.0
 10
65.211104256
 20
71.3658797608
 30
0.0
 10
65.4590842087
 20
73.7849558256
 30
0.0
 10
65.6632315065
 20
75.3919766178
 30
0.0
  0
SPLINE
  5
2C0
100
AcDbEntity
  8
0
100
AcDbSpline
 62
7
  6
BYLAYER
 70
0
 71
3
 72
10
 73
6
 74
0
 42
0.0000001
 43
0.0000001
 44
0.0000000001
 40
0.0
 40
0.0
 40
0.0
 40
0.0
 40
0.4999749991
 40
0.7499876268
 40
1.0
 40
1.0
 40
1.0
 40
1.0
 10
65.6632315065
 20
56.007366927
 30
0.0
 10
65.4590842078
 20
57.6143877267
 30
0.0
 10
65.2111042536
 20
60.0334637966
 30
0.0
 10
65.0379360486
 20
63.2693611049
 30
0.0
 10
65.0084709237
 20
64.8896232852
 30
0.0
 10
65.0084709237
 20
65.6996717724
 30
0.0
  0
SPLINE
  5
2C1
100
AcDbEntity
  8
0
100
AcDbSpline
 62
7
  6
BYLAYER
 70
0
 71
3
 72
10
 73
6
 74
0
 42
0.0000001
 43
0.0000001
 44
0.0000000001
 40
0.0
 40
0.0
 40
0.0
 40
0.0
 40
0.2479559383
 40
0.4968689641
 40
1.0
 40
1.0
 40
1.0
 40
1.0
 10
65.0084709522
 20
50.1112169313
 30
0.0
 10
65.0084710107
 20
50.5248505874
 30
0.0
 10
65.0393246875
 20
51.3540557452
 30
0.0
 10
65.2208295797
 20
53.0133996572
 30
0.0
 10
65.4790844743
 20
54.2446899875
 30
0.0
 10
65.6888407128
 20
55.057366927
 30
0.0
  0
SPLINE
  5
2C2
100
AcDbEntity
  8
0
100
AcDbSpline
 62
7
  6
BYLAYER
 70
0
 71
3
 72
10
 73
6
 74
0
 42
0.0000001
 43
0.0000001
 44
0.0000000001
 40
0.0
 40
0.0
 40
0.0
 40
0.0
 40
0.2500123748
 40
0.5000250032
 40
1.0
 40
1.0
 40
1.0
 40
1.0
 10
69.0084709237
 20
65.6996717724
 30
0.0
 10
69.0084709237
 20
64.88962328
 30
0.0
 10
68.9790058024
 20
63.269361092
 30
0.0
 10
68.8058375914
 20
60.033463784
 30
0.0
 10
68.5578576386
 20
57.6143877192
 30
0.0
 10
68.3537103409
 20
56.007366927
 30
0.0
  0
SPLINE
  5
2C3
100
AcDbEntity
  8
0
100
AcDbSpline
 62
7
  6
BYLAYER
 70
0
 71
3
 72
10
 73
6
 74
0
 42
0.0000001
 43
0.0000001
 44
0.0000000001
 40
0.0
 40
0.0
 40
0.0
 40
0.0
 40
0.5031308781
 40
0.7520440155
 40
1.0
 40
1.0
 40
1.0
 40
1.0
 10
68.3281011302
 20
55.057366927
 30
0.0
 10
68.5378572787
 20
54.2446903371
 30
0.0
 10
68.7961012521
 20
53.01339843
 30
0.0
 10
68.9776190906
 20
51.3540562583
 30
0.0
 10
69.0084708537
 20
50.5248506859
 30
0.0
 10
69.0084708977
 20
50.1112170011
 30
0.0
  0
SPLINE
  5
2C4
100
AcDbEntity
  8
0
100
AcDbSpline
 62
7
  6
BYLAYER
 70
0
 71
3
 72
10
 73
6
 74
0
 42
0.0000001
 43
0.0000001
 44
0.0000000001
 40
0.0
 40
0.0
 40
0.0
 40
0.0
 40
0.5031310391
 40
0.7520440639
 40
1.0
 40
1.0
 40
1.0
 40
1.0
 10
78.3281011346
 20
86.2342814632
 30
0.0
 10
78.5378573744
 20
85.4216045184
 30
0.0
 10
78.7961122688
 20
84.1903141843
 30
0.0
 10
78.9776171618
 20
82.5309702723
 30
0.0
 10
79.0084708367
 20
81.7017651198
 30
0.0
 10
79.0084708952
 20
81.2881314675
 30
0.0
  0
SPLINE
  5
2C5
100
AcDbEntity
  8
0
100
AcDbSpline
 62
7
  6
BYLAYER
 70
0
 71
3
 72
10
 73
6
 74
0
 42
0.0000001
 43
0.0000001
 44
0.0000000001
 40
0.0
 40
0.0
 40
0.0
 40
0.0
 40
0.5031308811
 40
0.7520440076
 40
1.0
 40
1.0
 40
1.0
 40
1.0
 10
75.6888407101
 20
76.3419766178
 30
0.0
 10
75.4790843575
 20
77.1546540088
 30
0.0
 10
75.2208394319
 20
78.3859470858
 30
0.0
 10
75.0393242001
 20
80.0452911296
 30
0.0
 10
75.0084708707
 20
80.8744974343
 30
0.0
 10
75.0084709496
 20
81.2881315373
 30
0.0
  0
SPLINE
  5
2C6
100
AcDbEntity
  8
0
100
AcDbSpline
 62
7
  6
BYLAYER
 70
0
 71
3
 72
10
 73
6
 74
0
 42
0.0000001
 43
0.0000001
 44
0.0000000001
 40
0.0
 40
0.0
 40
0.0
 40
0.0
 40
0.2500123748
 40
0.5000250032
 40
1.0
 40
1.0
 40
1.0
 40
1.0
 10
75.0084709237
 20
65.6996717724
 30
0.0
 10
75.0084709237
 20
66.5097202648
 30
0.0
 10
75.037936045
 20
68.1299824528
 30
0.0
 10
75.211104256
 20
71.3658797608
 30
0.0
 10
75.4590842088
 20
73.7849558256
 30
0.0
 10
75.6632315065
 20
75.3919766178
 30
0.0
  0
SPLINE
  5
2C7
100
AcDbEntity
  8
0
100
AcDbSpline
 62
7
  6
BYLAYER
 70
0
 71
3
 72
10
 73
6
 74
0
 42
0.0000001
 43
0.0000001
 44
0.0000000001
 40
0.0
 40
0.0
 40
0.0
 40
0.0
 40
0.5031308811
 40
0.7520440076
 40
1.0
 40
1.0
 40
1.0
 40
1.0
 10
75.6888407101
 20
45.1650620816
 30
0.0
 10
75.4790843574
 20
45.9777394726
 30
0.0
 10
75.2208394319
 20
47.2090325496
 30
0.0
 10
75.0393242001
 20
48.8683765933
 30
0.0
 10
75.0084708707
 20
49.6975828981
 30
0.0
 10
75.0084709496
 20
50.1112170011
 30
0.0
  0
SPLINE
  5
2C8
100
AcDbEntity
  8
0
100
AcDbSpline
 62
7
  6
BYLAYER
 70
0
 71
3
 72
10
 73
6
 74
0
 42
0.0000001
 43
0.0000001
 44
0.0000000001
 40
0.0
 40
0.0
 40
0.0
 40
0.0
 40
0.2479560276
 40
0.4968690733
 40
1.0
 40
1.0
 40
1.0
 40
1.0
 10
79.0084708952
 20
50.1112169313
 30
0.0
 10
79.0084709563
 20
49.6975827906
 30
0.0
 10
78.9776096212
 20
48.8683770462
 30
0.0
 10
78.7961094786
 20
47.2090316411
 30
0.0
 10
78.5378575212
 20
45.9777395054
 30
0.0
 10
78.3281011613
 20
45.1650620816
 30
0.0
  0
SPLINE
  5
2C9
100
AcDbEntity
  8
0
100
AcDbSpline
 62
7
  6
BYLAYER
 70
0
 71
3
 72
10
 73
6
 74
0
 42
0.0000001
 43
0.0000001
 44
0.0000000001
 40
0.0
 40
0.0
 40
0.0
 40
0.0
 40
0.4999749991
 40
0.7499876268
 40
1.0
 40
1.0
 40
1.0
 40
1.0
 10
75.6632315065
 20
56.007366927
 30
0.0
 10
75.4590842078
 20
57.6143877267
 30
0.0
 10
75.2111042536
 20
60.0334637966
 30
0.0
 10
75.0379360486
 20
63.2693611049
 30
0.0
 10
75.0084709237
 20
64.8896232852
 30
0.0
 10
75.0084709237
 20
65.6996717724
 30
0.0
  0
SPLINE
  5
2CA
100
AcDbEntity
  8
0
100
AcDbSpline
 62
7
  6
BYLAYER
 70
0
 71
3
 72
10
 73
6
 74
0
 42
0.0000001
 43
0.0000001
 44
0.0000000001
 40
0.0
 40
0.0
 40
0.0
 40
0.0
 40
0.2479559863
 40
0.4968691245
 40
1.0
 40
1.0
 40
1.0
 40
1.0
 10
75.0084709496
 20
50.1112170011
 30
0.0
 10
75.0084709937
 20
50.524850689
 30
0.0
 10
75.0393227525
 20
51.354056266
 30
0.0
 10
75.2208405984
 20
53.0133984371
 30
0.0
 10
75.4790845697
 20
54.2446903413
 30
0.0
 10
75.6888407172
 20
55.057366927
 30
0.0
  0
SPLINE
  5
2CB
100
AcDbEntity
  8
0
100
AcDbSpline
 62
7
  6
BYLAYER
 70
0
 71
3
 72
10
 73
6
 74
0
 42
0.0000001
 43
0.0000001
 44
0.0000000001
 40
0.0
 40
0.0
 40
0.0
 40
0.0
 40
0.2500123748
 40
0.5000250032
 40
1.0
 40
1.0
 40
1.0
 40
1.0
 10
79.0084709237
 20
65.6996717724
 30
0.0
 10
79.0084709237
 20
64.88962328
 30
0.0
 10
78.9790058024
 20
63.269361092
 30
0.0
 10
78.8058375914
 20
60.033463784
 30
0.0
 10
78.5578576386
 20
57.6143877192
 30
0.0
 10
78.3537103408
 20
56.007366927
 30
0.0
  0
SPLINE
  5
2CC
100
AcDbEntity
  8
0
100
AcDbSpline
 62
7
  6
BYLAYER
 70
0
 71
3
 72
10
 73
6
 74
0
 42
0.0000001
 43
0.0000001
 44
0.0000000001
 40
0.0
 40
0.0
 40
0.0
 40
0.0
 40
0.5031310391
 40
0.7520440639
 40
1.0
 40
1.0
 40
1.0
 40
1.0
 10
78.3281011346
 20
55.057366927
 30
0.0
 10
78.5378573744
 20
54.2446899822
 30
0.0
 10
78.7961122688
 20
53.0133996481
 30
0.0
 10
78.9776171618
 20
51.3540557361
 30
0.0
 10
79.0084708367
 20
50.5248505836
 30
0.0
 10
79.0084708952
 20
50.1112169313
 30
0.0
  0
SPLINE
  5
2CD
100
AcDbEntity
  8
0
100
AcDbSpline
 62
7
  6
BYLAYER
 70
0
 71
3
 72
10
 73
6
 74
0
 42
0.0000001
 43
0.0000001
 44
0.0000000001
 40
0.0
 40
0.0
 40
0.0
 40
0.0
 40
0.2479559863
 40
0.4968691245
 40
1.0
 40
1.0
 40
1.0
 40
1.0
 10
75.0084709496
 20
81.2881315373
 30
0.0
 10
75.0084709937
 20
81.7017652252
 30
0.0
 10
75.0393227525
 20
82.5309708022
 30
0.0
 10
75.2208405984
 20
84.1903129733
 30
0.0
 10
75.4790845697
 20
85.4216048775
 30
0.0
 10
75.6888407172
 20
86.2342814632
 30
0.0
  0
SPLINE
  5
2CE
100
AcDbEntity
  8
0
100
AcDbSpline
 62
7
  6
BYLAYER
 70
0
 71
3
 72
10
 73
6
 74
0
 42
0.0000001
 43
0.0000001
 44
0.0000000001
 40
0.0
 40
0.0
 40
0.0
 40
0.0
 40
0.2479560276
 40
0.4968690733
 40
1.0
 40
1.0
 40
1.0
 40
1.0
 10
79.0084708952
 20
81.2881314675
 30
0.0
 10
79.0084709563
 20
80.8744973268
 30
0.0
 10
78.9776096212
 20
80.0452915824
 30
0.0
 10
78.7961094787
 20
78.3859461773
 30
0.0
 10
78.5378575212
 20
77.1546540416
 30
0.0
 10
78.3281011613
 20
76.3419766178
 30
0.0
  0
SPLINE
  5
2CF
100
AcDbEntity
  8
0
100
AcDbSpline
 62
7
  6
BYLAYER
 70
0
 71
3
 72
10
 73
6
 74
0
 42
0.0000001
 43
0.0000001
 44
0.0000000001
 40
0.0
 40
0.0
 40
0.0
 40
0.0
 40
0.4999749991
 40
0.7499876268
 40
1.0
 40
1.0
 40
1.0
 40
1.0
 10
78.3537103408
 20
75.3919766178
 30
0.0
 10
78.5578576395
 20
73.7849558182
 30
0.0
 10
78.8058375937
 20
71.3658797482
 30
0.0
 10
78.9790057987
 20
68.12998244
 30
0.0
 10
79.0084709237
 20
66.5097202596
 30
0.0
 10
79.0084709237
 20
65.6996717724
 30
0.0
  0
ELLIPSE
  5
2D0
100
AcDbEntity
  8
0
100
AcDbEllipse
 62
7
  6
BYLAYER
 10
75.8238460083
 20
64.5509239444
 30
0.0
 11
15.791979517
 21
-10.9958379272
 31
0.0
 40
0.818317629
 41
-1.3965536952
 42
-1.3960435217
  0
ELLIPSE
  5
2D1
100
AcDbEntity
  8
0
100
AcDbEllipse
 62
7
  6
BYLAYER
 10
75.8238460083
 20
63.98748671
 30
0.0
 11
15.6563003942
 21
-12.3580633753
 31
0.0
 40
0.7470541823
 41
4.8970060586
 42
4.9020265797
  0
ELLIPSE
  5
2D2
100
AcDbEntity
  8
0
100
AcDbEllipse
 62
7
  6
BYLAYER
 10
75.8238460083
 20
63.4370802378
 30
0.0
 11
15.7703479229
 21
-13.3023954138
 31
0.0
 40
0.6792721423
 41
4.881095312
 42
4.8895407588
  0
ELLIPSE
  5
2D3
100
AcDbEntity
  8
0
100
AcDbEllipse
 62
7
  6
BYLAYER
 10
75.8238460083
 20
62.9038934534
 30
0.0
 11
15.9844133441
 21
-14.0585338956
 31
0.0
 40
0.6154007239
 41
-1.4290229293
 42
-1.4178485365
  0
ELLIPSE
  5
2D4
100
AcDbEntity
  8
0
100
AcDbEllipse
 62
7
  6
BYLAYER
 10
75.8238460083
 20
62.3919842301
 30
0.0
 11
16.2385436118
 21
-14.7051040421
 31
0.0
 40
0.5552272381
 41
-1.4615012695
 42
-1.4480705033
  0
ELLIPSE
  5
2D5
100
AcDbEntity
  8
0
100
AcDbEllipse
 62
7
  6
BYLAYER
 10
75.8238460083
 20
61.9052485063
 30
0.0
 11
16.5043969512
 21
-15.274965845
 31
0.0
 40
0.4983942514
 41
-1.4971206964
 42
-1.4817673503
  0
ELLIPSE
  5
2D6
100
AcDbEntity
  8
0
100
AcDbEllipse
 62
7
  6
BYLAYER
 10
75.8238460083
 20
61.4473906346
 30
0.0
 11
16.766803626
 21
-15.7835371161
 31
0.0
 40
0.4445239339
 41
-1.5346729672
 42
-1.5176380826
  0
ELLIPSE
  5
2D7
100
AcDbEntity
  8
0
100
AcDbEllipse
 62
7
  6
BYLAYER
 10
75.8238460083
 20
61.02189519
 30
0.0
 11
17.0168501026
 21
-16.2384907108
 31
0.0
 40
0.3932536107
 41
-1.5734880867
 42
-1.5549485398
  0
ELLIPSE
  5
2D8
100
AcDbEntity
  8
0
100
AcDbEllipse
 62
7
  6
BYLAYER
 10
75.8238460083
 20
60.6320004497
 30
0.0
 11
17.2489119491
 21
-16.6436838349
 31
0.0
 40
0.3442450777
 41
-1.6131670271
 42
-1.5932525833
  0
ELLIPSE
  5
2D9
100
AcDbEntity
  8
0
100
AcDbEllipse
 62
7
  6
BYLAYER
 10
75.8238460083
 20
60.2806737481
 30
0.0
 11
17.4592414022
 21
-17.0009614673
 31
0.0
 40
0.2971852239
 41
-1.6534575031
 42
-1.6322627734
  0
ELLIPSE
  5
2DA
100
AcDbEntity
  8
0
100
AcDbEllipse
 62
7
  6
BYLAYER
 10
75.8238460083
 20
59.9705888936
 30
0.0
 11
17.6452378715
 21
-17.311068251
 31
0.0
 40
0.2517837063
 41
-1.6940323896
 42
-1.6717847557
  0
ELLIPSE
  5
2DB
100
AcDbEntity
  8
0
100
AcDbEllipse
 62
7
  6
BYLAYER
 10
75.8238460083
 20
59.7041058191
 30
0.0
 11
17.8050458869
 21
-17.5741469284
 31
0.0
 40
0.2077697388
 41
-1.735034466
 42
-1.7116814851
  0
ELLIPSE
  5
2DC
100
AcDbEntity
  8
0
100
AcDbEllipse
 62
7
  6
BYLAYER
 10
75.8238460083
 20
59.4832526217
 30
0.0
 11
17.9373217495
 21
-17.7900285404
 31
0.0
 40
0.1648887629
 41
-1.7763537932
 42
-1.7518524984
  0
ELLIPSE
  5
2DD
100
AcDbEntity
  8
0
100
AcDbEllipse
 62
7
  6
BYLAYER
 10
75.8238460083
 20
59.3097101276
 30
0.0
 11
18.0410926156
 21
-17.9584099181
 31
0.0
 40
0.1228992729
 41
-1.8179059513
 42
-1.7922212391
  0
ELLIPSE
  5
2DE
100
AcDbEntity
  8
0
100
AcDbEllipse
 62
7
  6
BYLAYER
 10
75.8238460083
 20
59.1847991
 30
0.0
 11
18.1156691418
 21
-18.0789658936
 31
0.0
 40
0.0815698667
 41
-1.8596229162
 42
-1.8327268879
  0
ELLIPSE
  5
2DF
100
AcDbEntity
  8
0
100
AcDbEllipse
 62
7
  6
BYLAYER
 10
75.8238460083
 20
59.1094701873
 30
0.0
 11
18.1605909673
 21
-18.1514209571
 31
0.0
 40
0.0406765142
 41
-1.9014465147
 42
-1.8733187897
  0
ELLIPSE
  5
2E0
100
AcDbEntity
  8
0
100
AcDbEllipse
 62
7
  6
BYLAYER
 10
75.8238460083
 20
72.2898733576
 30
0.0
 11
18.1605909673
 21
18.1514209571
 31
0.0
 40
0.0406765142
 41
1.8733187897
 42
1.9014465202
  0
ELLIPSE
  5
2E1
100
AcDbEntity
  8
0
100
AcDbEllipse
 62
7
  6
BYLAYER
 10
75.8238460083
 20
72.2145444448
 30
0.0
 11
18.1156691418
 21
18.0789658936
 31
0.0
 40
0.0815698667
 41
1.8327268879
 42
1.8596229267
  0
ELLIPSE
  5
2E2
100
AcDbEntity
  8
0
100
AcDbEllipse
 62
7
  6
BYLAYER
 10
75.8238460083
 20
72.0896334172
 30
0.0
 11
18.0410926156
 21
17.9584099181
 31
0.0
 40
0.1228992729
 41
1.7922212391
 42
1.8179059663
  0
ELLIPSE
  5
2E3
100
AcDbEntity
  8
0
100
AcDbEllipse
 62
7
  6
BYLAYER
 10
75.8238460083
 20
71.9160909232
 30
0.0
 11
17.9373217495
 21
17.7900285404
 31
0.0
 40
0.1648887629
 41
1.7518524984
 42
1.7763538123
  0
ELLIPSE
  5
2E4
100
AcDbEntity
  8
0
100
AcDbEllipse
 62
7
  6
BYLAYER
 10
75.8238460083
 20
71.6952377258
 30
0.0
 11
17.8050458869
 21
17.5741469284
 31
0.0
 40
0.2077697388
 41
1.7116814851
 42
1.735034489
  0
ELLIPSE
  5
2E5
100
AcDbEntity
  8
0
100
AcDbEllipse
 62
7
  6
BYLAYER
 10
75.8238460083
 20
71.4287546512
 30
0.0
 11
17.6452378715
 21
17.311068251
 31
0.0
 40
0.2517837063
 41
1.6717847557
 42
1.694032417
  0
ELLIPSE
  5
2E6
100
AcDbEntity
  8
0
100
AcDbEllipse
 62
7
  6
BYLAYER
 10
75.8238460083
 20
71.1186697967
 30
0.0
 11
17.4592414022
 21
17.0009614673
 31
0.0
 40
0.2971852239
 41
1.6322627734
 42
1.653457536
  0
ELLIPSE
  5
2E7
100
AcDbEntity
  8
0
100
AcDbEllipse
 62
7
  6
BYLAYER
 10
75.8238460083
 20
70.7673430951
 30
0.0
 11
17.2489119491
 21
16.6436838349
 31
0.0
 40
0.3442450777
 41
1.5932525833
 42
1.6131670491
  0
ELLIPSE
  5
2E8
100
AcDbEntity
  8
0
100
AcDbEllipse
 62
7
  6
BYLAYER
 10
75.8238460083
 20
70.3774483548
 30
0.0
 11
17.0168501026
 21
16.2384907108
 31
0.0
 40
0.3932536107
 41
1.5549485398
 42
1.5734880833
  0
ELLIPSE
  5
2E9
100
AcDbEntity
  8
0
100
AcDbEllipse
 62
7
  6
BYLAYER
 10
75.8238460083
 20
69.9519529102
 30
0.0
 11
16.766803626
 21
15.7835371161
 31
0.0
 40
0.4445239339
 41
1.5176380826
 42
1.5346729655
  0
ELLIPSE
  5
2EA
100
AcDbEntity
  8
0
100
AcDbEllipse
 62
7
  6
BYLAYER
 10
75.8238460083
 20
69.4940950386
 30
0.0
 11
16.5043969512
 21
15.274965845
 31
0.0
 40
0.4983942514
 41
1.4817673503
 42
1.4971206958
  0
ELLIPSE
  5
2EB
100
AcDbEntity
  8
0
100
AcDbEllipse
 62
7
  6
BYLAYER
 10
75.8238460083
 20
69.0073593147
 30
0.0
 11
16.2385436118
 21
14.7051040421
 31
0.0
 40
0.5552272381
 41
1.4480705033
 42
1.4615012691
  0
ELLIPSE
  5
2EC
100
AcDbEntity
  8
0
100
AcDbEllipse
 62
7
  6
BYLAYER
 10
75.8238460083
 20
68.4954500914
 30
0.0
 11
15.9844133441
 21
14.0585338956
 31
0.0
 40
0.6154007239
 41
1.4178485365
 42
1.4290229277
  0
ELLIPSE
  5
2ED
100
AcDbEntity
  8
0
100
AcDbEllipse
 62
7
  6
BYLAYER
 10
75.8238460083
 20
67.962263307
 30
0.0
 11
15.7703479229
 21
13.3023954138
 31
0.0
 40
0.6792721423
 41
1.3936445484
 42
1.4020899947
  0
ELLIPSE
  5
2EE
100
AcDbEntity
  8
0
100
AcDbEllipse
 62
7
  6
BYLAYER
 10
75.8238460083
 20
67.4118568348
 30
0.0
 11
15.6563003942
 21
12.3580633753
 31
0.0
 40
0.7470541823
 41
1.3811587275
 42
1.3861792519
  0
ELLIPSE
  5
2EF
100
AcDbEntity
  8
0
100
AcDbEllipse
 62
7
  6
BYLAYER
 10
75.8238460083
 20
66.8484196004
 30
0.0
 11
15.791979517
 21
10.9958379272
 31
0.0
 40
0.818317629
 41
1.3960435217
 42
1.3965536961
  0
ELLIPSE
  5
2F0
100
AcDbEntity
  8
0
100
AcDbEllipse
 62
7
  6
BYLAYER
 10
64.517092908
 20
65.6996717724
 30
0.0
 11
17.5084611122
 21
0.0
 31
0.0
 40
0.963433044
 41
7.5529487364
 42
7.5827178802
  0
ELLIPSE
  5
2F1
100
AcDbEntity
  8
0
100
AcDbEllipse
 62
7
  6
BYLAYER
 10
64.517092908
 20
66.1085523079
 30
0.0
 11
14.9543464083
 21
-10.0427045149
 31
0.0
 40
0.9066977799
 41
1.8167011824
 42
1.8464703263
  0
ELLIPSE
  5
2F2
100
AcDbEntity
  8
0
100
AcDbEllipse
 62
7
  6
BYLAYER
 10
64.517092908
 20
66.5143210156
 30
0.0
 11
14.4741311195
 21
-11.8601695234
 31
0.0
 40
0.8306103506
 41
1.8673543145
 42
1.8971234584
  0
ELLIPSE
  5
2F3
100
AcDbEntity
  8
0
100
AcDbEllipse
 62
7
  6
BYLAYER
 10
64.517092908
 20
66.9138897507
 30
0.0
 11
14.5700382847
 21
-12.8060309747
 31
0.0
 40
0.7581403628
 41
1.8575479087
 42
1.8873170525
  0
ELLIPSE
  5
2F4
100
AcDbEntity
  8
0
100
AcDbEllipse
 62
7
  6
BYLAYER
 10
64.517092908
 20
67.3042175538
 30
0.0
 11
14.8194770471
 21
-13.5094930283
 31
0.0
 40
0.6901509118
 41
1.8313373379
 42
1.8611064818
  0
ELLIPSE
  5
2F5
100
AcDbEntity
  8
0
100
AcDbEllipse
 62
7
  6
BYLAYER
 10
64.517092908
 20
67.6823337946
 30
0.0
 11
15.1182070608
 21
-14.1001405585
 31
0.0
 40
0.6263036642
 41
1.7984306655
 42
1.8281998094
  0
ELLIPSE
  5
2F6
100
AcDbEntity
  8
0
100
AcDbEllipse
 62
7
  6
BYLAYER
 10
64.517092908
 20
68.0453607803
 30
0.0
 11
15.4285527016
 21
-14.6201143459
 31
0.0
 40
0.5661264515
 41
1.7621534647
 42
1.7919226086
  0
ELLIPSE
  5
2F7
100
AcDbEntity
  8
0
100
AcDbEllipse
 62
7
  6
BYLAYER
 10
64.5170929079
 20
68.3905356563
 30
0.0
 11
15.7334287619
 21
-15.0865489373
 31
0.0
 40
0.5091621171
 41
1.7239491005
 42
1.7537182443
  0
ELLIPSE
  5
2F8
100
AcDbEntity
  8
0
100
AcDbEllipse
 62
7
  6
BYLAYER
 10
64.517092908
 20
68.7152314333
 30
0.0
 11
16.023819938
 21
-15.507275323
 31
0.0
 40
0.4549951859
 41
1.6845450189
 42
1.7143141628
  0
ELLIPSE
  5
2F9
100
AcDbEntity
  8
0
100
AcDbEllipse
 62
7
  6
BYLAYER
 10
64.517092908
 20
69.0169769804
 30
0.0
 11
16.2944188981
 21
-15.8860502942
 31
0.0
 40
0.4032531911
 41
1.6443480471
 42
1.674117191
  0
ELLIPSE
  5
2FA
100
AcDbEntity
  8
0
100
AcDbEllipse
 62
7
  6
BYLAYER
 10
64.517092908
 20
69.2934758319
 30
0.0
 11
16.5418339295
 21
-16.2246471729
 31
0.0
 40
0.3536019736
 41
1.6036040158
 42
1.6333731597
  0
ELLIPSE
  5
2FB
100
AcDbEntity
  8
0
100
AcDbEllipse
 62
7
  6
BYLAYER
 10
64.5170929079
 20
69.5426236645
 30
0.0
 11
16.7637596114
 21
-16.523808647
 31
0.0
 40
0.3057398728
 41
1.5624707743
 42
1.5922399181
  0
ELLIPSE
  5
2FC
100
AcDbEntity
  8
0
100
AcDbEllipse
 62
7
  6
BYLAYER
 10
64.517092908
 20
69.7625243128
 30
0.0
 11
16.9585571531
 21
-16.7837266909
 31
0.0
 40
0.2593921815
 41
1.5210548867
 42
1.5508240306
  0
ELLIPSE
  5
2FD
100
AcDbEntity
  8
0
100
AcDbEllipse
 62
7
  6
BYLAYER
 10
64.517092908
 20
69.9515042
 30
0.0
 11
17.1250267564
 21
-17.0043043001
 31
0.0
 40
0.2143062114
 41
1.4794315045
 42
1.5092006484
  0
ELLIPSE
  5
2FE
100
AcDbEntity
  8
0
100
AcDbEllipse
 62
7
  6
BYLAYER
 10
64.517092908
 20
70.1081250751
 30
0.0
 11
17.2622772411
 21
-17.185307668
 31
0.0
 40
0.1702469903
 41
1.4376558164
 42
1.4674249603
  0
ELLIPSE
  5
2FF
100
AcDbEntity
  8
0
100
AcDbEllipse
 62
7
  6
BYLAYER
 10
64.517092908
 20
70.2311949587
 30
0.0
 11
17.3696482286
 21
-17.326459176
 31
0.0
 40
0.1269935126
 41
1.3957700171
 42
1.425539161
  0
ELLIPSE
  5
300
100
AcDbEntity
  8
0
100
AcDbEllipse
 62
7
  6
BYLAYER
 10
64.517092908
 20
70.3197772146
 30
0.0
 11
17.4466624083
 21
-17.4274961419
 31
0.0
 40
0.0843354388
 41
1.3538077783
 42
1.3835769222
  0
ELLIPSE
  5
301
100
AcDbEntity
  8
0
100
AcDbEllipse
 62
7
  6
BYLAYER
 10
64.517092908
 20
70.3731976784
 30
0.0
 11
17.4929960222
 21
-17.4882083164
 31
0.0
 40
0.0420701413
 41
1.3117972829
 42
1.3415664268
  0
ELLIPSE
  5
302
100
AcDbEntity
  8
0
100
AcDbEllipse
 62
7
  6
BYLAYER
 10
64.517092908
 20
64.8850225292
 30
0.0
 11
14.4741311195
 21
11.8601695234
 31
0.0
 40
0.8306103506
 41
-1.8971234584
 42
-1.8673543145
  0
ELLIPSE
  5
303
100
AcDbEntity
  8
0
100
AcDbEllipse
 62
7
  6
BYLAYER
 10
64.517092908
 20
64.4854537942
 30
0.0
 11
14.5700382847
 21
12.8060309747
 31
0.0
 40
0.7581403628
 41
-1.8873170525
 42
-1.8575479087
  0
ELLIPSE
  5
304
100
AcDbEntity
  8
0
100
AcDbEllipse
 62
7
  6
BYLAYER
 10
64.517092908
 20
64.0951259911
 30
0.0
 11
14.8194770471
 21
13.5094930283
 31
0.0
 40
0.6901509118
 41
-1.8611064818
 42
-1.8313373379
  0
ELLIPSE
  5
305
100
AcDbEntity
  8
0
100
AcDbEllipse
 62
7
  6
BYLAYER
 10
64.517092908
 20
63.7170097502
 30
0.0
 11
15.1182070608
 21
14.1001405585
 31
0.0
 40
0.6263036642
 41
-1.8281998094
 42
-1.7984306655
  0
ELLIPSE
  5
306
100
AcDbEntity
  8
0
100
AcDbEllipse
 62
7
  6
BYLAYER
 10
64.517092908
 20
63.3539827646
 30
0.0
 11
15.4285527016
 21
14.6201143459
 31
0.0
 40
0.5661264515
 41
-1.7919226086
 42
-1.7621534647
  0
ELLIPSE
  5
307
100
AcDbEntity
  8
0
100
AcDbEllipse
 62
7
  6
BYLAYER
 10
64.517092908
 20
63.0088078886
 30
0.0
 11
15.7334287619
 21
15.0865489373
 31
0.0
 40
0.5091621171
 41
-1.7537182443
 42
-1.7239491005
  0
ELLIPSE
  5
308
100
AcDbEntity
  8
0
100
AcDbEllipse
 62
7
  6
BYLAYER
 10
64.517092908
 20
62.6841121116
 30
0.0
 11
16.023819938
 21
15.507275323
 31
0.0
 40
0.4549951859
 41
-1.7143141628
 42
-1.6845450189
  0
ELLIPSE
  5
309
100
AcDbEntity
  8
0
100
AcDbEllipse
 62
7
  6
BYLAYER
 10
64.517092908
 20
62.3823665644
 30
0.0
 11
16.2944188981
 21
15.8860502942
 31
0.0
 40
0.4032531911
 41
-1.674117191
 42
-1.6443480471
  0
ELLIPSE
  5
30A
100
AcDbEntity
  8
0
100
AcDbEllipse
 62
7
  6
BYLAYER
 10
64.517092908
 20
62.1058677129
 30
0.0
 11
16.5418339295
 21
16.2246471729
 31
0.0
 40
0.3536019736
 41
-1.6333731597
 42
-1.6036040158
  0
ELLIPSE
  5
30B
100
AcDbEntity
  8
0
100
AcDbEllipse
 62
7
  6
BYLAYER
 10
64.517092908
 20
61.8567198803
 30
0.0
 11
16.7637596114
 21
16.523808647
 31
0.0
 40
0.3057398728
 41
-1.5922399181
 42
-1.5624707743
  0
ELLIPSE
  5
30C
100
AcDbEntity
  8
0
100
AcDbEllipse
 62
7
  6
BYLAYER
 10
64.517092908
 20
61.636819232
 30
0.0
 11
16.9585571531
 21
16.7837266909
 31
0.0
 40
0.2593921815
 41
-1.5508240306
 42
-1.5210548867
  0
ELLIPSE
  5
30D
100
AcDbEntity
  8
0
100
AcDbEllipse
 62
7
  6
BYLAYER
 10
64.517092908
 20
61.4478393448
 30
0.0
 11
17.1250267564
 21
17.0043043001
 31
0.0
 40
0.2143062114
 41
-1.5092006484
 42
-1.4794315045
  0
ELLIPSE
  5
30E
100
AcDbEntity
  8
0
100
AcDbEllipse
 62
7
  6
BYLAYER
 10
64.517092908
 20
61.2912184697
 30
0.0
 11
17.2622772411
 21
17.185307668
 31
0.0
 40
0.1702469903
 41
-1.4674249603
 42
-1.4376558164
  0
ELLIPSE
  5
30F
100
AcDbEntity
  8
0
100
AcDbEllipse
 62
7
  6
BYLAYER
 10
64.517092908
 20
61.1681485862
 30
0.0
 11
17.3696482286
 21
17.326459176
 31
0.0
 40
0.1269935126
 41
-1.425539161
 42
-1.3957700171
  0
ELLIPSE
  5
310
100
AcDbEntity
  8
0
100
AcDbEllipse
 62
7
  6
BYLAYER
 10
64.517092908
 20
61.0795663302
 30
0.0
 11
17.4466624083
 21
17.4274961419
 31
0.0
 40
0.0843354388
 41
-1.3835769222
 42
-1.3538077783
  0
ELLIPSE
  5
311
100
AcDbEntity
  8
0
100
AcDbEllipse
 62
7
  6
BYLAYER
 10
64.517092908
 20
61.0261458664
 30
0.0
 11
17.4929960222
 21
17.4882083164
 31
0.0
 40
0.0420701413
 41
-1.3415664268
 42
-1.3117972829
  0
ELLIPSE
  5
312
100
AcDbEntity
  8
0
100
AcDbEllipse
 62
7
  6
BYLAYER
 10
64.517092908
 20
65.290791237
 30
0.0
 11
14.9543464083
 21
10.0427045149
 31
0.0
 40
0.9066977799
 41
-1.8464703263
 42
-1.8167011824
  0
ELLIPSE
  5
313
100
AcDbEntity
  8
0
100
AcDbEllipse
 62
7
  6
BYLAYER
 10
64.517092908
 20
65.6996717724
 30
0.0
 11
17.5084611122
 21
0.0
 31
0.0
 40
0.963433044
 41
-1.2995325731
 42
-1.2697634292
  0
ELLIPSE
  5
314
100
AcDbEntity
  8
0
100
AcDbEllipse
 62
7
  6
BYLAYER
 10
64.517092908
 20
63.0088078886
 30
0.0
 11
15.7334287619
 21
15.0865489373
 31
0.0
 40
0.5091621171
 41
0.8155777579
 42
0.8453469018
  0
ELLIPSE
  5
315
100
AcDbEntity
  8
0
100
AcDbEllipse
 62
7
  6
BYLAYER
 10
64.517092908
 20
61.636819232
 30
0.0
 11
16.9585571531
 21
16.7837266909
 31
0.0
 40
0.2593921815
 41
1.0184719717
 42
1.0482411156
  0
ELLIPSE
  5
316
100
AcDbEntity
  8
0
100
AcDbEllipse
 62
7
  6
BYLAYER
 10
64.517092908
 20
61.0261458664
 30
0.0
 11
17.4929960222
 21
17.4882083164
 31
0.0
 40
0.0420701413
 41
1.2277295755
 42
1.2574987193
  0
ELLIPSE
  5
317
100
AcDbEntity
  8
0
100
AcDbEllipse
 62
7
  6
BYLAYER
 10
64.517092908
 20
63.3539827646
 30
0.0
 11
15.4285527016
 21
14.6201143459
 31
0.0
 40
0.5661264515
 41
0.7773733936
 42
0.8071425375
  0
ELLIPSE
  5
318
100
AcDbEntity
  8
0
100
AcDbEllipse
 62
7
  6
BYLAYER
 10
64.517092908
 20
61.8567198803
 30
0.0
 11
16.7637596114
 21
16.523808647
 31
0.0
 40
0.3057398728
 41
0.9770560841
 42
1.006825228
  0
ELLIPSE
  5
319
100
AcDbEntity
  8
0
100
AcDbEllipse
 62
7
  6
BYLAYER
 10
64.517092908
 20
66.1085523079
 30
0.0
 11
14.9543464083
 21
-10.0427045149
 31
0.0
 40
0.9066977799
 41
-0.7525948199
 42
-0.722825676
  0
ELLIPSE
  5
31A
100
AcDbEntity
  8
0
100
AcDbEllipse
 62
7
  6
BYLAYER
 10
64.517092908
 20
61.0795663302
 30
0.0
 11
17.4466624083
 21
17.4274961419
 31
0.0
 40
0.0843354388
 41
1.18571908
 42
1.2154882239
  0
ELLIPSE
  5
31B
100
AcDbEntity
  8
0
100
AcDbEllipse
 62
7
  6
BYLAYER
 10
64.517092908
 20
63.7170097502
 30
0.0
 11
15.1182070608
 21
14.1001405585
 31
0.0
 40
0.6263036642
 41
0.7410961929
 42
0.7708653368
  0
ELLIPSE
  5
31C
100
AcDbEntity
  8
0
100
AcDbEllipse
 62
7
  6
BYLAYER
 10
64.517092908
 20
62.1058677129
 30
0.0
 11
16.5418339295
 21
16.2246471729
 31
0.0
 40
0.3536019736
 41
0.9359228426
 42
0.9656919865
  0
ELLIPSE
  5
31D
100
AcDbEntity
  8
0
100
AcDbEllipse
 62
7
  6
BYLAYER
 10
64.517092908
 20
61.1681485862
 30
0.0
 11
17.3696482286
 21
17.326459176
 31
0.0
 40
0.1269935126
 41
1.1437568412
 42
1.1735259851
  0
ELLIPSE
  5
31E
100
AcDbEntity
  8
0
100
AcDbEllipse
 62
7
  6
BYLAYER
 10
64.517092908
 20
64.0951259911
 30
0.0
 11
14.8194770471
 21
13.5094930283
 31
0.0
 40
0.6901509118
 41
0.7081895205
 42
0.7379586644
  0
ELLIPSE
  5
31F
100
AcDbEntity
  8
0
100
AcDbEllipse
 62
7
  6
BYLAYER
 10
64.517092908
 20
62.3823665644
 30
0.0
 11
16.2944188981
 21
15.8860502942
 31
0.0
 40
0.4032531911
 41
0.8951788113
 42
0.9249479552
  0
ELLIPSE
  5
320
100
AcDbEntity
  8
0
100
AcDbEllipse
 62
7
  6
BYLAYER
 10
64.517092908
 20
64.4854537942
 30
0.0
 11
14.5700382847
 21
12.8060309747
 31
0.0
 40
0.7581403628
 41
0.6819789497
 42
0.7117480936
  0
ELLIPSE
  5
321
100
AcDbEntity
  8
0
100
AcDbEllipse
 62
7
  6
BYLAYER
 10
64.517092908
 20
70.3731976784
 30
0.0
 11
17.4929960222
 21
-17.4882083164
 31
0.0
 40
0.0420701413
 41
-1.2574987193
 42
-1.2277295755
  0
ELLIPSE
  5
322
100
AcDbEntity
  8
0
100
AcDbEllipse
 62
7
  6
BYLAYER
 10
64.517092908
 20
70.3197772146
 30
0.0
 11
17.4466624083
 21
-17.4274961419
 31
0.0
 40
0.0843354388
 41
-1.2154882239
 42
-1.18571908
  0
ELLIPSE
  5
323
100
AcDbEntity
  8
0
100
AcDbEllipse
 62
7
  6
BYLAYER
 10
64.517092908
 20
70.2311949587
 30
0.0
 11
17.3696482286
 21
-17.326459176
 31
0.0
 40
0.1269935126
 41
-1.1735259851
 42
-1.1437568412
  0
ELLIPSE
  5
324
100
AcDbEntity
  8
0
100
AcDbEllipse
 62
7
  6
BYLAYER
 10
64.517092908
 20
70.1081250751
 30
0.0
 11
17.2622772411
 21
-17.185307668
 31
0.0
 40
0.1702469903
 41
-1.1316401859
 42
-1.101871042
  0
ELLIPSE
  5
325
100
AcDbEntity
  8
0
100
AcDbEllipse
 62
7
  6
BYLAYER
 10
64.517092908
 20
69.9515042
 30
0.0
 11
17.1250267564
 21
-17.0043043001
 31
0.0
 40
0.2143062114
 41
-1.0898644977
 42
-1.0600953539
  0
ELLIPSE
  5
326
100
AcDbEntity
  8
0
100
AcDbEllipse
 62
7
  6
BYLAYER
 10
64.517092908
 20
69.7625243128
 30
0.0
 11
16.9585571531
 21
-16.7837266909
 31
0.0
 40
0.2593921815
 41
-1.0482411156
 42
-1.0184719717
  0
ELLIPSE
  5
327
100
AcDbEntity
  8
0
100
AcDbEllipse
 62
7
  6
BYLAYER
 10
64.5170929079
 20
69.5426236645
 30
0.0
 11
16.7637596114
 21
-16.523808647
 31
0.0
 40
0.3057398728
 41
-1.006825228
 42
-0.9770560841
  0
ELLIPSE
  5
328
100
AcDbEntity
  8
0
100
AcDbEllipse
 62
7
  6
BYLAYER
 10
64.517092908
 20
69.2934758319
 30
0.0
 11
16.5418339295
 21
-16.2246471729
 31
0.0
 40
0.3536019736
 41
-0.9656919865
 42
-0.9359228426
  0
ELLIPSE
  5
329
100
AcDbEntity
  8
0
100
AcDbEllipse
 62
7
  6
BYLAYER
 10
64.517092908
 20
69.0169769804
 30
0.0
 11
16.2944188981
 21
-15.8860502942
 31
0.0
 40
0.4032531911
 41
-0.9249479552
 42
-0.8951788113
  0
ELLIPSE
  5
32A
100
AcDbEntity
  8
0
100
AcDbEllipse
 62
7
  6
BYLAYER
 10
64.517092908
 20
68.7152314333
 30
0.0
 11
16.023819938
 21
-15.507275323
 31
0.0
 40
0.4549951859
 41
-0.8847509834
 42
-0.8549818395
  0
ELLIPSE
  5
32B
100
AcDbEntity
  8
0
100
AcDbEllipse
 62
7
  6
BYLAYER
 10
64.517092908
 20
68.3905356563
 30
0.0
 11
15.7334287619
 21
-15.0865489373
 31
0.0
 40
0.5091621171
 41
-0.8453469018
 42
-0.8155777579
  0
ELLIPSE
  5
32C
100
AcDbEntity
  8
0
100
AcDbEllipse
 62
7
  6
BYLAYER
 10
64.517092908
 20
68.0453607803
 30
0.0
 11
15.4285527016
 21
-14.6201143459
 31
0.0
 40
0.5661264515
 41
-0.8071425375
 42
-0.7773733936
  0
ELLIPSE
  5
32D
100
AcDbEntity
  8
0
100
AcDbEllipse
 62
7
  6
BYLAYER
 10
64.517092908
 20
67.6823337946
 30
0.0
 11
15.1182070608
 21
-14.1001405585
 31
0.0
 40
0.6263036642
 41
-0.7708653368
 42
-0.7410961929
  0
ELLIPSE
  5
32E
100
AcDbEntity
  8
0
100
AcDbEllipse
 62
7
  6
BYLAYER
 10
64.517092908
 20
67.3042175538
 30
0.0
 11
14.8194770471
 21
-13.5094930283
 31
0.0
 40
0.6901509118
 41
-0.7379586644
 42
-0.7081895205
  0
ELLIPSE
  5
32F
100
AcDbEntity
  8
0
100
AcDbEllipse
 62
7
  6
BYLAYER
 10
64.517092908
 20
66.9138897507
 30
0.0
 11
14.5700382847
 21
-12.8060309747
 31
0.0
 40
0.7581403628
 41
-0.7117480936
 42
-0.6819789497
  0
ELLIPSE
  5
330
100
AcDbEntity
  8
0
100
AcDbEllipse
 62
7
  6
BYLAYER
 10
64.517092908
 20
66.5143210156
 30
0.0
 11
14.4741311195
 21
-11.8601695234
 31
0.0
 40
0.8306103506
 41
-0.7019416878
 42
-0.6721725439
  0
ELLIPSE
  5
331
100
AcDbEntity
  8
0
100
AcDbEllipse
 62
7
  6
BYLAYER
 10
64.517092908
 20
61.2912184697
 30
0.0
 11
17.2622772411
 21
17.185307668
 31
0.0
 40
0.1702469903
 41
1.101871042
 42
1.1316401859
  0
ELLIPSE
  5
332
100
AcDbEntity
  8
0
100
AcDbEllipse
 62
7
  6
BYLAYER
 10
64.517092908
 20
64.8850225292
 30
0.0
 11
14.4741311195
 21
11.8601695234
 31
0.0
 40
0.8306103506
 41
0.6721725439
 42
0.7019416878
  0
ELLIPSE
  5
333
100
AcDbEntity
  8
0
100
AcDbEllipse
 62
7
  6
BYLAYER
 10
64.517092908
 20
62.6841121116
 30
0.0
 11
16.023819938
 21
15.507275323
 31
0.0
 40
0.4549951859
 41
0.8549818395
 42
0.8847509834
  0
ELLIPSE
  5
334
100
AcDbEntity
  8
0
100
AcDbEllipse
 62
7
  6
BYLAYER
 10
64.517092908
 20
65.290791237
 30
0.0
 11
14.9543464083
 21
10.0427045149
 31
0.0
 40
0.9066977799
 41
0.722825676
 42
0.7525948199
  0
ELLIPSE
  5
335
100
AcDbEntity
  8
0
100
AcDbEllipse
 62
7
  6
BYLAYER
 10
64.517092908
 20
61.4478393448
 30
0.0
 11
17.1250267564
 21
17.0043043001
 31
0.0
 40
0.2143062114
 41
1.0600953539
 42
1.0898644977
  0
ELLIPSE
  5
336
100
AcDbEntity
  8
0
100
AcDbEllipse
 62
7
  6
BYLAYER
 10
68.1930958391
 20
66.8484196004
 30
0.0
 11
15.791979517
 21
-10.9958379272
 31
0.0
 40
0.818317629
 41
1.7450389583
 42
1.7455491319
  0
ELLIPSE
  5
337
100
AcDbEntity
  8
0
100
AcDbEllipse
 62
7
  6
BYLAYER
 10
68.1930958391
 20
67.4118568348
 30
0.0
 11
15.6563003942
 21
-12.3580633753
 31
0.0
 40
0.7470541823
 41
8.0385987122
 42
8.0436192332
  0
ELLIPSE
  5
338
100
AcDbEntity
  8
0
100
AcDbEllipse
 62
7
  6
BYLAYER
 10
68.1930958391
 20
67.962263307
 30
0.0
 11
15.7703479229
 21
-13.3023954138
 31
0.0
 40
0.6792721423
 41
8.0226879656
 42
8.0311334124
  0
ELLIPSE
  5
339
100
AcDbEntity
  8
0
100
AcDbEllipse
 62
7
  6
BYLAYER
 10
68.1930958391
 20
68.4954500914
 30
0.0
 11
15.9844133441
 21
-14.0585338956
 31
0.0
 40
0.6154007239
 41
1.7125697243
 42
1.7237441171
  0
ELLIPSE
  5
33A
100
AcDbEntity
  8
0
100
AcDbEllipse
 62
7
  6
BYLAYER
 10
68.1930958391
 20
69.0073593147
 30
0.0
 11
16.2385436118
 21
-14.7051040421
 31
0.0
 40
0.5552272381
 41
1.6800913841
 42
1.6935221503
  0
ELLIPSE
  5
33B
100
AcDbEntity
  8
0
100
AcDbEllipse
 62
7
  6
BYLAYER
 10
68.1930958391
 20
69.4940950386
 30
0.0
 11
16.5043969512
 21
-15.274965845
 31
0.0
 40
0.4983942514
 41
1.6444719572
 42
1.6598253033
  0
ELLIPSE
  5
33C
100
AcDbEntity
  8
0
100
AcDbEllipse
 62
7
  6
BYLAYER
 10
68.1930958391
 20
69.9519529102
 30
0.0
 11
16.766803626
 21
-15.7835371161
 31
0.0
 40
0.4445239339
 41
1.6069196864
 42
1.623954571
  0
ELLIPSE
  5
33D
100
AcDbEntity
  8
0
100
AcDbEllipse
 62
7
  6
BYLAYER
 10
68.1930958391
 20
70.3774483548
 30
0.0
 11
17.0168501026
 21
-16.2384907108
 31
0.0
 40
0.3932536107
 41
1.5681045669
 42
1.5866441138
  0
ELLIPSE
  5
33E
100
AcDbEntity
  8
0
100
AcDbEllipse
 62
7
  6
BYLAYER
 10
68.1930958391
 20
70.7673430951
 30
0.0
 11
17.2489119491
 21
-16.6436838349
 31
0.0
 40
0.3442450777
 41
1.5284256265
 42
1.5483400703
  0
ELLIPSE
  5
33F
100
AcDbEntity
  8
0
100
AcDbEllipse
 62
7
  6
BYLAYER
 10
68.1930958391
 20
71.1186697967
 30
0.0
 11
17.4592414022
 21
-17.0009614673
 31
0.0
 40
0.2971852239
 41
1.4881351505
 42
1.5093298802
  0
ELLIPSE
  5
340
100
AcDbEntity
  8
0
100
AcDbEllipse
 62
7
  6
BYLAYER
 10
68.1930958391
 20
71.4287546512
 30
0.0
 11
17.6452378715
 21
-17.311068251
 31
0.0
 40
0.2517837063
 41
1.447560264
 42
1.4698078979
  0
ELLIPSE
  5
341
100
AcDbEntity
  8
0
100
AcDbEllipse
 62
7
  6
BYLAYER
 10
68.1930958391
 20
71.6952377258
 30
0.0
 11
17.8050458869
 21
-17.5741469284
 31
0.0
 40
0.2077697388
 41
1.4065581876
 42
1.4299111685
  0
ELLIPSE
  5
342
100
AcDbEntity
  8
0
100
AcDbEllipse
 62
7
  6
BYLAYER
 10
68.1930958391
 20
71.9160909232
 30
0.0
 11
17.9373217495
 21
-17.7900285404
 31
0.0
 40
0.1648887629
 41
1.3652388603
 42
1.3897401552
  0
ELLIPSE
  5
343
100
AcDbEntity
  8
0
100
AcDbEllipse
 62
7
  6
BYLAYER
 10
68.1930958391
 20
72.0896334172
 30
0.0
 11
18.0410926156
 21
-17.9584099181
 31
0.0
 40
0.1228992729
 41
1.3236867023
 42
1.3493714145
  0
ELLIPSE
  5
344
100
AcDbEntity
  8
0
100
AcDbEllipse
 62
7
  6
BYLAYER
 10
68.1930958391
 20
72.2145444448
 30
0.0
 11
18.1156691418
 21
-18.0789658936
 31
0.0
 40
0.0815698667
 41
1.2819697374
 42
1.3088657657
  0
ELLIPSE
  5
345
100
AcDbEntity
  8
0
100
AcDbEllipse
 62
7
  6
BYLAYER
 10
68.1930958391
 20
72.2898733576
 30
0.0
 11
18.1605909673
 21
-18.1514209571
 31
0.0
 40
0.0406765142
 41
1.2401461389
 42
1.2682738639
  0
ELLIPSE
  5
346
100
AcDbEntity
  8
0
100
AcDbEllipse
 62
7
  6
BYLAYER
 10
79.4998489394
 20
65.290791237
 30
0.0
 11
14.9543464083
 21
-10.0427045149
 31
0.0
 40
0.9066977799
 41
-1.3248914712
 42
-1.2951223273
  0
ELLIPSE
  5
347
100
AcDbEntity
  8
0
100
AcDbEllipse
 62
7
  6
BYLAYER
 10
79.4998489394
 20
64.8850225292
 30
0.0
 11
14.4741311195
 21
-11.8601695234
 31
0.0
 40
0.8306103506
 41
-1.2742383391
 42
-1.2444691952
  0
ELLIPSE
  5
348
100
AcDbEntity
  8
0
100
AcDbEllipse
 62
7
  6
BYLAYER
 10
79.4998489394
 20
64.4854537942
 30
0.0
 11
14.5700382847
 21
-12.8060309747
 31
0.0
 40
0.7581403628
 41
-1.2840447449
 42
-1.2542756011
  0
ELLIPSE
  5
349
100
AcDbEntity
  8
0
100
AcDbEllipse
 62
7
  6
BYLAYER
 10
79.4998489394
 20
64.0951259911
 30
0.0
 11
14.8194770471
 21
-13.5094930283
 31
0.0
 40
0.6901509118
 41
-1.3102553157
 42
-1.2804861718
  0
ELLIPSE
  5
34A
100
AcDbEntity
  8
0
100
AcDbEllipse
 62
7
  6
BYLAYER
 10
79.4998489394
 20
63.7170097502
 30
0.0
 11
15.1182070608
 21
-14.1001405585
 31
0.0
 40
0.6263036642
 41
-1.3431619881
 42
-1.3133928442
  0
ELLIPSE
  5
34B
100
AcDbEntity
  8
0
100
AcDbEllipse
 62
7
  6
BYLAYER
 10
79.4998489394
 20
63.3539827646
 30
0.0
 11
15.4285527016
 21
-14.6201143459
 31
0.0
 40
0.5661264515
 41
-1.3794391888
 42
-1.349670045
  0
ELLIPSE
  5
34C
100
AcDbEntity
  8
0
100
AcDbEllipse
 62
7
  6
BYLAYER
 10
79.4998489394
 20
63.0088078886
 30
0.0
 11
15.7334287619
 21
-15.0865489373
 31
0.0
 40
0.5091621171
 41
-1.4176435531
 42
-1.3878744092
  0
ELLIPSE
  5
34D
100
AcDbEntity
  8
0
100
AcDbEllipse
 62
7
  6
BYLAYER
 10
79.4998489394
 20
62.6841121116
 30
0.0
 11
16.023819938
 21
-15.507275323
 31
0.0
 40
0.4549951859
 41
-1.4570476347
 42
-1.4272784908
  0
ELLIPSE
  5
34E
100
AcDbEntity
  8
0
100
AcDbEllipse
 62
7
  6
BYLAYER
 10
79.4998489394
 20
62.3823665644
 30
0.0
 11
16.2944188981
 21
-15.8860502942
 31
0.0
 40
0.4032531911
 41
-1.4972446065
 42
-1.4674754626
  0
ELLIPSE
  5
34F
100
AcDbEntity
  8
0
100
AcDbEllipse
 62
7
  6
BYLAYER
 10
79.4998489394
 20
62.1058677129
 30
0.0
 11
16.5418339295
 21
-16.2246471729
 31
0.0
 40
0.3536019736
 41
-1.5379886378
 42
-1.5082194939
  0
ELLIPSE
  5
350
100
AcDbEntity
  8
0
100
AcDbEllipse
 62
7
  6
BYLAYER
 10
79.4998489394
 20
61.8567198803
 30
0.0
 11
16.7637596114
 21
-16.523808647
 31
0.0
 40
0.3057398728
 41
-1.5791218793
 42
-1.5493527354
  0
ELLIPSE
  5
351
100
AcDbEntity
  8
0
100
AcDbEllipse
 62
7
  6
BYLAYER
 10
79.4998489394
 20
61.636819232
 30
0.0
 11
16.9585571531
 21
-16.7837266909
 31
0.0
 40
0.2593921815
 41
-1.6205377669
 42
-1.590768623
  0
ELLIPSE
  5
352
100
AcDbEntity
  8
0
100
AcDbEllipse
 62
7
  6
BYLAYER
 10
79.4998489394
 20
61.4478393448
 30
0.0
 11
17.1250267564
 21
-17.0043043001
 31
0.0
 40
0.2143062114
 41
-1.6621611491
 42
-1.6323920052
  0
ELLIPSE
  5
353
100
AcDbEntity
  8
0
100
AcDbEllipse
 62
7
  6
BYLAYER
 10
79.4998489394
 20
61.2912184697
 30
0.0
 11
17.2622772411
 21
-17.185307668
 31
0.0
 40
0.1702469903
 41
-1.7039368372
 42
-1.6741676933
  0
ELLIPSE
  5
354
100
AcDbEntity
  8
0
100
AcDbEllipse
 62
7
  6
BYLAYER
 10
79.4998489394
 20
61.1681485862
 30
0.0
 11
17.3696482286
 21
-17.326459176
 31
0.0
 40
0.1269935126
 41
-1.7458226364
 42
-1.7160534926
  0
ELLIPSE
  5
355
100
AcDbEntity
  8
0
100
AcDbEllipse
 62
7
  6
BYLAYER
 10
79.4998489394
 20
61.0795663302
 30
0.0
 11
17.4466624083
 21
-17.4274961419
 31
0.0
 40
0.0843354388
 41
-1.7877848753
 42
-1.7580157314
  0
ELLIPSE
  5
356
100
AcDbEntity
  8
0
100
AcDbEllipse
 62
7
  6
BYLAYER
 10
79.4998489394
 20
61.0261458664
 30
0.0
 11
17.4929960222
 21
-17.4882083164
 31
0.0
 40
0.0420701413
 41
-1.8297953707
 42
-1.8000262268
  0
ELLIPSE
  5
357
100
AcDbEntity
  8
0
100
AcDbEllipse
 62
7
  6
BYLAYER
 10
79.4998489394
 20
65.6996717724
 30
0.0
 11
17.5084611122
 21
-0.0
 31
0.0
 40
0.963433044
 41
4.4113560828
 42
4.4411252267
  0
ELLIPSE
  5
358
100
AcDbEntity
  8
0
100
AcDbEllipse
 62
7
  6
BYLAYER
 10
68.1930958391
 20
64.5509239444
 30
0.0
 11
15.791979517
 21
10.9958379272
 31
0.0
 40
0.818317629
 41
-1.7455491319
 42
-1.7450389575
  0
ELLIPSE
  5
359
100
AcDbEntity
  8
0
100
AcDbEllipse
 62
7
  6
BYLAYER
 10
68.1930958391
 20
63.98748671
 30
0.0
 11
15.6563003942
 21
12.3580633753
 31
0.0
 40
0.7470541823
 41
-1.7604339261
 42
-1.7554134017
  0
ELLIPSE
  5
35A
100
AcDbEntity
  8
0
100
AcDbEllipse
 62
7
  6
BYLAYER
 10
68.1930958391
 20
63.4370802378
 30
0.0
 11
15.7703479229
 21
13.3023954138
 31
0.0
 40
0.6792721423
 41
-1.7479481052
 42
-1.7395026589
  0
ELLIPSE
  5
35B
100
AcDbEntity
  8
0
100
AcDbEllipse
 62
7
  6
BYLAYER
 10
68.1930958391
 20
62.9038934534
 30
0.0
 11
15.9844133441
 21
14.0585338956
 31
0.0
 40
0.6154007239
 41
-1.7237441171
 42
-1.7125697259
  0
ELLIPSE
  5
35C
100
AcDbEntity
  8
0
100
AcDbEllipse
 62
7
  6
BYLAYER
 10
68.1930958391
 20
62.3919842301
 30
0.0
 11
16.2385436118
 21
14.7051040421
 31
0.0
 40
0.5552272381
 41
-1.6935221503
 42
-1.6800913845
  0
ELLIPSE
  5
35D
100
AcDbEntity
  8
0
100
AcDbEllipse
 62
7
  6
BYLAYER
 10
68.1930958391
 20
61.9052485063
 30
0.0
 11
16.5043969512
 21
15.274965845
 31
0.0
 40
0.4983942514
 41
-1.6598253033
 42
-1.6444719578
  0
ELLIPSE
  5
35E
100
AcDbEntity
  8
0
100
AcDbEllipse
 62
7
  6
BYLAYER
 10
68.1930958391
 20
61.4473906346
 30
0.0
 11
16.766803626
 21
15.7835371161
 31
0.0
 40
0.4445239339
 41
-1.623954571
 42
-1.6069196881
  0
ELLIPSE
  5
35F
100
AcDbEntity
  8
0
100
AcDbEllipse
 62
7
  6
BYLAYER
 10
68.1930958391
 20
61.02189519
 30
0.0
 11
17.0168501026
 21
16.2384907108
 31
0.0
 40
0.3932536107
 41
-1.5866441138
 42
-1.5681045703
  0
ELLIPSE
  5
360
100
AcDbEntity
  8
0
100
AcDbEllipse
 62
7
  6
BYLAYER
 10
68.1930958391
 20
60.6320004497
 30
0.0
 11
17.2489119491
 21
16.6436838349
 31
0.0
 40
0.3442450777
 41
-1.5483400703
 42
-1.5284256044
  0
ELLIPSE
  5
361
100
AcDbEntity
  8
0
100
AcDbEllipse
 62
7
  6
BYLAYER
 10
68.1930958391
 20
60.2806737481
 30
0.0
 11
17.4592414022
 21
17.0009614673
 31
0.0
 40
0.2971852239
 41
-1.5093298802
 42
-1.4881351175
  0
ELLIPSE
  5
362
100
AcDbEntity
  8
0
100
AcDbEllipse
 62
7
  6
BYLAYER
 10
68.1930958391
 20
59.9705888936
 30
0.0
 11
17.6452378715
 21
17.311068251
 31
0.0
 40
0.2517837063
 41
-1.4698078979
 42
-1.4475602366
  0
ELLIPSE
  5
363
100
AcDbEntity
  8
0
100
AcDbEllipse
 62
7
  6
BYLAYER
 10
68.1930958391
 20
59.7041058191
 30
0.0
 11
17.8050458869
 21
17.5741469284
 31
0.0
 40
0.2077697388
 41
-1.4299111685
 42
-1.4065581646
  0
ELLIPSE
  5
364
100
AcDbEntity
  8
0
100
AcDbEllipse
 62
7
  6
BYLAYER
 10
68.1930958391
 20
59.4832526217
 30
0.0
 11
17.9373217495
 21
17.7900285404
 31
0.0
 40
0.1648887629
 41
-1.3897401552
 42
-1.3652388413
  0
ELLIPSE
  5
365
100
AcDbEntity
  8
0
100
AcDbEllipse
 62
7
  6
BYLAYER
 10
68.1930958391
 20
59.3097101276
 30
0.0
 11
18.0410926156
 21
17.9584099181
 31
0.0
 40
0.1228992729
 41
-1.3493714145
 42
-1.3236866873
  0
ELLIPSE
  5
366
100
AcDbEntity
  8
0
100
AcDbEllipse
 62
7
  6
BYLAYER
 10
68.1930958391
 20
59.1847991
 30
0.0
 11
18.1156691418
 21
18.0789658936
 31
0.0
 40
0.0815698667
 41
-1.3088657657
 42
-1.2819697269
  0
ELLIPSE
  5
367
100
AcDbEntity
  8
0
100
AcDbEllipse
 62
7
  6
BYLAYER
 10
68.1930958391
 20
59.1094701873
 30
0.0
 11
18.1605909673
 21
18.1514209571
 31
0.0
 40
0.0406765142
 41
-1.2682738639
 42
-1.2401461334
  0
ELLIPSE
  5
368
100
AcDbEntity
  8
0
100
AcDbEllipse
 62
7
  6
BYLAYER
 10
79.4998489394
 20
70.3731976784
 30
0.0
 11
17.4929960222
 21
17.4882083164
 31
0.0
 40
0.0420701413
 41
1.8000262268
 42
1.8297953707
  0
ELLIPSE
  5
369
100
AcDbEntity
  8
0
100
AcDbEllipse
 62
7
  6
BYLAYER
 10
79.4998489394
 20
70.3197772146
 30
0.0
 11
17.4466624083
 21
17.4274961419
 31
0.0
 40
0.0843354388
 41
1.7580157314
 42
1.7877848753
  0
ELLIPSE
  5
36A
100
AcDbEntity
  8
0
100
AcDbEllipse
 62
7
  6
BYLAYER
 10
79.4998489394
 20
70.2311949587
 30
0.0
 11
17.3696482286
 21
17.326459176
 31
0.0
 40
0.1269935126
 41
1.7160534926
 42
1.7458226364
  0
ELLIPSE
  5
36B
100
AcDbEntity
  8
0
100
AcDbEllipse
 62
7
  6
BYLAYER
 10
79.4998489394
 20
70.1081250751
 30
0.0
 11
17.2622772411
 21
17.185307668
 31
0.0
 40
0.1702469903
 41
1.6741676933
 42
1.7039368372
  0
ELLIPSE
  5
36C
100
AcDbEntity
  8
0
100
AcDbEllipse
 62
7
  6
BYLAYER
 10
79.4998489394
 20
69.9515042
 30
0.0
 11
17.1250267564
 21
17.0043043001
 31
0.0
 40
0.2143062114
 41
1.6323920052
 42
1.6621611491
  0
ELLIPSE
  5
36D
100
AcDbEntity
  8
0
100
AcDbEllipse
 62
7
  6
BYLAYER
 10
79.4998489394
 20
69.7625243128
 30
0.0
 11
16.9585571531
 21
16.7837266909
 31
0.0
 40
0.2593921815
 41
1.590768623
 42
1.6205377669
  0
ELLIPSE
  5
36E
100
AcDbEntity
  8
0
100
AcDbEllipse
 62
7
  6
BYLAYER
 10
79.4998489394
 20
69.5426236645
 30
0.0
 11
16.7637596114
 21
16.523808647
 31
0.0
 40
0.3057398728
 41
1.5493527354
 42
1.5791218793
  0
ELLIPSE
  5
36F
100
AcDbEntity
  8
0
100
AcDbEllipse
 62
7
  6
BYLAYER
 10
79.4998489394
 20
69.2934758319
 30
0.0
 11
16.5418339295
 21
16.2246471729
 31
0.0
 40
0.3536019736
 41
1.5082194939
 42
1.5379886378
  0
ELLIPSE
  5
370
100
AcDbEntity
  8
0
100
AcDbEllipse
 62
7
  6
BYLAYER
 10
79.4998489394
 20
69.0169769804
 30
0.0
 11
16.2944188981
 21
15.8860502942
 31
0.0
 40
0.4032531911
 41
1.4674754626
 42
1.4972446065
  0
ELLIPSE
  5
371
100
AcDbEntity
  8
0
100
AcDbEllipse
 62
7
  6
BYLAYER
 10
79.4998489394
 20
68.7152314333
 30
0.0
 11
16.023819938
 21
15.507275323
 31
0.0
 40
0.4549951859
 41
1.4272784908
 42
1.4570476347
  0
ELLIPSE
  5
372
100
AcDbEntity
  8
0
100
AcDbEllipse
 62
7
  6
BYLAYER
 10
79.4998489394
 20
68.3905356563
 30
0.0
 11
15.7334287619
 21
15.0865489373
 31
0.0
 40
0.5091621171
 41
1.3878744092
 42
1.4176435531
  0
ELLIPSE
  5
373
100
AcDbEntity
  8
0
100
AcDbEllipse
 62
7
  6
BYLAYER
 10
79.4998489394
 20
68.0453607803
 30
0.0
 11
15.4285527016
 21
14.6201143459
 31
0.0
 40
0.5661264515
 41
1.349670045
 42
1.3794391888
  0
ELLIPSE
  5
374
100
AcDbEntity
  8
0
100
AcDbEllipse
 62
7
  6
BYLAYER
 10
79.4998489394
 20
67.6823337946
 30
0.0
 11
15.1182070608
 21
14.1001405585
 31
0.0
 40
0.6263036642
 41
1.3133928442
 42
1.3431619881
  0
ELLIPSE
  5
375
100
AcDbEntity
  8
0
100
AcDbEllipse
 62
7
  6
BYLAYER
 10
79.4998489394
 20
67.3042175538
 30
0.0
 11
14.8194770471
 21
13.5094930283
 31
0.0
 40
0.6901509118
 41
1.2804861718
 42
1.3102553157
  0
ELLIPSE
  5
376
100
AcDbEntity
  8
0
100
AcDbEllipse
 62
7
  6
BYLAYER
 10
79.4998489394
 20
66.9138897507
 30
0.0
 11
14.5700382847
 21
12.8060309747
 31
0.0
 40
0.7581403628
 41
1.2542756011
 42
1.2840447449
  0
ELLIPSE
  5
377
100
AcDbEntity
  8
0
100
AcDbEllipse
 62
7
  6
BYLAYER
 10
79.4998489394
 20
66.5143210156
 30
0.0
 11
14.4741311195
 21
11.8601695234
 31
0.0
 40
0.8306103506
 41
1.2444691952
 42
1.2742383391
  0
ELLIPSE
  5
378
100
AcDbEntity
  8
0
100
AcDbEllipse
 62
7
  6
BYLAYER
 10
79.4998489394
 20
66.1085523079
 30
0.0
 11
14.9543464083
 21
10.0427045149
 31
0.0
 40
0.9066977799
 41
1.2951223273
 42
1.3248914712
  0
ELLIPSE
  5
379
100
AcDbEntity
  8
0
100
AcDbEllipse
 62
7
  6
BYLAYER
 10
79.4998489394
 20
65.6996717724
 30
0.0
 11
17.5084611122
 21
0.0
 31
0.0
 40
0.963433044
 41
1.8420600805
 42
1.8718292244
  0
ELLIPSE
  5
37A
100
AcDbEntity
  8
0
100
AcDbEllipse
 62
7
  6
BYLAYER
 10
79.4998489394
 20
63.0088078886
 30
0.0
 11
15.7334287619
 21
-15.0865489373
 31
0.0
 40
0.5091621171
 41
2.2962457518
 42
2.3260148957
  0
ELLIPSE
  5
37B
100
AcDbEntity
  8
0
100
AcDbEllipse
 62
7
  6
BYLAYER
 10
79.4998489394
 20
62.6841121116
 30
0.0
 11
16.023819938
 21
-15.507275323
 31
0.0
 40
0.4549951859
 41
2.2568416702
 42
2.2866108141
  0
ELLIPSE
  5
37C
100
AcDbEntity
  8
0
100
AcDbEllipse
 62
7
  6
BYLAYER
 10
79.4998489394
 20
69.9515042
 30
0.0
 11
17.1250267564
 21
17.0043043001
 31
0.0
 40
0.2143062114
 41
-2.0814972997
 42
-2.0517281558
  0
ELLIPSE
  5
37D
100
AcDbEntity
  8
0
100
AcDbEllipse
 62
7
  6
BYLAYER
 10
79.4998489394
 20
62.3823665644
 30
0.0
 11
16.2944188981
 21
-15.8860502942
 31
0.0
 40
0.4032531911
 41
2.2166446984
 42
2.2464138423
  0
ELLIPSE
  5
37E
100
AcDbEntity
  8
0
100
AcDbEllipse
 62
7
  6
BYLAYER
 10
79.4998489394
 20
62.1058677129
 30
0.0
 11
16.5418339295
 21
-16.2246471729
 31
0.0
 40
0.3536019736
 41
2.1759006671
 42
2.205669811
  0
ELLIPSE
  5
37F
100
AcDbEntity
  8
0
100
AcDbEllipse
 62
7
  6
BYLAYER
 10
79.4998489394
 20
61.8567198803
 30
0.0
 11
16.7637596114
 21
-16.523808647
 31
0.0
 40
0.3057398728
 41
2.1347674256
 42
2.1645365695
  0
ELLIPSE
  5
380
100
AcDbEntity
  8
0
100
AcDbEllipse
 62
7
  6
BYLAYER
 10
79.4998489394
 20
70.1081250751
 30
0.0
 11
17.2622772411
 21
17.185307668
 31
0.0
 40
0.1702469903
 41
-2.0397216116
 42
-2.0099524677
  0
ELLIPSE
  5
381
100
AcDbEntity
  8
0
100
AcDbEllipse
 62
7
  6
BYLAYER
 10
79.4998489394
 20
61.636819232
 30
0.0
 11
16.9585571531
 21
-16.7837266909
 31
0.0
 40
0.2593921815
 41
2.093351538
 42
2.1231206819
  0
ELLIPSE
  5
382
100
AcDbEntity
  8
0
100
AcDbEllipse
 62
7
  6
BYLAYER
 10
79.4998489394
 20
61.4478393448
 30
0.0
 11
17.1250267564
 21
-17.0043043001
 31
0.0
 40
0.2143062114
 41
2.0517281558
 42
2.0814972997
  0
ELLIPSE
  5
383
100
AcDbEntity
  8
0
100
AcDbEllipse
 62
7
  6
BYLAYER
 10
79.4998489394
 20
66.9138897507
 30
0.0
 11
14.5700382847
 21
12.8060309747
 31
0.0
 40
0.7581403628
 41
-2.4596137039
 42
-2.42984456
  0
ELLIPSE
  5
384
100
AcDbEntity
  8
0
100
AcDbEllipse
 62
7
  6
BYLAYER
 10
79.4998489394
 20
61.2912184697
 30
0.0
 11
17.2622772411
 21
-17.185307668
 31
0.0
 40
0.1702469903
 41
2.0099524677
 42
2.0397216116
  0
ELLIPSE
  5
385
100
AcDbEntity
  8
0
100
AcDbEllipse
 62
7
  6
BYLAYER
 10
79.4998489394
 20
70.2311949587
 30
0.0
 11
17.3696482286
 21
17.326459176
 31
0.0
 40
0.1269935126
 41
-1.9978358124
 42
-1.9680666685
  0
ELLIPSE
  5
386
100
AcDbEntity
  8
0
100
AcDbEllipse
 62
7
  6
BYLAYER
 10
79.4998489394
 20
61.1681485862
 30
0.0
 11
17.3696482286
 21
-17.326459176
 31
0.0
 40
0.1269935126
 41
1.9680666685
 42
1.9978358124
  0
ELLIPSE
  5
387
100
AcDbEntity
  8
0
100
AcDbEllipse
 62
7
  6
BYLAYER
 10
79.4998489394
 20
61.0795663302
 30
0.0
 11
17.4466624083
 21
-17.4274961419
 31
0.0
 40
0.0843354388
 41
1.9261044297
 42
1.9558735735
  0
ELLIPSE
  5
388
100
AcDbEntity
  8
0
100
AcDbEllipse
 62
7
  6
BYLAYER
 10
79.4998489394
 20
61.0261458664
 30
0.0
 11
17.4929960222
 21
-17.4882083164
 31
0.0
 40
0.0420701413
 41
1.8840939343
 42
1.9138630781
  0
ELLIPSE
  5
389
100
AcDbEntity
  8
0
100
AcDbEllipse
 62
7
  6
BYLAYER
 10
79.4998489394
 20
70.3197772146
 30
0.0
 11
17.4466624083
 21
17.4274961419
 31
0.0
 40
0.0843354388
 41
-1.9558735735
 42
-1.9261044297
  0
ELLIPSE
  5
38A
100
AcDbEntity
  8
0
100
AcDbEllipse
 62
7
  6
BYLAYER
 10
79.4998489394
 20
67.3042175538
 30
0.0
 11
14.8194770471
 21
13.5094930283
 31
0.0
 40
0.6901509118
 41
-2.4334031331
 42
-2.4036339892
  0
ELLIPSE
  5
38B
100
AcDbEntity
  8
0
100
AcDbEllipse
 62
7
  6
BYLAYER
 10
79.4998489394
 20
70.3731976784
 30
0.0
 11
17.4929960222
 21
17.4882083164
 31
0.0
 40
0.0420701413
 41
-1.9138630781
 42
-1.8840939343
  0
ELLIPSE
  5
38C
100
AcDbEntity
  8
0
100
AcDbEllipse
 62
7
  6
BYLAYER
 10
79.4998489394
 20
67.6823337946
 30
0.0
 11
15.1182070608
 21
14.1001405585
 31
0.0
 40
0.6263036642
 41
-2.4004964607
 42
-2.3707273168
  0
ELLIPSE
  5
38D
100
AcDbEntity
  8
0
100
AcDbEllipse
 62
7
  6
BYLAYER
 10
79.4998489394
 20
68.0453607803
 30
0.0
 11
15.4285527016
 21
14.6201143459
 31
0.0
 40
0.5661264515
 41
-2.36421926
 42
-2.3344501161
  0
ELLIPSE
  5
38E
100
AcDbEntity
  8
0
100
AcDbEllipse
 62
7
  6
BYLAYER
 10
79.4998489394
 20
68.3905356563
 30
0.0
 11
15.7334287619
 21
15.0865489373
 31
0.0
 40
0.5091621171
 41
-2.3260148957
 42
-2.2962457518
  0
ELLIPSE
  5
38F
100
AcDbEntity
  8
0
100
AcDbEllipse
 62
7
  6
BYLAYER
 10
79.4998489394
 20
68.7152314333
 30
0.0
 11
16.023819938
 21
15.507275323
 31
0.0
 40
0.4549951859
 41
-2.2866108141
 42
-2.2568416702
  0
ELLIPSE
  5
390
100
AcDbEntity
  8
0
100
AcDbEllipse
 62
7
  6
BYLAYER
 10
79.4998489394
 20
69.0169769804
 30
0.0
 11
16.2944188981
 21
15.8860502942
 31
0.0
 40
0.4032531911
 41
-2.2464138423
 42
-2.2166446984
  0
ELLIPSE
  5
391
100
AcDbEntity
  8
0
100
AcDbEllipse
 62
7
  6
BYLAYER
 10
79.4998489394
 20
66.1085523079
 30
0.0
 11
14.9543464083
 21
10.0427045149
 31
0.0
 40
0.9066977799
 41
-2.4187669776
 42
-2.3889978337
  0
ELLIPSE
  5
392
100
AcDbEntity
  8
0
100
AcDbEllipse
 62
7
  6
BYLAYER
 10
79.4998489394
 20
69.2934758319
 30
0.0
 11
16.5418339295
 21
16.2246471729
 31
0.0
 40
0.3536019736
 41
-2.205669811
 42
-2.1759006671
  0
ELLIPSE
  5
393
100
AcDbEntity
  8
0
100
AcDbEllipse
 62
7
  6
BYLAYER
 10
79.4998489394
 20
65.290791237
 30
0.0
 11
14.9543464083
 21
-10.0427045149
 31
0.0
 40
0.9066977799
 41
2.3889978337
 42
2.4187669776
  0
ELLIPSE
  5
394
100
AcDbEntity
  8
0
100
AcDbEllipse
 62
7
  6
BYLAYER
 10
79.4998489394
 20
64.8850225292
 30
0.0
 11
14.4741311195
 21
-11.8601695234
 31
0.0
 40
0.8306103506
 41
2.4396509658
 42
2.4694201097
  0
ELLIPSE
  5
395
100
AcDbEntity
  8
0
100
AcDbEllipse
 62
7
  6
BYLAYER
 10
79.4998489394
 20
69.5426236645
 30
0.0
 11
16.7637596114
 21
16.523808647
 31
0.0
 40
0.3057398728
 41
-2.1645365695
 42
-2.1347674256
  0
ELLIPSE
  5
396
100
AcDbEntity
  8
0
100
AcDbEllipse
 62
7
  6
BYLAYER
 10
79.4998489394
 20
64.4854537942
 30
0.0
 11
14.5700382847
 21
-12.8060309747
 31
0.0
 40
0.7581403628
 41
2.42984456
 42
2.4596137039
  0
ELLIPSE
  5
397
100
AcDbEntity
  8
0
100
AcDbEllipse
 62
7
  6
BYLAYER
 10
79.4998489394
 20
64.0951259911
 30
0.0
 11
14.8194770471
 21
-13.5094930283
 31
0.0
 40
0.6901509118
 41
2.4036339892
 42
2.4334031331
  0
ELLIPSE
  5
398
100
AcDbEntity
  8
0
100
AcDbEllipse
 62
7
  6
BYLAYER
 10
79.4998489394
 20
63.7170097502
 30
0.0
 11
15.1182070608
 21
-14.1001405585
 31
0.0
 40
0.6263036642
 41
2.3707273168
 42
2.4004964607
  0
ELLIPSE
  5
399
100
AcDbEntity
  8
0
100
AcDbEllipse
 62
7
  6
BYLAYER
 10
79.4998489394
 20
69.7625243128
 30
0.0
 11
16.9585571531
 21
16.7837266909
 31
0.0
 40
0.2593921815
 41
-2.1231206819
 42
-2.093351538
  0
ELLIPSE
  5
39A
100
AcDbEntity
  8
0
100
AcDbEllipse
 62
7
  6
BYLAYER
 10
79.4998489394
 20
63.3539827646
 30
0.0
 11
15.4285527016
 21
-14.6201143459
 31
0.0
 40
0.5661264515
 41
2.3344501161
 42
2.36421926
  0
ELLIPSE
  5
39B
100
AcDbEntity
  8
0
100
AcDbEllipse
 62
7
  6
BYLAYER
 10
79.4998489394
 20
66.5143210156
 30
0.0
 11
14.4741311195
 21
11.8601695234
 31
0.0
 40
0.8306103506
 41
-2.4694201097
 42
-2.4396509658
  0
ENDSEC
  0
SECTION
  2
OBJECTS
  0
DICTIONARY
  5
C
100
AcDbDictionary
280
0
281
1
  3
ACAD_GROUP
350
D
  3
ACAD_MLINESTYLE
350
17
  3
ACAD_LAYOUT
350
1A
  3
ACAD_PLOTSETTINGS
350
19
  3
ACAD_PLOTSTYLENAME
350
E
  0
DICTIONARY
  5
D
102
{ACAD_REACTORS
330
C
102
}
100
AcDbDictionary
280
0
281
1
  0
ACDBDICTIONARYWDFLT
  5
E
102
{ACAD_REACTORS
330
C
102
}
100
AcDbDictionary
281
1
  3
Normal
350
F
100
AcDbDictionaryWithDefault
340
F
  0
DICTIONARY
  5
17
102
{ACAD_REACTORS
330
C
102
}
100
AcDbDictionary
280
0
281
1
  3
Standard
350
18
  0
DICTIONARY
  5
19
102
{ACAD_REACTORS
330
C
102
}
100
AcDbDictionary
281
1
  0
DICTIONARY
  5
1A
102
{ACAD_REACTORS
330
C
102
}
100
AcDbDictionary
281
1
  3
Model
350
39C
  3
Layout1
350
39D
  0
ACDBPLACEHOLDER
  5
F
102
{ACAD_REACTORS
330
E
102
}
  0
MLINESTYLE
  5
18
102
{ACAD_REACTORS
330
17
102
}
100
AcDbMlineStyle
  2
STANDARD
 70
0
  3

 62
256
 51
90.0
 52
90.0
 71
2
 49
0.5
 62
256
  6
BYLAYER
 49
-0.5
 62
256
  6
BYLAYER
  0
LAYOUT
  5
39C
102
{ACAD_REACTORS
330
1A
102
}
100
AcDbPlotSettings
  1

  2
none_device
  4

  6

 40
0.0
 41
0.0
 42
0.0
 43
0.0
 44
210.0
 45
297.0
 46
0.0
 47
0.0
 48
0.0
 49
0.0
140
0.0
141
0.0
142
1.0
143
1.0
 70
1024
 72
1
 73
0
 74
0
  7

 75
0
147
1.0
148
0.0
149
0.0
100
AcDbLayout
  1
Model
 70
0
 71
0
 10
0.0
 20
0.0
 11
210.0
 21
297.0
 12
0.0
 22
0.0
 32
0.0
 14
0.0
 24
0.0
 34
0.0
 15
0.0
 25
0.0
 35
0.0
146
0.0
 13
0.0
 23
0.0
 33
0.0
 16
1.0
 26
0.0
 36
0.0
 17
0.0
 27
1.0
 37
0.0
 76
0
330
210
345
0
346
0
  0
LAYOUT
  5
39D
102
{ACAD_REACTORS
330
1A
102
}
100
AcDbPlotSettings
  1

  2
none_device
  4

  6

 40
0.0
 41
0.0
 42
0.0
 43
0.0
 44
210.0
 45
297.0
 46
0.0
 47
0.0
 48
0.0
 49
0.0
140
0.0
141
0.0
142
1.0
143
1.0
 70
0
 72
1
 73
0
 74
0
  7

 75
0
147
1.0
148
0.0
149
0.0
100
AcDbLayout
  1
Layout1
 70
0
 71
1
 10
0.0
 20
0.0
 11
210.0
 21
297.0
 12
0.0
 22
0.0
 32
0.0
 14
0.0
 24
0.0
 34
0.0
 15
0.0
 25
0.0
 35
0.0
146
0.0
 13
0.0
 23
0.0
 33
0.0
 16
1.0
 26
0.0
 36
0.0
 17
0.0
 27
1.0
 37
0.0
 76
0
330
211
345
0
346
0
  0
ENDSEC
  0
EOF
