999
DXF file: C:\Users\sesa63760\Dev\_Creo\CAD\MCADID0005837_3D-CAD\mcadid0005837_3d-simplified_1.dxf
999
Pro/ENGINEER 2019471 by Parametric Technology Corporation
  0
SECTION
  2
HEADER
  9
$ACADVER
  1
AC1024
  9
$DWGCODEPAGE
  3
ANSI_1252
  9
$EXTMAX
 10
114.1704490727
 20
161.4696351171
 30
0.0
  9
$EXTMIN
 10
0.0
 20
0.0
 30
0.0
  9
$LIMMIN
 10
0.0
 20
0.0
  9
$LIMMAX
 10
114.1704490727
 20
161.4696351171
  9
$VIEWCTR
 10
57.0852245364
 20
80.7348175586
  9
$VIEWSIZE
 40
161.4696351171
  9
$CLAYER
  8
0
  9
$LTSCALE
 40
10.5254280669
  9
$CELTYPE
  6
BYLAYER
  9
$DIMSCALE
 40
1.0
  9
$DIMASZ
 40
1.3591720128
  9
$DIMEXO
 40
1.0
  9
$DIMDLI
 40
7.2721139371
  9
$DIMEXE
 40
1.0
  9
$DIMCEN
 40
1.7223427746
  9
$DIMLFAC
 40
1.0
  9
$DIMBLK
  1
_FILLED
  9
$DIMALT
 70
0
  9
$DIMALTF
 40
0.0393700787
  9
$DIMTXT
 40
1.9028408179
  9
$DIMTOL
 70
1
  9
$DIMLIM
 70
0
  9
$DIMTFAC
 40
1.0
  9
$DIMTP
 40
0.01
  9
$DIMTM
 40
0.01
  9
$DIMGAP
 40
0.625
  9
$DIMDSEP
 70
46
  9
$AUNITS
 70
0
  9
$PDMODE
 70
3
  9
$PDSIZE
 40
0.3125
  9
$HANDSEED
  5
30E
  9
$TILEMODE
 70
1
  9
$MEASUREMENT
 70
1
  9
$INSUNITS
 70
4
  0
ENDSEC
  0
SECTION
  2
CLASSES
  0
CLASS
  1
ACDBDICTIONARYWDFLT
  2
AcDbDictionaryWithDefault
  3
AutoCAD 2000
 90
0
 91
1
280
0
281
0
  0
CLASS
  1
ACDBPLACEHOLDER
  2
AcDbPlaceHolder
  3
AutoCAD 2000
 90
0
 91
1
280
0
281
0
  0
CLASS
  1
LAYOUT
  2
AcDbLayout
  3
AutoCAD 2000
 90
0
 91
0
280
0
281
0
  0
ENDSEC
  0
SECTION
  2
TABLES
  0
TABLE
  2
VPORT
  5
8
100
AcDbSymbolTable
 70
2
  0
VPORT
  5
1F4
100
AcDbSymbolTableRecord
100
AcDbViewportTableRecord
  2
*ACTIVE
 70
0
 10
0.0
 20
0.0
 11
1.0
 21
1.0
 12
57.0852245364
 22
80.7348175586
 13
0.0
 23
0.0
 14
1.0
 24
1.0
 15
0.0
 25
0.0
 16
0.0
 26
0.0
 36
1.0
 17
0.0
 27
0.0
 37
0.0
 40
161.4696351171
 41
0.7070707071
 42
50.0
 43
0.0
 44
0.0
 50
0.0
 51
0.0
 71
0
 72
100
 73
1
 74
1
 75
0
 76
0
 77
0
 78
0
  0
ENDTAB
  0
TABLE
  2
LTYPE
  5
5
100
AcDbSymbolTable
 70
6
  0
LTYPE
  5
14
100
AcDbSymbolTableRecord
100
AcDbLinetypeTableRecord
  2
BYBLOCK
 70
0
  3

 72
65
 73
0
 40
0.0
  0
LTYPE
  5
15
100
AcDbSymbolTableRecord
100
AcDbLinetypeTableRecord
  2
BYLAYER
 70
0
  3

 72
65
 73
0
 40
0.0
  0
LTYPE
  5
16
100
AcDbSymbolTableRecord
100
AcDbLinetypeTableRecord
  2
CONTINUOUS
 70
64
  3
Solid line
 72
65
 73
0
 40
0.0
  0
LTYPE
  5
1F5
100
AcDbSymbolTableRecord
100
AcDbLinetypeTableRecord
  2
CENTER
 70
64
  3
____ _ ____ _ ____ _ ____ _ ____ _ ____ _ ____
 72
65
 73
4
 40
0.6
 49
0.375
 74
0
 49
-0.075
 74
0
 49
0.075
 74
0
 49
-0.075
 74
0
  0
LTYPE
  5
1F6
100
AcDbSymbolTableRecord
100
AcDbLinetypeTableRecord
  2
HIDDEN
 70
64
  3
- - - - - - - - - - - - - - - - - - - -
 72
65
 73
2
 40
0.2
 49
0.1
 74
0
 49
-0.1
 74
0
  0
LTYPE
  5
1F7
100
AcDbSymbolTableRecord
100
AcDbLinetypeTableRecord
  2
PHANTOM
 70
64
  3
_____ _ _ _____ _ _ _____ _ _ _____
 72
65
 73
6
 40
0.8
 49
0.45
 74
0
 49
-0.05
 74
0
 49
0.1
 74
0
 49
-0.05
 74
0
 49
0.1
 74
0
 49
-0.05
 74
0
  0
LTYPE
  5
1F8
100
AcDbSymbolTableRecord
100
AcDbLinetypeTableRecord
  2
DOT
 70
64
  3
. . . . . . . . . . . . . . . . . . . .
 72
65
 73
2
 40
0.2
 49
0.1
 74
0
 49
-0.1
 74
0
  0
LTYPE
  5
1F9
100
AcDbSymbolTableRecord
100
AcDbLinetypeTableRecord
  2
DASHED
 70
64
  3
- - - - - - - - - - - - - - - - - - - -
 72
65
 73
2
 40
0.2
 49
0.1
 74
0
 49
-0.1
 74
0
  0
ENDTAB
  0
TABLE
  2
LAYER
  5
2
100
AcDbSymbolTable
 70
36
  0
LAYER
  5
10
100
AcDbSymbolTableRecord
100
AcDbLayerTableRecord
  2
0
 70
0
 62
7
  6
CONTINUOUS
370
-3
390
F
  0
LAYER
  5
1FA
100
AcDbSymbolTableRecord
100
AcDbLayerTableRecord
  2
DEFAULT_1
 70
0
 62
7
  6
CENTER
370
-3
390
F
  0
LAYER
  5
1FB
100
AcDbSymbolTableRecord
100
AcDbLayerTableRecord
  2
DEFAULT_2
 70
0
 62
7
  6
HIDDEN
370
-3
390
F
  0
LAYER
  5
1FC
100
AcDbSymbolTableRecord
100
AcDbLayerTableRecord
  2
DEFAULT_3
 70
0
 62
7
  6
PHANTOM
370
-3
390
F
  0
LAYER
  5
1FD
100
AcDbSymbolTableRecord
100
AcDbLayerTableRecord
  2
00_COMPONENTS
 70
0
 62
7
  6
CONTINUOUS
370
-3
390
F
  0
LAYER
  5
1FE
100
AcDbSymbolTableRecord
100
AcDbLayerTableRecord
  2
01_1_DEFAULT_DATUMS
 70
0
 62
7
  6
CONTINUOUS
370
-3
390
F
  0
LAYER
  5
1FF
100
AcDbSymbolTableRecord
100
AcDbLayerTableRecord
  2
01_PLANES
 70
0
 62
7
  6
CONTINUOUS
370
-3
390
F
  0
LAYER
  5
200
100
AcDbSymbolTableRecord
100
AcDbLayerTableRecord
  2
02_COORD_SYS
 70
0
 62
7
  6
CONTINUOUS
370
-3
390
F
  0
LAYER
  5
201
100
AcDbSymbolTableRecord
100
AcDbLayerTableRecord
  2
03_AXES
 70
0
 62
7
  6
CONTINUOUS
370
-3
390
F
  0
LAYER
  5
202
100
AcDbSymbolTableRecord
100
AcDbLayerTableRecord
  2
04_POINTS
 70
0
 62
7
  6
CONTINUOUS
370
-3
390
F
  0
LAYER
  5
203
100
AcDbSymbolTableRecord
100
AcDbLayerTableRecord
  2
05_CURVES
 70
0
 62
7
  6
CONTINUOUS
370
-3
390
F
  0
LAYER
  5
204
100
AcDbSymbolTableRecord
100
AcDbLayerTableRecord
  2
06_SURFS
 70
0
 62
7
  6
CONTINUOUS
370
-3
390
F
  0
LAYER
  5
205
100
AcDbSymbolTableRecord
100
AcDbLayerTableRecord
  2
07_COSMETICS
 70
0
 62
7
  6
CONTINUOUS
370
-3
390
F
  0
LAYER
  5
206
100
AcDbSymbolTableRecord
100
AcDbLayerTableRecord
  2
10_NOTES
 70
0
 62
7
  6
CONTINUOUS
370
-3
390
F
  0
LAYER
  5
207
100
AcDbSymbolTableRecord
100
AcDbLayerTableRecord
  2
11_NOTES_PUB
 70
0
 62
7
  6
CONTINUOUS
370
-3
390
F
  0
LAYER
  5
208
100
AcDbSymbolTableRecord
100
AcDbLayerTableRecord
  2
13_REF_GTOL
 70
0
 62
7
  6
CONTINUOUS
370
-3
390
F
  0
LAYER
  5
209
100
AcDbSymbolTableRecord
100
AcDbLayerTableRecord
  2
16_MISC
 70
0
 62
7
  6
CONTINUOUS
370
-3
390
F
  0
LAYER
  5
20A
100
AcDbSymbolTableRecord
100
AcDbLayerTableRecord
  2
17_NO_PRINT
 70
0
 62
7
  6
CONTINUOUS
370
-3
390
F
  0
LAYER
  5
20B
100
AcDbSymbolTableRecord
100
AcDbLayerTableRecord
  2
18_DATUM_CAMS_JOINTS
 70
0
 62
7
  6
CONTINUOUS
370
-3
390
F
  0
LAYER
  5
20C
100
AcDbSymbolTableRecord
100
AcDbLayerTableRecord
  2
19_DATUM_FUNCTIONAL
 70
0
 62
7
  6
CONTINUOUS
370
-3
390
F
  0
LAYER
  5
20D
100
AcDbSymbolTableRecord
100
AcDbLayerTableRecord
  2
20_DATUM_KINEMATIC_SCHEME
 70
0
 62
7
  6
CONTINUOUS
370
-3
390
F
  0
ENDTAB
  0
TABLE
  2
STYLE
  5
3
100
AcDbSymbolTable
 70
1
  0
STYLE
  5
11
100
AcDbSymbolTableRecord
100
AcDbTextStyleTableRecord
  2
STANDARD
 70
0
 40
0.0
 41
1.0
 50
0.0
 71
0
 42
0.2
  3
ARIAL.TTF
  4

  0
STYLE
  5
20E
100
AcDbSymbolTableRecord
100
AcDbTextStyleTableRecord
  2
TEXTSTYLE_1
 70
0
 40
0.0
 41
0.8
 50
0.0
 71
0
 42
0.2
  3
gdt
  4

  0
ENDTAB
  0
TABLE
  2
VIEW
  5
6
100
AcDbSymbolTable
 70
0
  0
ENDTAB
  0
TABLE
  2
UCS
  5
7
100
AcDbSymbolTable
 70
0
  0
ENDTAB
  0
TABLE
  2
APPID
  5
9
100
AcDbSymbolTable
 70
1
  0
APPID
  5
20F
100
AcDbSymbolTableRecord
100
AcDbRegAppTableRecord
  2
ACAD
 70
0
  0
ENDTAB
  0
TABLE
  2
BLOCK_RECORD
  5
1
100
AcDbSymbolTable
 70
0
  0
BLOCK_RECORD
  5
210
100
AcDbSymbolTableRecord
100
AcDbBlockTableRecord
  2
*Model_Space
  0
BLOCK_RECORD
  5
211
100
AcDbSymbolTableRecord
100
AcDbBlockTableRecord
  2
*Paper_Space
  0
BLOCK_RECORD
  5
212
100
AcDbSymbolTableRecord
100
AcDbBlockTableRecord
  2
_FILLED
  0
ENDTAB
  0
TABLE
  2
DIMSTYLE
  5
A
100
AcDbSymbolTable
 70
1
100
AcDbDimStyleTable
 71
0
  0
DIMSTYLE
105
213
100
AcDbSymbolTableRecord
100
AcDbDimStyleTableRecord
  2
STANDARD
 70
0
  3

  4

 40
1.0
 41
1.3591720128
 42
1.0
 43
0.38
 44
1.0
 45
0.0
 46
0.0
 47
0.01
 48
0.01
140
1.9028408179
141
0.09
142
0.0
143
25.4
144
1.0
145
0.0
146
1.0
147
0.625
 71
1
 72
0
 73
0
 74
0
 75
0
 76
0
 77
1
 78
8
 79
2
170
0
171
1
172
0
173
0
174
0
175
0
176
0
177
0
178
0
270
2
179
2
271
2
272
2
273
2
274
2
275
0
280
0
281
0
282
0
283
1
284
8
285
0
286
0
287
3
288
0
340
11
278
46
341
212
342
212
343
212
344
212
  0
ENDTAB
  0
ENDSEC
  0
SECTION
  2
BLOCKS
  0
BLOCK
  5
20
100
AcDbEntity
  8
0
100
AcDbBlockBegin
  2
*Model_Space
 70
0
 10
0.0
 20
0.0
 30
0.0
  3
*Model_Space
  1

  0
ENDBLK
  5
21
100
AcDbEntity
  8
0
100
AcDbBlockEnd
  0
BLOCK
  5
1C
100
AcDbEntity
  8
0
100
AcDbBlockBegin
  2
*Paper_Space
 70
0
 10
0.0
 20
0.0
 30
0.0
  3
*Paper_Space
  1

  0
ENDBLK
  5
1D
100
AcDbEntity
  8
0
100
AcDbBlockEnd
  0
BLOCK
  5
214
100
AcDbEntity
  8
0
100
AcDbBlockBegin
  2
_FILLED
 70
64
 10
0.0
 20
0.0
  3
_FILLED
  1

  0
SOLID
  5
215
100
AcDbEntity
  8
0
  6
BYBLOCK
 62
0
100
AcDbTrace
 10
0.0
 20
0.0
 11
-1.0
 21
0.25
 12
-1.0
 22
-0.25
 13
-1.0
 23
-0.25
  0
ENDBLK
  5
216
100
AcDbEntity
  8
0
  6
BYBLOCK
 62
0
100
AcDbBlockEnd
  0
ENDSEC
  0
SECTION
  2
ENTITIES
  0
LINE
  5
217
100
AcDbEntity
  8
0
100
AcDbLine
 62
7
  6
BYLAYER
 10
56.0013604786
 20
105.3997652865
 11
57.7691200716
 21
106.4203756712
  0
LINE
  5
218
100
AcDbEntity
  8
0
100
AcDbLine
 62
7
  6
BYLAYER
 10
57.7691347915
 20
104.3791634002
 11
59.5368943845
 21
105.3997737849
  0
LINE
  5
219
100
AcDbEntity
  8
0
100
AcDbLine
 62
7
  6
BYLAYER
 10
76.4554526357
 20
110.1712416138
 11
79.9439562511
 21
112.2049722945
  0
LINE
  5
21A
100
AcDbEntity
  8
0
100
AcDbLine
 62
7
  6
BYLAYER
 10
61.3262444654
 20
103.4811538366
 11
64.1436594861
 21
105.1077794476
  0
LINE
  5
21B
100
AcDbEntity
  8
0
100
AcDbLine
 62
7
  6
BYLAYER
 10
74.4518032461
 20
110.6794793796
 11
78.5995373022
 21
113.0741604591
  0
LINE
  5
21C
100
AcDbEntity
  8
0
100
AcDbLine
 62
7
  6
BYLAYER
 10
75.1589129712
 20
110.2712386251
 11
66.5937799639
 21
105.3261862956
  0
LINE
  5
21D
100
AcDbEntity
  8
0
100
AcDbLine
 62
7
  6
BYLAYER
 10
36.8532952218
 20
59.9653473289
 11
39.3332352579
 21
60.4851811528
  0
LINE
  5
21E
100
AcDbEntity
  8
0
100
AcDbLine
 62
7
  6
BYLAYER
 10
80.925778291
 20
107.6070769612
 11
84.3614388932
 21
109.610006964
  0
LINE
  5
21F
100
AcDbEntity
  8
0
100
AcDbLine
 62
7
  6
BYLAYER
 10
60.2192711667
 20
97.5756967345
 11
64.6033149574
 21
100.1068104885
  0
LINE
  5
220
100
AcDbEntity
  8
0
100
AcDbLine
 62
7
  6
BYLAYER
 10
72.10923582
 20
102.1419084103
 11
80.6743688274
 21
107.0869607398
  0
LINE
  5
221
100
AcDbEntity
  8
0
100
AcDbLine
 62
7
  6
BYLAYER
 10
58.0095487241
 20
93.7190919002
 11
60.2192711667
 21
94.9949069681
  0
LINE
  5
222
100
AcDbEntity
  8
0
100
AcDbLine
 62
7
  6
BYLAYER
 10
85.5292126086
 20
109.0734010648
 11
81.3814785525
 21
106.6787199853
  0
LINE
  5
223
100
AcDbEntity
  8
0
100
AcDbLine
 62
7
  6
BYLAYER
 10
95.6368106115
 20
72.320509026
 11
88.6980164297
 21
71.5516056627
  0
LINE
  5
224
100
AcDbEntity
  8
0
100
AcDbLine
 62
7
  6
BYLAYER
 10
68.4570982871
 20
61.0706365597
 11
65.3192022569
 21
62.882260693
  0
LINE
  5
225
100
AcDbEntity
  8
0
100
AcDbLine
 62
7
  6
BYLAYER
 10
66.5808566734
 20
63.610672862
 11
69.0227860672
 21
62.2008561634
  0
LINE
  5
226
100
AcDbEntity
  8
0
100
AcDbLine
 62
7
  6
BYLAYER
 10
33.6600744722
 20
65.4962009215
 11
35.3502435462
 21
67.3839663435
  0
LINE
  5
227
100
AcDbEntity
  8
0
100
AcDbLine
 62
7
  6
BYLAYER
 10
74.4518032461
 20
110.6794793796
 11
72.3089376938
 21
108.6258144533
  0
LINE
  5
228
100
AcDbEntity
  8
0
100
AcDbLine
 62
7
  6
BYLAYER
 10
46.1402562402
 20
86.2193818378
 11
53.5648465309
 21
90.5059454535
  0
LINE
  5
229
100
AcDbEntity
  8
0
100
AcDbLine
 62
7
  6
BYLAYER
 10
62.5964747281
 20
89.4849536964
 11
64.3237038592
 21
90.4821639476
  0
LINE
  5
22A
100
AcDbEntity
  8
0
100
AcDbLine
 62
7
  6
BYLAYER
 10
88.707135305
 20
102.4493457684
 11
92.8548693612
 21
104.844026848
  0
LINE
  5
22B
100
AcDbEntity
  8
0
100
AcDbLine
 62
7
  6
BYLAYER
 10
74.9731144043
 20
94.4466658427
 11
76.7408739973
 21
95.4672762274
  0
LINE
  5
22C
100
AcDbEntity
  8
0
100
AcDbLine
 62
7
  6
BYLAYER
 10
74.0538717616
 20
65.6649420486
 11
71.1441152426
 21
67.3448527535
  0
LINE
  5
22D
100
AcDbEntity
  8
0
100
AcDbLine
 62
7
  6
BYLAYER
 10
72.0633578853
 20
68.8553958154
 11
74.6195595417
 21
67.3796054878
  0
LINE
  5
22E
100
AcDbEntity
  8
0
100
AcDbLine
 62
7
  6
BYLAYER
 10
56.0013604786
 20
91.1965127656
 11
56.0013604786
 21
105.3997652865
  0
LINE
  5
22F
100
AcDbEntity
  8
0
100
AcDbLine
 62
7
  6
BYLAYER
 10
57.7691347915
 20
104.3791634002
 11
57.7691347915
 21
90.8764622552
  0
LINE
  5
230
100
AcDbEntity
  8
0
100
AcDbLine
 62
7
  6
BYLAYER
 10
58.0095487241
 20
93.7190919002
 11
58.0095487241
 21
90.8329359966
  0
LINE
  5
231
100
AcDbEntity
  8
0
100
AcDbLine
 62
7
  6
BYLAYER
 10
80.6743688274
 20
107.0869607398
 11
73.1710174298
 21
99.895949816
  0
LINE
  5
232
100
AcDbEntity
  8
0
100
AcDbLine
 62
7
  6
BYLAYER
 10
73.878127155
 20
99.4877090615
 11
81.3814785525
 21
106.6787199853
  0
LINE
  5
233
100
AcDbEntity
  8
0
100
AcDbLine
 62
7
  6
BYLAYER
 10
26.3449925877
 20
54.1485725858
 11
22.8932463319
 21
51.0100297427
  0
LINE
  5
234
100
AcDbEntity
  8
0
100
AcDbLine
 62
7
  6
BYLAYER
 10
89.4142450302
 20
102.0411050139
 11
80.8491120228
 21
97.0960526845
  0
LINE
  5
235
100
AcDbEntity
  8
0
100
AcDbLine
 62
7
  6
BYLAYER
 10
74.9731144043
 20
93.3977997473
 11
71.2144708623
 21
91.2277588399
  0
LINE
  5
236
100
AcDbEntity
  8
0
100
AcDbLine
 62
7
  6
BYLAYER
 10
78.5086483102
 20
94.4466743411
 11
76.7408887172
 21
93.4260639564
  0
LINE
  5
237
100
AcDbEntity
  8
0
100
AcDbLine
 62
7
  6
BYLAYER
 10
15.2450946084
 20
55.7959413408
 11
18.6594997626
 21
57.7672373087
  0
LINE
  5
238
100
AcDbEntity
  8
0
100
AcDbLine
 62
7
  6
BYLAYER
 10
90.3151149423
 20
102.1862549025
 11
93.7844000404
 21
104.1698705451
  0
LINE
  5
239
100
AcDbEntity
  8
0
100
AcDbLine
 62
7
  6
BYLAYER
 10
78.5608703421
 20
66.981897047
 11
79.2051101739
 21
66.6099534212
  0
LINE
  5
23A
100
AcDbEntity
  8
0
100
AcDbLine
 62
7
  6
BYLAYER
 10
72.2666984031
 20
70.6159595096
 11
74.4498543853
 21
69.3555423301
  0
LINE
  5
23B
100
AcDbEntity
  8
0
100
AcDbLine
 62
7
  6
BYLAYER
 10
79.6215532586
 20
67.594278959
 11
83.6599014424
 21
65.2627902934
  0
LINE
  5
23C
100
AcDbEntity
  8
0
100
AcDbLine
 62
7
  6
BYLAYER
 10
80.4873941364
 20
68.1559231245
 11
81.1850380121
 21
67.7531473571
  0
LINE
  5
23D
100
AcDbEntity
  8
0
100
AcDbLine
 62
7
  6
BYLAYER
 10
60.2192711667
 20
97.5756967345
 11
60.2192711667
 21
94.9949069681
  0
LINE
  5
23E
100
AcDbEntity
  8
0
100
AcDbLine
 62
7
  6
BYLAYER
 10
62.0117578148
 20
98.6105832058
 11
62.0117578148
 21
102.7461162378
  0
LINE
  5
23F
100
AcDbEntity
  8
0
100
AcDbLine
 62
7
  6
BYLAYER
 10
79.9439562511
 20
112.2049722945
 11
78.0504379678
 21
109.2563630736
  0
LINE
  5
240
100
AcDbEntity
  8
0
100
AcDbLine
 62
7
  6
BYLAYER
 10
22.6594818551
 20
50.8390237395
 11
22.8932463319
 21
51.0100297427
  0
LINE
  5
241
100
AcDbEntity
  8
0
100
AcDbLine
 62
7
  6
BYLAYER
 10
23.2635632466
 20
59.2706799183
 11
34.0590817538
 21
65.50343823
  0
LINE
  5
242
100
AcDbEntity
  8
0
100
AcDbLine
 62
7
  6
BYLAYER
 10
86.364567879
 20
93.9117747992
 11
94.9297008863
 21
98.8568271287
  0
LINE
  5
243
100
AcDbEntity
  8
0
100
AcDbLine
 62
7
  6
BYLAYER
 10
85.286240268
 20
92.9013808874
 11
81.1850380121
 21
90.533564795
  0
LINE
  5
244
100
AcDbEntity
  8
0
100
AcDbLine
 62
7
  6
BYLAYER
 10
99.7845446676
 20
100.8432674537
 11
95.6368106115
 21
98.4485863741
  0
LINE
  5
245
100
AcDbEntity
  8
0
100
AcDbLine
 62
7
  6
BYLAYER
 10
94.7564877101
 20
99.605373119
 11
98.2790567588
 21
101.6194546573
  0
LINE
  5
246
100
AcDbEntity
  8
0
100
AcDbLine
 62
7
  6
BYLAYER
 10
84.9326883493
 20
76.1630848636
 11
88.1146556168
 21
75.1832502169
  0
LINE
  5
247
100
AcDbEntity
  8
0
100
AcDbLine
 62
7
  6
BYLAYER
 10
87.4570435724
 20
75.5629141187
 11
85.3357320608
 21
76.2161372164
  0
LINE
  5
248
100
AcDbEntity
  8
0
100
AcDbLine
 62
7
  6
BYLAYER
 10
83.6599014424
 20
67.8905942274
 11
82.5414936065
 21
68.5362926849
  0
LINE
  5
249
100
AcDbEntity
  8
0
100
AcDbLine
 62
7
  6
BYLAYER
 10
83.6599014424
 20
67.8905942274
 11
82.5992456865
 21
68.5696356648
  0
LINE
  5
24A
100
AcDbEntity
  8
0
100
AcDbLine
 62
7
  6
BYLAYER
 10
88.707135305
 20
102.4493457684
 11
86.5642697528
 21
100.3956808422
  0
LINE
  5
24B
100
AcDbEntity
  8
0
100
AcDbLine
 62
7
  6
BYLAYER
 10
74.4498543853
 20
85.5858840103
 11
74.9731144043
 21
85.8879865198
  0
LINE
  5
24C
100
AcDbEntity
  8
0
100
AcDbLine
 62
7
  6
BYLAYER
 10
87.0009613325
 20
91.2581355943
 11
86.364567879
 21
90.8907158558
  0
LINE
  5
24D
100
AcDbEntity
  8
0
100
AcDbLine
 62
7
  6
BYLAYER
 10
86.0110218483
 20
89.8701088705
 11
87.7080710576
 21
90.8498948398
  0
LINE
  5
24E
100
AcDbEntity
  8
0
100
AcDbLine
 62
7
  6
BYLAYER
 10
26.263549816
 20
54.0745197415
 11
37.0590683232
 21
60.3072780531
  0
LINE
  5
24F
100
AcDbEntity
  8
0
100
AcDbLine
 62
7
  6
BYLAYER
 10
85.9933441052
 20
88.1656598134
 11
85.286240268
 21
87.7574156595
  0
LINE
  5
250
100
AcDbEntity
  8
0
100
AcDbLine
 62
7
  6
BYLAYER
 10
18.9244781484
 20
57.8841789127
 11
18.6594997626
 21
57.7672373087
  0
LINE
  5
251
100
AcDbEntity
  8
0
100
AcDbLine
 62
7
  6
BYLAYER
 10
88.6980164297
 20
75.525044683
 11
86.0110218483
 21
76.3978189879
  0
LINE
  5
252
100
AcDbEntity
  8
0
100
AcDbLine
 62
7
  6
BYLAYER
 10
88.6980164297
 20
71.5516056627
 11
88.1146556168
 21
71.8884015658
  0
LINE
  5
253
100
AcDbEntity
  8
0
100
AcDbLine
 62
7
  6
BYLAYER
 10
66.5937799639
 20
105.3261862956
 11
66.5937799639
 21
103.6932337315
  0
LINE
  5
254
100
AcDbEntity
  8
0
100
AcDbLine
 62
7
  6
BYLAYER
 10
69.3763409298
 20
62.4049869947
 11
69.3763409298
 21
65.6144321712
  0
LINE
  5
255
100
AcDbEntity
  8
0
100
AcDbLine
 62
7
  6
BYLAYER
 10
19.2450767009
 20
48.8677277717
 11
22.6594818551
 21
50.8390237395
  0
LINE
  5
256
100
AcDbEntity
  8
0
100
AcDbLine
 62
7
  6
BYLAYER
 10
23.3684164501
 20
59.3041844634
 11
18.9244781484
 21
57.8841789127
  0
LINE
  5
257
100
AcDbEntity
  8
0
100
AcDbLine
 62
7
  6
BYLAYER
 10
85.3357320608
 20
76.2161372164
 11
84.9326883493
 21
76.4488293475
  0
LINE
  5
258
100
AcDbEntity
  8
0
100
AcDbLine
 62
7
  6
BYLAYER
 10
87.4570435724
 20
75.5629141187
 11
88.1146556168
 21
75.1832502169
  0
LINE
  5
259
100
AcDbEntity
  8
0
100
AcDbLine
 62
7
  6
BYLAYER
 10
85.3039121231
 20
76.8060597424
 11
86.0110218483
 21
76.3978189879
  0
LINE
  5
25A
100
AcDbEntity
  8
0
100
AcDbLine
 62
7
  6
BYLAYER
 10
71.1441152426
 20
67.3448527535
 11
71.1441152426
 21
62.6220308776
  0
LINE
  5
25B
100
AcDbEntity
  8
0
100
AcDbLine
 62
7
  6
BYLAYER
 10
72.10923582
 20
100.5089558462
 11
72.10923582
 21
102.1419084103
  0
LINE
  5
25C
100
AcDbEntity
  8
0
100
AcDbLine
 62
7
  6
BYLAYER
 10
94.9297008863
 20
98.8568271287
 11
87.0009613325
 21
91.2581355943
  0
LINE
  5
25D
100
AcDbEntity
  8
0
100
AcDbLine
 62
7
  6
BYLAYER
 10
87.7080710576
 20
90.8498948398
 11
95.6368106115
 21
98.4485863741
  0
LINE
  5
25E
100
AcDbEntity
  8
0
100
AcDbLine
 62
7
  6
BYLAYER
 10
71.9128981314
 20
72.9244836595
 11
73.8314285601
 21
74.0321411072
  0
LINE
  5
25F
100
AcDbEntity
  8
0
100
AcDbLine
 62
7
  6
BYLAYER
 10
99.7845446676
 20
100.8432674537
 11
102.6986724065
 21
101.3009762195
  0
LINE
  5
260
100
AcDbEntity
  8
0
100
AcDbLine
 62
7
  6
BYLAYER
 10
74.4498543853
 20
69.3555423301
 11
74.4498543853
 21
85.5858840103
  0
LINE
  5
261
100
AcDbEntity
  8
0
100
AcDbLine
 62
7
  6
BYLAYER
 10
74.9731144043
 20
67.5837363192
 11
74.9731144043
 21
94.4466658427
  0
LINE
  5
262
100
AcDbEntity
  8
0
100
AcDbLine
 62
7
  6
BYLAYER
 10
75.3867382659
 20
65.3664172286
 11
75.3867382659
 21
65.0714958008
  0
LINE
  5
263
100
AcDbEntity
  8
0
100
AcDbLine
 62
7
  6
BYLAYER
 10
76.7408887172
 20
93.4260639564
 11
76.7408887172
 21
67.2163363666
  0
LINE
  5
264
100
AcDbEntity
  8
0
100
AcDbLine
 62
7
  6
BYLAYER
 10
91.8485315836
 20
101.2951864688
 11
93.7844000404
 21
104.1698705451
  0
LINE
  5
265
100
AcDbEntity
  8
0
100
AcDbLine
 62
7
  6
BYLAYER
 10
72.2666984031
 20
70.6159595096
 11
72.0795959005
 21
70.5009896982
  0
LINE
  5
266
100
AcDbEntity
  8
0
100
AcDbLine
 62
7
  6
BYLAYER
 10
71.3032373447
 20
69.7016889491
 11
72.5767567133
 21
70.4369513105
  0
LINE
  5
267
100
AcDbEntity
  8
0
100
AcDbLine
 62
7
  6
BYLAYER
 10
73.6897419788
 20
69.7943835046
 11
72.0633578853
 21
68.8553958154
  0
LINE
  5
268
100
AcDbEntity
  8
0
100
AcDbLine
 62
7
  6
BYLAYER
 10
74.9731144043
 20
69.6576448396
 11
74.4498543853
 21
69.3555423301
  0
LINE
  5
269
100
AcDbEntity
  8
0
100
AcDbLine
 62
7
  6
BYLAYER
 10
95.7689971001
 20
105.3017356138
 11
92.8548693612
 21
104.844026848
  0
LINE
  5
26A
100
AcDbEntity
  8
0
100
AcDbLine
 62
7
  6
BYLAYER
 10
71.2144708623
 20
91.2277588399
 11
60.2192711667
 21
97.5756967345
  0
LINE
  5
26B
100
AcDbEntity
  8
0
100
AcDbLine
 62
7
  6
BYLAYER
 10
59.5368943845
 20
105.3997737849
 11
62.0117578148
 21
102.7461162378
  0
LINE
  5
26C
100
AcDbEntity
  8
0
100
AcDbLine
 62
7
  6
BYLAYER
 10
71.2144708623
 20
91.2277588399
 11
74.4498543853
 21
85.5858840103
  0
LINE
  5
26D
100
AcDbEntity
  8
0
100
AcDbLine
 62
7
  6
BYLAYER
 10
79.2051101739
 20
66.6099534212
 11
79.2051101739
 21
67.3538468672
  0
LINE
  5
26E
100
AcDbEntity
  8
0
100
AcDbLine
 62
7
  6
BYLAYER
 10
85.9933441052
 20
83.0056139421
 11
84.9326883493
 21
81.8121047273
  0
LINE
  5
26F
100
AcDbEntity
  8
0
100
AcDbLine
 62
7
  6
BYLAYER
 10
61.0401895347
 20
60.4117862927
 11
68.4647798254
 21
64.6983499084
  0
LINE
  5
270
100
AcDbEntity
  8
0
100
AcDbLine
 62
7
  6
BYLAYER
 10
74.6195595417
 20
67.3796054878
 11
74.9731174591
 21
67.5837310281
  0
LINE
  5
271
100
AcDbEntity
  8
0
100
AcDbLine
 62
7
  6
BYLAYER
 10
76.7408887172
 20
67.2163363666
 11
80.9835117404
 21
69.6658012898
  0
LINE
  5
272
100
AcDbEntity
  8
0
100
AcDbLine
 62
7
  6
BYLAYER
 10
69.0227860672
 20
62.2008561634
 11
69.3763439845
 21
62.4049817037
  0
LINE
  5
273
100
AcDbEntity
  8
0
100
AcDbLine
 62
7
  6
BYLAYER
 10
75.9538632555
 20
65.4767497884
 11
80.1964862788
 21
67.9262147116
  0
LINE
  5
274
100
AcDbEntity
  8
0
100
AcDbLine
 62
7
  6
BYLAYER
 10
71.1441152426
 20
62.6220308776
 11
75.3867382659
 21
65.0714958008
  0
LINE
  5
275
100
AcDbEntity
  8
0
100
AcDbLine
 62
7
  6
BYLAYER
 10
81.1850380121
 20
90.533564795
 11
80.9835117404
 21
90.64991341
  0
LINE
  5
276
100
AcDbEntity
  8
0
100
AcDbLine
 62
7
  6
BYLAYER
 10
64.6033149574
 20
100.1068104885
 11
62.0117578148
 21
101.6030128538
  0
LINE
  5
277
100
AcDbEntity
  8
0
100
AcDbLine
 62
7
  6
BYLAYER
 10
56.0013604786
 20
105.3997652865
 11
57.7691347915
 21
104.3791634002
  0
LINE
  5
278
100
AcDbEntity
  8
0
100
AcDbLine
 62
7
  6
BYLAYER
 10
74.9731144043
 20
94.4466658427
 11
76.7408887172
 21
93.4260639564
  0
LINE
  5
279
100
AcDbEntity
  8
0
100
AcDbLine
 62
7
  6
BYLAYER
 10
85.286240268
 20
88.5738971686
 11
85.9933441052
 21
88.1656598134
  0
LINE
  5
27A
100
AcDbEntity
  8
0
100
AcDbLine
 62
7
  6
BYLAYER
 10
85.286240268
 20
90.2885522446
 11
86.0110218483
 21
89.8701088705
  0
LINE
  5
27B
100
AcDbEntity
  8
0
100
AcDbLine
 62
7
  6
BYLAYER
 10
78.5086483102
 20
94.4466743411
 11
76.7408739973
 21
95.4672762274
  0
LINE
  5
27C
100
AcDbEntity
  8
0
100
AcDbLine
 62
7
  6
BYLAYER
 10
59.5368943845
 20
105.3997737849
 11
57.7691200716
 21
106.4203756712
  0
LINE
  5
27D
100
AcDbEntity
  8
0
100
AcDbLine
 62
7
  6
BYLAYER
 10
80.8491120228
 20
97.0960526845
 11
80.8491120228
 21
95.4631001204
  0
LINE
  5
27E
100
AcDbEntity
  8
0
100
AcDbLine
 62
7
  6
BYLAYER
 10
80.9835117404
 20
69.6658012898
 11
80.9835117404
 21
91.793016794
  0
LINE
  5
27F
100
AcDbEntity
  8
0
100
AcDbLine
 62
7
  6
BYLAYER
 10
81.1850380121
 20
90.533564795
 11
81.1850380121
 21
67.7531473571
  0
LINE
  5
280
100
AcDbEntity
  8
0
100
AcDbLine
 62
7
  6
BYLAYER
 10
83.6599014424
 20
67.8905942274
 11
83.6599014424
 21
65.2627902934
  0
LINE
  5
281
100
AcDbEntity
  8
0
100
AcDbLine
 62
7
  6
BYLAYER
 10
80.1964813077
 20
67.9262233197
 11
80.4873941364
 21
68.1559231245
  0
LINE
  5
282
100
AcDbEntity
  8
0
100
AcDbLine
 62
7
  6
BYLAYER
 10
81.1850380121
 20
67.7531473571
 11
82.5992456865
 21
68.5696356648
  0
LINE
  5
283
100
AcDbEntity
  8
0
100
AcDbLine
 62
7
  6
BYLAYER
 10
79.2051101739
 20
66.6099534212
 11
80.2657930905
 21
67.2223353332
  0
LINE
  5
284
100
AcDbEntity
  8
0
100
AcDbLine
 62
7
  6
BYLAYER
 10
70.357089781
 20
60.8824442994
 11
74.5997128043
 21
63.3319092226
  0
LINE
  5
285
100
AcDbEntity
  8
0
100
AcDbLine
 62
7
  6
BYLAYER
 10
95.6368106115
 20
72.320509026
 11
99.7845446676
 21
74.7151901055
  0
LINE
  5
286
100
AcDbEntity
  8
0
100
AcDbLine
 62
7
  6
BYLAYER
 10
85.5292126086
 20
109.0734010648
 11
88.4433403476
 21
109.5311098307
  0
LINE
  5
287
100
AcDbEntity
  8
0
100
AcDbLine
 62
7
  6
BYLAYER
 10
86.364567879
 20
90.8907158558
 11
85.286240268
 21
91.5132745082
  0
LINE
  5
288
100
AcDbEntity
  8
0
100
AcDbLine
 62
7
  6
BYLAYER
 10
87.7080710576
 20
90.8498948398
 11
87.0009613325
 21
91.2581355943
  0
LINE
  5
289
100
AcDbEntity
  8
0
100
AcDbLine
 62
7
  6
BYLAYER
 10
64.1436594861
 20
105.1077794476
 11
85.286240268
 21
92.9013808874
  0
LINE
  5
28A
100
AcDbEntity
  8
0
100
AcDbLine
 62
7
  6
BYLAYER
 10
66.5937799639
 20
105.3261862956
 11
72.10923582
 21
102.1419084103
  0
LINE
  5
28B
100
AcDbEntity
  8
0
100
AcDbLine
 62
7
  6
BYLAYER
 10
80.8491120228
 20
97.0960526845
 11
86.364567879
 21
93.9117747992
  0
LINE
  5
28C
100
AcDbEntity
  8
0
100
AcDbLine
 62
7
  6
BYLAYER
 10
78.5086483102
 20
94.4466743411
 11
80.9835117404
 21
91.793016794
  0
LINE
  5
28D
100
AcDbEntity
  8
0
100
AcDbLine
 62
7
  6
BYLAYER
 10
84.9326883493
 20
76.1630848636
 11
84.9326883493
 21
81.8121047273
  0
LINE
  5
28E
100
AcDbEntity
  8
0
100
AcDbLine
 62
7
  6
BYLAYER
 10
85.286240268
 20
87.7574156595
 11
85.286240268
 21
92.9013808874
  0
LINE
  5
28F
100
AcDbEntity
  8
0
100
AcDbLine
 62
7
  6
BYLAYER
 10
85.3039121231
 20
76.2345080504
 11
85.3039121231
 21
76.8060597424
  0
LINE
  5
290
100
AcDbEntity
  8
0
100
AcDbLine
 62
7
  6
BYLAYER
 10
85.9933441052
 20
88.1656598134
 11
85.9933441052
 21
83.0056139421
  0
LINE
  5
291
100
AcDbEntity
  8
0
100
AcDbLine
 62
7
  6
BYLAYER
 10
86.0110218483
 20
89.8701088705
 11
86.0110218483
 21
76.3978189879
  0
LINE
  5
292
100
AcDbEntity
  8
0
100
AcDbLine
 62
7
  6
BYLAYER
 10
86.364567879
 20
90.8907158558
 11
86.364567879
 21
93.9117747992
  0
LINE
  5
293
100
AcDbEntity
  8
0
100
AcDbLine
 62
7
  6
BYLAYER
 10
83.6599014424
 20
65.2627902934
 11
87.796223276
 21
67.6508825625
  0
LINE
  5
294
100
AcDbEntity
  8
0
100
AcDbLine
 62
7
  6
BYLAYER
 10
81.5136650411
 20
113.531869225
 11
78.5995373022
 21
113.0741604591
  0
LINE
  5
295
100
AcDbEntity
  8
0
100
AcDbLine
 62
7
  6
BYLAYER
 10
87.9909067046
 20
75.7547240442
 11
87.9909067046
 21
75.2546950684
  0
LINE
  5
296
100
AcDbEntity
  8
0
100
AcDbLine
 62
7
  6
BYLAYER
 10
88.1146556168
 20
68.4716003481
 11
88.1146556168
 21
75.1832502169
  0
LINE
  5
297
100
AcDbEntity
  8
0
100
AcDbLine
 62
7
  6
BYLAYER
 10
88.4433403476
 20
102.1965317497
 11
88.4433403476
 21
109.5311098307
  0
LINE
  5
298
100
AcDbEntity
  8
0
100
AcDbLine
 62
7
  6
BYLAYER
 10
88.6980164297
 20
75.525044683
 11
88.6980164297
 21
71.5516056627
  0
LINE
  5
299
100
AcDbEntity
  8
0
100
AcDbLine
 62
7
  6
BYLAYER
 10
88.1146556168
 20
68.4716003481
 11
87.796223276
 21
67.6508825625
  0
LINE
  5
29A
100
AcDbEntity
  8
0
100
AcDbLine
 62
7
  6
BYLAYER
 10
102.6986724065
 20
77.6224061228
 11
99.7845446676
 21
74.7151901055
  0
LINE
  5
29B
100
AcDbEntity
  8
0
100
AcDbLine
 62
7
  6
BYLAYER
 10
76.4554526357
 20
110.1712416138
 11
80.925778291
 21
107.6070769612
  0
LINE
  5
29C
100
AcDbEntity
  8
0
100
AcDbLine
 62
7
  6
BYLAYER
 10
74.4518032461
 20
110.6794793796
 11
75.1589129712
 21
110.2712386251
  0
LINE
  5
29D
100
AcDbEntity
  8
0
100
AcDbLine
 62
7
  6
BYLAYER
 10
80.6743688274
 20
107.0869607398
 11
81.3814785525
 21
106.6787199853
  0
LINE
  5
29E
100
AcDbEntity
  8
0
100
AcDbLine
 62
7
  6
BYLAYER
 10
88.707135305
 20
102.4493457684
 11
89.4142450302
 21
102.0411050139
  0
LINE
  5
29F
100
AcDbEntity
  8
0
100
AcDbLine
 62
7
  6
BYLAYER
 10
94.9297008863
 20
98.8568271287
 11
95.6368106115
 21
98.4485863741
  0
LINE
  5
2A0
100
AcDbEntity
  8
0
100
AcDbLine
 62
7
  6
BYLAYER
 10
90.3151149423
 20
102.1862549025
 11
94.7564877101
 21
99.605373119
  0
LINE
  5
2A1
100
AcDbEntity
  8
0
100
AcDbLine
 62
7
  6
BYLAYER
 10
98.2790567588
 20
101.6194546573
 11
93.7844000404
 21
104.1698705451
  0
LINE
  5
2A2
100
AcDbEntity
  8
0
100
AcDbLine
 62
7
  6
BYLAYER
 10
99.7845446676
 20
100.8432674537
 11
92.8548693612
 21
104.844026848
  0
LINE
  5
2A3
100
AcDbEntity
  8
0
100
AcDbLine
 62
7
  6
BYLAYER
 10
85.5292126086
 20
109.0734010648
 11
78.5995373022
 21
113.0741604591
  0
LINE
  5
2A4
100
AcDbEntity
  8
0
100
AcDbLine
 62
7
  6
BYLAYER
 10
81.5136650411
 20
113.531869225
 11
88.4433403476
 21
109.5311098307
  0
LINE
  5
2A5
100
AcDbEntity
  8
0
100
AcDbLine
 62
7
  6
BYLAYER
 10
95.7689971001
 20
105.3017356138
 11
102.6986724065
 21
101.3009762195
  0
LINE
  5
2A6
100
AcDbEntity
  8
0
100
AcDbLine
 62
7
  6
BYLAYER
 10
84.3614388932
 20
109.610006964
 11
79.9439562511
 21
112.2049804317
  0
LINE
  5
2A7
100
AcDbEntity
  8
0
100
AcDbLine
 62
7
  6
BYLAYER
 10
102.6986724065
 20
77.6224061228
 11
102.6986724065
 21
101.3009762195
  0
ARC
  5
2A8
100
AcDbEntity
  8
0
100
AcDbCircle
 62
7
  6
BYLAYER
 10
53.4565458473
 20
76.7100021472
 40
15.0877298815
100
AcDbArc
 50
56.0127075817
 51
59.9368256164
  0
ARC
  5
2A9
100
AcDbEntity
  8
0
100
AcDbCircle
 62
7
  6
BYLAYER
 10
45.6482553468
 20
70.2387932749
 40
13.011468661
100
AcDbArc
 50
52.5080015226
 51
52.7720058432
  0
ARC
  5
2AA
100
AcDbEntity
  8
0
100
AcDbCircle
 62
7
  6
BYLAYER
 10
40.7926054385
 20
64.539186284
 40
5.0924080574
100
AcDbArc
 50
238.1402485264
 51
239.995689363
  0
ARC
  5
2AB
100
AcDbEntity
  8
0
100
AcDbCircle
 62
7
  6
BYLAYER
 10
40.5406010133
 20
64.330631532
 40
4.5884291314
100
AcDbArc
 50
239.9954316314
 51
242.1434752592
  0
ARC
  5
2AC
100
AcDbEntity
  8
0
100
AcDbCircle
 62
7
  6
BYLAYER
 10
61.795430099
 20
85.0523424265
 40
4.5027591285
100
AcDbArc
 50
89.4923777419
 51
93.7089885673
  0
ARC
  5
2AD
100
AcDbEntity
  8
0
100
AcDbCircle
 62
7
  6
BYLAYER
 10
17.2450856546
 20
52.3318345563
 40
4.0
100
AcDbArc
 50
119.9998519061
 51
299.9998519061
  0
ARC
  5
2AE
100
AcDbEntity
  8
0
100
AcDbCircle
 62
7
  6
BYLAYER
 10
70.1160971895
 20
73.9036814767
 40
3.9287166217
100
AcDbArc
 50
290.5667059674
 51
299.9867851393
  0
ARC
  5
2AF
100
AcDbEntity
  8
0
100
AcDbCircle
 62
7
  6
BYLAYER
 10
62.5055063156
 20
87.0851685205
 40
3.7504515725
100
AcDbArc
 50
120.0095531448
 51
125.4446073768
  0
ARC
  5
2B0
100
AcDbEntity
  8
0
100
AcDbCircle
 62
7
  6
BYLAYER
 10
69.9588108748
 20
74.1743420464
 40
3.7417524441
100
AcDbArc
 50
294.7583159713
 51
299.9996739161
  0
SPLINE
  5
2B1
100
AcDbEntity
  8
0
100
AcDbSpline
 62
7
  6
BYLAYER
 70
0
 71
3
 72
11
 73
7
 74
0
 42
0.0000001
 43
0.0000001
 44
0.0000000001
 40
0.0
 40
0.0
 40
0.0
 40
0.0
 40
0.217745073
 40
0.4508830113
 40
0.7104597664
 40
1.0
 40
1.0
 40
1.0
 40
1.0
 10
74.8695444341
 20
67.3548675766
 30
0.0
 10
74.8860345065
 20
67.3643880753
 30
0.0
 10
74.9169186387
 20
67.3902927462
 30
0.0
 10
74.9497718441
 20
67.4440333551
 30
0.0
 10
74.9692484096
 20
67.5102387532
 30
0.0
 10
74.9731144043
 20
67.558417004
 30
0.0
 10
74.9731144043
 20
67.5837363192
 30
0.0
  0
SPLINE
  5
2B2
100
AcDbEntity
  8
0
100
AcDbSpline
 62
7
  6
BYLAYER
 70
0
 71
3
 72
11
 73
7
 74
0
 42
0.0000001
 43
0.0000001
 44
0.0000000001
 40
0.0
 40
0.0
 40
0.0
 40
0.0
 40
0.217745073
 40
0.4508830113
 40
0.7104597664
 40
1.0
 40
1.0
 40
1.0
 40
1.0
 10
69.2727709596
 20
62.1761182522
 30
0.0
 10
69.2892610319
 20
62.1856387509
 30
0.0
 10
69.3201451642
 20
62.2115434218
 30
0.0
 10
69.3529983695
 20
62.2652840307
 30
0.0
 10
69.372474935
 20
62.3314894288
 30
0.0
 10
69.3763409298
 20
62.3796676796
 30
0.0
 10
69.3763409298
 20
62.4049869947
 30
0.0
  0
SPLINE
  5
2B3
100
AcDbEntity
  8
0
100
AcDbSpline
 62
7
  6
BYLAYER
 70
0
 71
3
 72
12
 73
8
 74
0
 42
0.0000001
 43
0.0000001
 44
0.0000000001
 40
0.0
 40
0.0
 40
0.0
 40
0.0
 40
0.1081617394
 40
0.2183631591
 40
0.4513653165
 40
0.7104188067
 40
1.0
 40
1.0
 40
1.0
 40
1.0
 10
74.5997095606
 20
63.3319148409
 30
0.0
 10
74.6620120804
 20
63.3678849952
 30
0.0
 10
74.7817825696
 20
63.4515085365
 30
0.0
 10
74.9966980999
 20
63.662833792
 30
0.0
 10
75.2094751579
 20
64.0098092818
 30
0.0
 10
75.3575559699
 20
64.5126724685
 30
0.0
 10
75.3867382659
 20
64.8788892738
 30
0.0
 10
75.3867382659
 20
65.0714958008
 30
0.0
  0
SPLINE
  5
2B4
100
AcDbEntity
  8
0
100
AcDbSpline
 62
7
  6
BYLAYER
 70
0
 71
3
 72
12
 73
8
 74
0
 42
0.0000001
 43
0.0000001
 44
0.0000000001
 40
0.0
 40
0.0
 40
0.0
 40
0.0
 40
0.108162245
 40
0.2183640921
 40
0.4513666551
 40
0.7104197903
 40
1.0
 40
1.0
 40
1.0
 40
1.0
 10
70.3570865373
 20
60.8824499176
 30
0.0
 10
70.2947853968
 20
60.8464805521
 30
0.0
 10
70.1624828522
 20
60.7845698664
 30
0.0
 10
69.8720190365
 20
60.7041120178
 30
0.0
 10
69.4651517484
 20
60.6933276229
 30
0.0
 10
68.9556323399
 20
60.8165098134
 30
0.0
 10
68.6238963454
 20
60.9743378343
 30
0.0
 10
68.4570982871
 20
61.0706365597
 30
0.0
  0
SPLINE
  5
2B5
100
AcDbEntity
  8
0
100
AcDbSpline
 62
7
  6
BYLAYER
 70
0
 71
3
 72
12
 73
8
 74
0
 42
0.0000001
 43
0.0000001
 44
0.0000000001
 40
0.0
 40
0.0
 40
0.0
 40
0.0
 40
0.108162245
 40
0.2183640921
 40
0.4513666551
 40
0.7104197903
 40
1.0
 40
1.0
 40
1.0
 40
1.0
 10
75.9538600119
 20
65.4767554066
 30
0.0
 10
75.8915588713
 20
65.4407860411
 30
0.0
 10
75.7592563268
 20
65.3788753553
 30
0.0
 10
75.468792511
 20
65.2984175067
 30
0.0
 10
75.061925223
 20
65.2876331119
 30
0.0
 10
74.5524058144
 20
65.4108153024
 30
0.0
 10
74.2206698199
 20
65.5686433233
 30
0.0
 10
74.0538717616
 20
65.6649420486
 30
0.0
  0
SPLINE
  5
2B6
100
AcDbEntity
  8
0
100
AcDbSpline
 62
7
  6
BYLAYER
 70
0
 71
3
 72
15
 73
11
 74
0
 42
0.0000001
 43
0.0000001
 44
0.0000000001
 40
0.0
 40
0.0
 40
0.0
 40
0.0
 40
0.1080133567
 40
0.2180605687
 40
0.3319963903
 40
0.4513581235
 40
0.5772687029
 40
0.7104884881
 40
0.8514349766
 40
1.0
 40
1.0
 40
1.0
 40
1.0
 10
71.8296686546
 20
70.9338787276
 30
0.0
 10
72.0132931013
 20
71.0399095754
 30
0.0
 10
72.3663658668
 20
71.2862365212
 30
0.0
 10
72.8328326702
 20
71.7453639085
 30
0.0
 10
73.2340768366
 20
72.2902302906
 30
0.0
 10
73.566213449
 20
72.9148131663
 30
0.0
 10
73.8268568282
 20
73.6126415397
 30
0.0
 10
74.013887175
 20
74.3771010087
 30
0.0
 10
74.1257762366
 20
75.2006955897
 30
0.0
 10
74.1493327521
 20
75.7694189621
 30
0.0
 10
74.1493327521
 20
76.0610639878
 30
0.0
  0
SPLINE
  5
2B7
100
AcDbEntity
  8
0
100
AcDbSpline
 62
7
  6
BYLAYER
 70
0
 71
3
 72
25
 73
21
 74
0
 42
0.0000001
 43
0.0000001
 44
0.0000000001
 40
0.0
 40
0.0
 40
0.0
 40
0.0
 40
0.0623810046
 40
0.1287237596
 40
0.1983145983
 40
0.2702911245
 40
0.3436679504
 40
0.4174006514
 40
0.4904256043
 40
0.5617125842
 40
0.6303099949
 40
0.6953974348
 40
0.7563447105
 40
0.8127816888
 40
0.8646820554
 40
0.9124568983
 40
0.9351018781
 40
0.9571070915
 40
0.9786677644
 40
1.0
 40
1.0
 40
1.0
 40
1.0
 10
74.1493327521
 20
76.0610639878
 30
0.0
 10
74.1493327521
 20
76.5256923031
 30
0.0
 10
74.0863696265
 20
77.4850952832
 30
0.0
 10
73.8273728969
 20
78.9418068077
 30
0.0
 10
73.4062100714
 20
80.4344687581
 30
0.0
 10
72.8320185993
 20
81.9311431871
 30
0.0
 10
72.1169180275
 20
83.4001269376
 30
0.0
 10
71.2762180766
 20
84.8100809064
 30
0.0
 10
70.3278217308
 20
86.1309209376
 30
0.0
 10
69.291949834
 20
87.3344921729
 30
0.0
 10
68.1905774984
 20
88.3952063721
 30
0.0
 10
67.0468736812
 20
89.2905751274
 30
0.0
 10
65.8846266528
 20
90.0016379631
 30
0.0
 10
64.727315052
 20
90.5130554399
 30
0.0
 10
63.5984015968
 20
90.8131144761
 30
0.0
 10
62.6827886538
 20
90.8802999218
 30
0.0
 10
61.9960598196
 20
90.8159032133
 30
0.0
 10
61.5125683106
 20
90.7127445618
 30
0.0
 10
61.0545851036
 20
90.5544556769
 30
0.0
 10
60.7673346613
 20
90.4122944456
 30
0.0
 10
60.6297390063
 20
90.3328421492
 30
0.0
  0
SPLINE
  5
2B8
100
AcDbEntity
  8
0
100
AcDbSpline
 62
7
  6
BYLAYER
 70
0
 71
3
 72
11
 73
7
 74
0
 42
0.0000001
 43
0.0000001
 44
0.0000000001
 40
0.0
 40
0.0
 40
0.0
 40
0.0
 40
0.2200625142
 40
0.4576836033
 40
0.7171949095
 40
1.0
 40
1.0
 40
1.0
 40
1.0
 10
80.4873941364
 20
68.1559231245
 30
0.0
 10
80.5696549801
 20
68.2422064331
 30
0.0
 10
80.7174737244
 20
68.4447832373
 30
0.0
 10
80.8722561041
 20
68.8039075133
 30
0.0
 10
80.9647371462
 20
69.2182571955
 30
0.0
 10
80.9835117404
 20
69.5125996226
 30
0.0
 10
80.9835117404
 20
69.6658012898
 30
0.0
  0
SPLINE
  5
2B9
100
AcDbEntity
  8
0
100
AcDbSpline
 62
7
  6
BYLAYER
 70
0
 71
3
 72
12
 73
8
 74
0
 42
0.0000001
 43
0.0000001
 44
0.0000000001
 40
0.0
 40
0.0
 40
0.0
 40
0.0
 40
0.289581202
 40
0.5486347013
 40
0.7816368512
 40
0.8918382666
 40
1.0
 40
1.0
 40
1.0
 40
1.0
 10
76.7408887172
 20
67.2163363666
 30
0.0
 10
76.7408887172
 20
67.0237298339
 30
0.0
 10
76.7117064139
 20
66.6575130181
 30
0.0
 10
76.563625602
 20
66.1546498227
 30
0.0
 10
76.3508485321
 20
65.8076743447
 30
0.0
 10
76.1359330133
 20
65.5963490935
 30
0.0
 10
76.016162525
 20
65.5127255646
 30
0.0
 10
75.9538600119
 20
65.4767554066
 30
0.0
  0
SPLINE
  5
2BA
100
AcDbEntity
  8
0
100
AcDbSpline
 62
7
  6
BYLAYER
 70
0
 71
3
 72
12
 73
8
 74
0
 42
0.0000001
 43
0.0000001
 44
0.0000000001
 40
0.0
 40
0.0
 40
0.0
 40
0.0
 40
0.289581202
 40
0.5486347013
 40
0.7816368512
 40
0.8918382666
 40
1.0
 40
1.0
 40
1.0
 40
1.0
 10
71.1441152426
 20
62.6220308776
 30
0.0
 10
71.1441152426
 20
62.4294243449
 30
0.0
 10
71.1149329393
 20
62.0632075291
 30
0.0
 10
70.9668521275
 20
61.5603443337
 30
0.0
 10
70.7540750575
 20
61.2133688557
 30
0.0
 10
70.5391595388
 20
61.0020436045
 30
0.0
 10
70.4193890504
 20
60.9184200757
 30
0.0
 10
70.3570865373
 20
60.8824499176
 30
0.0
  0
SPLINE
  5
2BB
100
AcDbEntity
  8
0
100
AcDbSpline
 62
7
  6
BYLAYER
 70
0
 71
3
 72
11
 73
7
 74
0
 42
0.0000001
 43
0.0000001
 44
0.0000000001
 40
0.0
 40
0.0
 40
0.0
 40
0.0
 40
0.2895391946
 40
0.5491157945
 40
0.7822541179
 40
1.0
 40
1.0
 40
1.0
 40
1.0
 10
69.0227860672
 20
62.2008561634
 30
0.0
 10
69.0447126961
 20
62.1881971047
 30
0.0
 10
69.0883682252
 20
62.1674570753
 30
0.0
 10
69.1554403179
 20
62.1512225416
 30
0.0
 10
69.2184060236
 20
62.152804269
 30
0.0
 10
69.2562812671
 20
62.1665979728
 30
0.0
 10
69.2727709596
 20
62.1761182522
 30
0.0
  0
SPLINE
  5
2BC
100
AcDbEntity
  8
0
100
AcDbSpline
 62
7
  6
BYLAYER
 70
0
 71
3
 72
11
 73
7
 74
0
 42
0.0000001
 43
0.0000001
 44
0.0000000001
 40
0.0
 40
0.0
 40
0.0
 40
0.0
 40
0.2895391946
 40
0.5491157945
 40
0.7822541179
 40
1.0
 40
1.0
 40
1.0
 40
1.0
 10
74.6195595417
 20
67.3796054878
 30
0.0
 10
74.6414861706
 20
67.3669464291
 30
0.0
 10
74.6851416997
 20
67.3462063997
 30
0.0
 10
74.7522137925
 20
67.329971866
 30
0.0
 10
74.8151794981
 20
67.3315535934
 30
0.0
 10
74.8530547416
 20
67.3453472972
 30
0.0
 10
74.8695444341
 20
67.3548675766
 30
0.0
  0
SPLINE
  5
2BD
100
AcDbEntity
  8
0
100
AcDbSpline
 62
7
  6
BYLAYER
 70
0
 71
3
 72
9
 73
5
 74
0
 42
0.0000001
 43
0.0000001
 44
0.0000000001
 40
0.0
 40
0.0
 40
0.0
 40
0.0
 40
0.2325559681
 40
1.0
 40
1.0
 40
1.0
 40
1.0
 10
71.1620425352
 20
69.1959977143
 30
0.0
 10
71.2359538182
 20
69.1837133552
 30
0.0
 10
71.5508489145
 20
69.1132510818
 30
0.0
 10
71.8492265965
 20
68.9790217759
 30
0.0
 10
72.0633578853
 20
68.8553958154
 30
0.0
  0
SPLINE
  5
2BE
100
AcDbEntity
  8
0
100
AcDbSpline
 62
7
  6
BYLAYER
 70
0
 71
3
 72
9
 73
5
 74
0
 42
0.0000001
 43
0.0000001
 44
0.0000000001
 40
0.0
 40
0.0
 40
0.0
 40
0.0
 40
0.2432343619
 40
1.0
 40
1.0
 40
1.0
 40
1.0
 10
36.8532750236
 20
59.9653928536
 30
0.0
 10
36.8255688278
 20
59.9595839757
 30
0.0
 10
36.7108332563
 20
59.9397166409
 30
0.0
 10
36.5935062108
 20
59.9359184817
 30
0.0
 10
36.505566026
 20
59.9407974134
 30
0.0
  0
SPLINE
  5
2BF
100
AcDbEntity
  8
0
100
AcDbSpline
 62
7
  6
BYLAYER
 70
0
 71
3
 72
14
 73
10
 74
0
 42
0.0000001
 43
0.0000001
 44
0.0000000001
 40
0.0
 40
0.0
 40
0.0
 40
0.0
 40
0.2915262304
 40
0.4254438971
 40
0.5516241305
 40
0.6707802457
 40
0.7840832532
 40
0.893154207
 40
1.0
 40
1.0
 40
1.0
 40
1.0
 10
43.0632639764
 20
78.8917037236
 30
0.0
 10
43.0349414517
 20
79.7014592378
 30
0.0
 10
43.088599471
 20
80.8925211558
 30
0.0
 10
43.4058044656
 20
82.3952805718
 30
0.0
 10
43.746377432
 20
83.3959324054
 30
0.0
 10
44.1932705319
 20
84.2906714608
 30
0.0
 10
44.7427502714
 20
85.0696605203
 30
0.0
 10
45.3894549386
 20
85.7230209766
 30
0.0
 10
45.8830838536
 20
86.0708955275
 30
0.0
 10
46.1402694554
 20
86.219358689
 30
0.0
  0
SPLINE
  5
2C0
100
AcDbEntity
  8
0
100
AcDbSpline
 62
7
  6
BYLAYER
 70
0
 71
3
 72
15
 73
11
 74
0
 42
0.0000001
 43
0.0000001
 44
0.0000000001
 40
0.0
 40
0.0
 40
0.0
 40
0.0
 40
0.1485634047
 40
0.2895069003
 40
0.422725584
 40
0.5486364828
 40
0.6679989705
 40
0.7819359676
 40
0.8919847775
 40
1.0
 40
1.0
 40
1.0
 40
1.0
 10
61.0148131782
 20
89.7680336961
 30
0.0
 10
60.6788129622
 20
89.9620191227
 30
0.0
 10
60.0079311091
 20
90.3131633084
 30
0.0
 10
58.9846590763
 20
90.7320622022
 30
0.0
 10
57.9795347643
 20
91.0250687675
 30
0.0
 10
57.002201724
 20
91.1889469943
 30
0.0
 10
56.0616945966
 20
91.2217442661
 30
0.0
 10
55.16705734
 20
91.1218953425
 30
0.0
 10
54.3278126034
 20
90.889875136
 30
0.0
 10
53.8091620102
 20
90.6469478225
 30
0.0
 10
53.5648598799
 20
90.5059220501
 30
0.0
  0
SPLINE
  5
2C1
100
AcDbEntity
  8
0
100
AcDbSpline
 62
7
  6
BYLAYER
 70
0
 71
3
 72
9
 73
5
 74
0
 42
0.0000001
 43
0.0000001
 44
0.0000000001
 40
0.0
 40
0.0
 40
0.0
 40
0.0
 40
0.258942588
 40
1.0
 40
1.0
 40
1.0
 40
1.0
 10
63.9846492945
 20
88.1962369134
 30
0.0
 10
63.8711964124
 20
88.2617374836
 30
0.0
 10
63.4282686213
 20
88.5061970704
 30
0.0
 10
62.9656826818
 20
88.7158856508
 30
0.0
 10
62.61386033
 20
88.8454271312
 30
0.0
  0
SPLINE
  5
2C2
100
AcDbEntity
  8
0
100
AcDbSpline
 62
7
  6
BYLAYER
 70
0
 71
3
 72
21
 73
17
 74
0
 42
0.0000001
 43
0.0000001
 44
0.0000000001
 40
0.0
 40
0.0
 40
0.0
 40
0.0
 40
0.0449693082
 40
0.0932454451
 40
0.1453078079
 40
0.2013076055
 40
0.2611226478
 40
0.3244126912
 40
0.390670608
 40
0.4592635125
 40
0.6003948973
 40
0.7415882354
 40
0.8102599522
 40
0.8766180399
 40
0.9400485632
 40
1.0
 40
1.0
 40
1.0
 40
1.0
 10
71.5202504044
 20
71.9349415207
 30
0.0
 10
71.6897125571
 20
72.1706963525
 30
0.0
 10
71.9905242863
 20
72.6971992767
 30
0.0
 10
72.3062385561
 20
73.584785693
 30
0.0
 10
72.4974723761
 20
74.5793545287
 30
0.0
 10
72.561899267
 20
75.6639633758
 30
0.0
 10
72.4991668361
 20
76.8208306133
 30
0.0
 10
72.310642459
 20
78.0306661955
 30
0.0
 10
71.999652539
 20
79.2732781064
 30
0.0
 10
71.4233344715
 20
80.9611761882
 30
0.0
 10
70.438245072
 20
83.0118915682
 30
0.0
 10
69.160079696
 20
84.8945498629
 30
0.0
 10
67.9897225946
 20
86.2424649882
 30
0.0
 10
67.0706578287
 20
87.1377246064
 30
0.0
 10
66.118219995
 20
87.9108472947
 30
0.0
 10
65.4512312487
 20
88.3497065907
 30
0.0
 10
65.116015434
 20
88.5432391532
 30
0.0
  0
SPLINE
  5
2C3
100
AcDbEntity
  8
0
100
AcDbSpline
 62
7
  6
BYLAYER
 70
0
 71
3
 72
9
 73
5
 74
0
 42
0.0000001
 43
0.0000001
 44
0.0000000001
 40
0.0
 40
0.0
 40
0.0
 40
0.0
 40
0.2756542813
 40
1.0
 40
1.0
 40
1.0
 40
1.0
 10
65.116015434
 20
88.5432391532
 30
0.0
 10
64.8412577317
 20
88.701866998
 30
0.0
 10
63.8204156268
 20
89.228501235
 30
0.0
 10
62.6689687998
 20
89.5477333886
 30
0.0
 10
61.835322581
 20
89.5549248365
 30
0.0
  0
SPLINE
  5
2C4
100
AcDbEntity
  8
0
100
AcDbSpline
 62
7
  6
BYLAYER
 70
0
 71
3
 72
16
 73
12
 74
0
 42
0.0000001
 43
0.0000001
 44
0.0000000001
 40
0.0
 40
0.0
 40
0.0
 40
0.0
 40
0.1056633866
 40
0.1632377608
 40
0.2236398384
 40
0.3514041514
 40
0.4855095929
 40
0.6217111602
 40
0.755551485
 40
0.8828089466
 40
1.0
 40
1.0
 40
1.0
 40
1.0
 10
71.5068843861
 20
73.1303468267
 30
0.0
 10
71.6326771456
 20
73.7419414646
 30
0.0
 10
71.7073359344
 20
74.7132980576
 30
0.0
 10
71.627956067
 20
76.0330766595
 30
0.0
 10
71.4171930488
 20
77.4716527201
 30
0.0
 10
70.918221635
 20
79.3171389689
 30
0.0
 10
70.000173349
 20
81.48991245
 30
0.0
 10
68.7950160311
 20
83.5592241158
 30
0.0
 10
67.3600759952
 20
85.4261848896
 30
0.0
 10
65.764396168
 20
87.0017587412
 30
0.0
 10
64.5843905744
 20
87.8499839574
 30
0.0
 10
63.9846492945
 20
88.1962369134
 30
0.0
  0
SPLINE
  5
2C5
100
AcDbEntity
  8
0
100
AcDbSpline
 62
7
  6
BYLAYER
 70
0
 71
3
 72
9
 73
5
 74
0
 42
0.0000001
 43
0.0000001
 44
0.0000000001
 40
0.0
 40
0.0
 40
0.0
 40
0.0
 40
0.2562480184
 40
1.0
 40
1.0
 40
1.0
 40
1.0
 10
33.4948886364
 20
65.2634516876
 30
0.0
 10
33.5068318964
 20
65.2847348154
 30
0.0
 10
33.5555234144
 20
65.366593747
 30
0.0
 10
33.6128330959
 20
65.4434161909
 30
0.0
 10
33.6600812684
 20
65.4961916499
 30
0.0
  0
SPLINE
  5
2C6
100
AcDbEntity
  8
0
100
AcDbSpline
 62
7
  6
BYLAYER
 70
0
 71
3
 72
15
 73
11
 74
0
 42
0.0000001
 43
0.0000001
 44
0.0000000001
 40
0.0
 40
0.0
 40
0.0
 40
0.0
 40
0.1149331103
 40
0.2385585047
 40
0.3683481751
 40
0.5012547394
 40
0.633985697
 40
0.7632674109
 40
0.8860869394
 40
1.0
 40
1.0
 40
1.0
 40
1.0
 10
71.4957055059
 20
72.7966210944
 30
0.0
 10
71.4825797032
 20
73.551828172
 30
0.0
 10
71.3218376745
 20
75.1184628828
 30
0.0
 10
70.7465318032
 20
77.4760543793
 30
0.0
 10
69.8481203306
 20
79.8569542808
 30
0.0
 10
68.6593705591
 20
82.1738130981
 30
0.0
 10
67.2237436002
 20
84.3423765729
 30
0.0
 10
65.5933082763
 20
86.2835455263
 30
0.0
 10
63.8279837947
 20
87.9264555518
 30
0.0
 10
62.5470184484
 20
88.8221707669
 30
0.0
 10
61.8986929747
 20
89.1964731858
 30
0.0
  0
SPLINE
  5
2C7
100
AcDbEntity
  8
0
100
AcDbSpline
 62
7
  6
BYLAYER
 70
0
 71
3
 72
13
 73
9
 74
0
 42
0.0000001
 43
0.0000001
 44
0.0000000001
 40
0.0
 40
0.0
 40
0.0
 40
0.0
 40
0.2616194186
 40
0.5119382249
 40
0.634805884
 40
0.756895336
 40
0.8783953132
 40
1.0
 40
1.0
 40
1.0
 40
1.0
 10
38.556738101
 20
59.4425438937
 30
0.0
 10
38.8854899977
 20
59.2527431915
 30
0.0
 10
39.5632807004
 20
58.9361279158
 30
0.0
 10
40.4724074431
 20
58.7355424431
 30
0.0
 10
41.1931068382
 20
58.7237455519
 30
0.0
 10
41.7224627468
 20
58.7921881298
 30
0.0
 10
42.2334869707
 20
58.9399816534
 30
0.0
 10
42.5539019064
 20
59.0918472668
 30
0.0
 10
42.7067101543
 20
59.1800706233
 30
0.0
  0
SPLINE
  5
2C8
100
AcDbEntity
  8
0
100
AcDbSpline
 62
7
  6
BYLAYER
 70
0
 71
3
 72
14
 73
10
 74
0
 42
0.0000001
 43
0.0000001
 44
0.0000000001
 40
0.0
 40
0.0
 40
0.0
 40
0.0
 40
0.1192792901
 40
0.2385592557
 40
0.3587499802
 40
0.4803773934
 40
0.6045201728
 40
0.7321748266
 40
1.0
 40
1.0
 40
1.0
 40
1.0
 10
35.9067405971
 20
70.9580336908
 30
0.0
 10
35.7192986556
 20
70.8498146814
 30
0.0
 10
35.3649879308
 20
70.5952492073
 30
0.0
 10
34.918284749
 20
70.1166034261
 30
0.0
 10
34.5637672875
 20
69.5614615397
 30
0.0
 10
34.3046675023
 20
68.9470062497
 30
0.0
 10
34.1368303735
 20
68.2881409171
 30
0.0
 10
34.026791787
 20
67.3496641825
 30
0.0
 10
34.0710012619
 20
66.6262427159
 30
0.0
 10
34.1443293083
 20
66.1458227885
 30
0.0
  0
SPLINE
  5
2C9
100
AcDbEntity
  8
0
100
AcDbSpline
 62
7
  6
BYLAYER
 70
0
 71
3
 72
9
 73
5
 74
0
 42
0.0000001
 43
0.0000001
 44
0.0000000001
 40
0.0
 40
0.0
 40
0.0
 40
0.0
 40
0.2549897462
 40
1.0
 40
1.0
 40
1.0
 40
1.0
 10
37.6665205376
 20
60.053114835
 30
0.0
 10
37.7382699977
 20
59.9958507132
 30
0.0
 10
38.0235071648
 20
59.7761847065
 30
0.0
 10
38.324457275
 20
59.5766482573
 30
0.0
 10
38.556738101
 20
59.4425438937
 30
0.0
  0
SPLINE
  5
2CA
100
AcDbEntity
  8
0
100
AcDbSpline
 62
7
  6
BYLAYER
 70
0
 71
3
 72
13
 73
9
 74
0
 42
0.0000001
 43
0.0000001
 44
0.0000000001
 40
0.0
 40
0.0
 40
0.0
 40
0.0
 40
0.2616194186
 40
0.5119382249
 40
0.634805884
 40
0.756895336
 40
0.8783953132
 40
1.0
 40
1.0
 40
1.0
 40
1.0
 10
40.0567126505
 20
70.6955604204
 30
0.0
 10
39.7279607538
 20
70.8853611226
 30
0.0
 10
39.050170051
 20
71.2019763983
 30
0.0
 10
38.1410433084
 20
71.402561871
 30
0.0
 10
37.4203439133
 20
71.4143587622
 30
0.0
 10
36.8909880046
 20
71.3459161843
 30
0.0
 10
36.3799637807
 20
71.1981226607
 30
0.0
 10
36.0595488451
 20
71.0462570473
 30
0.0
 10
35.9067405971
 20
70.9580336908
 30
0.0
  0
SPLINE
  5
2CB
100
AcDbEntity
  8
0
100
AcDbSpline
 62
7
  6
BYLAYER
 70
0
 71
3
 72
12
 73
8
 74
0
 42
0.0000001
 43
0.0000001
 44
0.0000000001
 40
0.0
 40
0.0
 40
0.0
 40
0.0
 40
0.246569507
 40
0.3701350759
 40
0.4942804854
 40
0.7443579013
 40
1.0
 40
1.0
 40
1.0
 40
1.0
 10
42.7067101543
 20
59.1800706233
 30
0.0
 10
42.9364206373
 20
59.3126932408
 30
0.0
 10
43.2584523693
 20
59.5554908207
 30
0.0
 10
43.6196012657
 20
59.9468359699
 30
0.0
 10
43.9369749801
 20
60.3794960194
 30
0.0
 10
44.2454137603
 20
60.9885245768
 30
0.0
 10
44.3950037125
 20
61.5148914074
 30
0.0
 10
44.448622823
 20
61.7846198283
 30
0.0
  0
SPLINE
  5
2CC
100
AcDbEntity
  8
0
100
AcDbSpline
 62
7
  6
BYLAYER
 70
0
 71
3
 72
9
 73
5
 74
0
 42
0.0000001
 43
0.0000001
 44
0.0000000001
 40
0.0
 40
0.0
 40
0.0
 40
0.0
 40
0.2442133378
 40
1.0
 40
1.0
 40
1.0
 40
1.0
 10
44.448622823
 20
61.7846198283
 30
0.0
 10
44.4715311632
 20
61.8998591597
 30
0.0
 10
44.5489820388
 20
62.3749512565
 30
0.0
 10
44.5640485273
 20
62.8593274284
 30
0.0
 10
44.5468391383
 20
63.2225388211
 30
0.0
  0
SPLINE
  5
2CD
100
AcDbEntity
  8
0
100
AcDbSpline
 62
7
  6
BYLAYER
 70
0
 71
3
 72
13
 73
9
 74
0
 42
0.0000001
 43
0.0000001
 44
0.0000000001
 40
0.0
 40
0.0
 40
0.0
 40
0.0
 40
0.2394144194
 40
0.3652860238
 40
0.4936199747
 40
0.6228725087
 40
0.7514125405
 40
1.0
 40
1.0
 40
1.0
 40
1.0
 10
44.5468391383
 20
63.2225388211
 30
0.0
 10
44.5177723628
 20
63.8360053403
 30
0.0
 10
44.3500618062
 20
64.7687534152
 30
0.0
 10
43.9415190187
 20
65.9681993323
 30
0.0
 10
43.535600216
 20
66.8660300443
 30
0.0
 10
43.0445726479
 20
67.728042157
 30
0.0
 10
42.2990249115
 20
68.7929620199
 30
0.0
 10
41.632450702
 20
69.5063925126
 30
0.0
 10
41.1470361655
 20
69.9199331547
 30
0.0
  0
SPLINE
  5
2CE
100
AcDbEntity
  8
0
100
AcDbSpline
 62
7
  6
BYLAYER
 70
0
 71
3
 72
9
 73
5
 74
0
 42
0.0000001
 43
0.0000001
 44
0.0000000001
 40
0.0
 40
0.0
 40
0.0
 40
0.0
 40
0.2559260951
 40
1.0
 40
1.0
 40
1.0
 40
1.0
 10
41.1470361655
 20
69.9199331547
 30
0.0
 10
41.0600796931
 20
69.9940142395
 30
0.0
 10
40.7143696583
 20
70.2763611866
 30
0.0
 10
40.3443401787
 20
70.5295023462
 30
0.0
 10
40.0567126505
 20
70.6955604204
 30
0.0
  0
SPLINE
  5
2CF
100
AcDbEntity
  8
0
100
AcDbSpline
 62
7
  6
BYLAYER
 70
0
 71
3
 72
25
 73
21
 74
0
 42
0.0000001
 43
0.0000001
 44
0.0000000001
 40
0.0
 40
0.0
 40
0.0
 40
0.0
 40
0.0213169713
 40
0.0428466197
 40
0.0647907205
 40
0.0873330987
 40
0.1347529647
 40
0.1860814542
 40
0.2417565359
 40
0.3018119824
 40
0.3659584168
 40
0.4336584686
 40
0.5041901199
 40
0.5766997003
 40
0.6502485728
 40
0.7238542708
 40
0.7965312286
 40
0.8673364553
 40
0.9353974995
 40
1.0
 40
1.0
 40
1.0
 40
1.0
 10
68.4647664765
 20
64.6983733118
 30
0.0
 10
68.6413527072
 20
64.8003094249
 30
0.0
 10
68.983975866
 20
65.0274096737
 30
0.0
 10
69.4559410428
 20
65.4312268338
 30
0.0
 10
69.884826914
 20
65.8966641262
 30
0.0
 10
70.4045722443
 20
66.6076356481
 30
0.0
 10
70.9327411594
 20
67.650140287
 30
0.0
 10
71.3508037971
 20
69.0737035126
 30
0.0
 10
71.5603462644
 20
70.6633421414
 30
0.0
 10
71.558848394
 20
72.3881251677
 30
0.0
 10
71.3474197747
 20
74.2149956043
 30
0.0
 10
70.9305619043
 20
76.1083920967
 30
0.0
 10
70.3166422374
 20
78.0311562722
 30
0.0
 10
69.5178482961
 20
79.9453005212
 30
0.0
 10
68.5500320455
 20
81.8128555182
 30
0.0
 10
67.4324277249
 20
83.5967068468
 30
0.0
 10
66.1872572789
 20
85.2614032418
 30
0.0
 10
64.8391306781
 20
86.7738878408
 30
0.0
 10
63.4149349403
 20
88.1042772217
 30
0.0
 10
62.4031988276
 20
88.8749219036
 30
0.0
 10
61.8907229151
 20
89.2201680201
 30
0.0
  0
SPLINE
  5
2D0
100
AcDbEntity
  8
0
100
AcDbSpline
 62
7
  6
BYLAYER
 70
0
 71
3
 72
15
 73
11
 74
0
 42
0.0000001
 43
0.0000001
 44
0.0000000001
 40
0.0
 40
0.0
 40
0.0
 40
0.0
 40
0.1080137743
 40
0.2180614182
 40
0.3319976061
 40
0.4513595334
 40
0.5772700781
 40
0.7104895929
 40
0.851435583
 40
1.0
 40
1.0
 40
1.0
 40
1.0
 10
61.0401763195
 20
60.4118094415
 30
0.0
 10
60.7958775913
 20
60.2707853666
 30
0.0
 10
60.2772334599
 20
60.0278606509
 30
0.0
 10
59.4379980402
 20
59.7958406136
 30
0.0
 10
58.5433677833
 20
59.695990426
 30
0.0
 10
57.6028649894
 20
59.7287812709
 30
0.0
 10
56.6255317654
 20
59.8926569289
 30
0.0
 10
55.6203983655
 20
60.1856602971
 30
0.0
 10
54.5971167815
 20
60.6045658488
 30
0.0
 10
53.9262253773
 20
60.9557113106
 30
0.0
 10
53.5902228874
 20
61.14969805
 30
0.0
  0
SPLINE
  5
2D1
100
AcDbEntity
  8
0
100
AcDbSpline
 62
7
  6
BYLAYER
 70
0
 71
3
 72
11
 73
7
 74
0
 42
0.0000001
 43
0.0000001
 44
0.0000000001
 40
0.0
 40
0.0
 40
0.0
 40
0.0
 40
0.2555351775
 40
0.5059338061
 40
0.7534559855
 40
1.0
 40
1.0
 40
1.0
 40
1.0
 10
43.2206268799
 20
59.6199031547
 30
0.0
 10
43.4848068612
 20
59.5529296382
 30
0.0
 10
44.0192476443
 20
59.4600456948
 30
0.0
 10
44.827439563
 20
59.4640619717
 30
0.0
 10
45.6106064567
 20
59.6242605027
 30
0.0
 10
46.0973172714
 20
59.8385907028
 30
0.0
 10
46.325037078
 20
59.9700640097
 30
0.0
  0
SPLINE
  5
2D2
100
AcDbEntity
  8
0
100
AcDbSpline
 62
7
  6
BYLAYER
 70
0
 71
3
 72
11
 73
7
 74
0
 42
0.0000001
 43
0.0000001
 44
0.0000000001
 40
0.0
 40
0.0
 40
0.0
 40
0.0
 40
0.2468463995
 40
0.4942976895
 40
0.7447611337
 40
1.0
 40
1.0
 40
1.0
 40
1.0
 10
38.4000725573
 20
73.6965871436
 30
0.0
 10
38.1773811343
 20
73.5680169581
 30
0.0
 10
37.7575249263
 20
73.262087497
 30
0.0
 10
37.2356754457
 20
72.6812331528
 30
0.0
 10
36.8300662047
 20
72.0045747197
 30
0.0
 10
36.6413173207
 20
71.5098171696
 30
0.0
 10
36.5654589467
 20
71.2549842556
 30
0.0
  0
SPLINE
  5
2D3
100
AcDbEntity
  8
0
100
AcDbSpline
 62
7
  6
BYLAYER
 70
0
 71
3
 72
13
 73
9
 74
0
 42
0.0000001
 43
0.0000001
 44
0.0000000001
 40
0.0
 40
0.0
 40
0.0
 40
0.0
 40
0.2642717852
 40
0.5152681498
 40
0.6377586642
 40
0.7590863162
 40
0.8795605449
 40
1.0
 40
1.0
 40
1.0
 40
1.0
 10
43.1125420924
 20
73.3783990592
 30
0.0
 10
42.7353626867
 20
73.5961587643
 30
0.0
 10
41.9611183028
 20
73.9590368043
 30
0.0
 10
40.9245745308
 20
74.1912387525
 30
0.0
 10
40.1068115957
 20
74.2073022188
 30
0.0
 10
39.5088798937
 20
74.1318163643
 30
0.0
 10
38.9327770371
 20
73.9665011102
 30
0.0
 10
38.5719679147
 20
73.7958303821
 30
0.0
 10
38.4000725573
 20
73.6965871436
 30
0.0
  0
SPLINE
  5
2D4
100
AcDbEntity
  8
0
100
AcDbSpline
 62
7
  6
BYLAYER
 70
0
 71
3
 72
19
 73
15
 74
0
 42
0.0000001
 43
0.0000001
 44
0.0000000001
 40
0.0
 40
0.0
 40
0.0
 40
0.0
 40
0.053468957
 40
0.1070808328
 40
0.161359353
 40
0.2167087722
 40
0.2737091397
 40
0.332826376
 40
0.3943026475
 40
0.4581609642
 40
0.5918167086
 40
0.7301692115
 40
0.8679354641
 40
1.0
 40
1.0
 40
1.0
 40
1.0
 10
46.325037078
 20
59.9700640097
 30
0.0
 10
46.5505085081
 20
60.1002392235
 30
0.0
 10
46.9753290918
 20
60.4106742202
 30
0.0
 10
47.5016200104
 20
61.0009911955
 30
0.0
 10
47.9085915071
 20
61.6891466076
 30
0.0
 10
48.1936298658
 20
62.4527049155
 30
0.0
 10
48.3630105127
 20
63.2731691296
 30
0.0
 10
48.4227482146
 20
64.1381201586
 30
0.0
 10
48.3786734779
 20
65.0370502721
 30
0.0
 10
48.1849851597
 20
66.2850638319
 30
0.0
 10
47.7028821203
 20
67.8576260302
 30
0.0
 10
46.8103817727
 20
69.6513629997
 30
0.0
 10
45.6513025387
 20
71.2757647405
 30
0.0
 10
44.7142578184
 20
72.2090661198
 30
0.0
 10
44.2151371841
 20
72.6145188084
 30
0.0
  0
SPLINE
  5
2D5
100
AcDbEntity
  8
0
100
AcDbSpline
 62
7
  6
BYLAYER
 70
0
 71
3
 72
9
 73
5
 74
0
 42
0.0000001
 43
0.0000001
 44
0.0000000001
 40
0.0
 40
0.0
 40
0.0
 40
0.0
 40
0.2556654445
 40
1.0
 40
1.0
 40
1.0
 40
1.0
 10
44.2151371841
 20
72.6145188084
 30
0.0
 10
44.1263594473
 20
72.6866359874
 30
0.0
 10
43.774025537
 20
72.9623337294
 30
0.0
 10
43.400926993
 20
73.2119037258
 30
0.0
 10
43.1125420924
 20
73.3783990592
 30
0.0
  0
SPLINE
  5
2D6
100
AcDbEntity
  8
0
100
AcDbSpline
 62
7
  6
BYLAYER
 70
0
 71
3
 72
24
 73
20
 74
0
 42
0.0000001
 43
0.0000001
 44
0.0000000001
 40
0.0
 40
0.0
 40
0.0
 40
0.0
 40
0.0516873349
 40
0.1031529626
 40
0.1290489594
 40
0.1551191485
 40
0.2080867232
 40
0.2629516108
 40
0.3204206167
 40
0.380953523
 40
0.4446665451
 40
0.5113313171
 40
0.5804353439
 40
0.6512537072
 40
0.7229214052
 40
0.7945063387
 40
0.8650874556
 40
0.9338053865
 40
1.0
 40
1.0
 40
1.0
 40
1.0
 10
55.7123766582
 20
61.7870066186
 30
0.0
 10
56.0957549966
 20
61.8651376467
 30
0.0
 10
56.8462471994
 20
62.11048822
 30
0.0
 10
57.6805374473
 20
62.6382546304
 30
0.0
 10
58.2570218555
 20
63.1704026032
 30
0.0
 10
58.7745425147
 20
63.7751501433
 30
0.0
 10
59.2987939821
 20
64.6524044638
 30
0.0
 10
59.7192190655
 20
65.8380738468
 30
0.0
 10
59.9438865086
 20
67.1326079749
 30
0.0
 10
59.9822303735
 20
68.5116569592
 30
0.0
 10
59.8424850269
 20
69.953306359
 30
0.0
 10
59.5324093245
 20
71.4339313304
 30
0.0
 10
59.0607990469
 20
72.9274295471
 30
0.0
 10
58.4384449457
 20
74.4056193842
 30
0.0
 10
57.6786072026
 20
75.8392611326
 30
0.0
 10
56.7970151255
 20
77.1992756864
 30
0.0
 10
55.8112199044
 20
78.4577216208
 30
0.0
 10
54.740340045
 20
79.5890605838
 30
0.0
 10
53.965266635
 20
80.2576129297
 30
0.0
 10
53.567693931
 20
80.5625914726
 30
0.0
  0
SPLINE
  5
2D7
100
AcDbEntity
  8
0
100
AcDbSpline
 62
7
  6
BYLAYER
 70
0
 71
3
 72
9
 73
5
 74
0
 42
0.0000001
 43
0.0000001
 44
0.0000000001
 40
0.0
 40
0.0
 40
0.0
 40
0.0
 40
0.255195211
 40
1.0
 40
1.0
 40
1.0
 40
1.0
 10
53.5200406038
 20
80.5989725004
 30
0.0
 10
53.4190147824
 20
80.6757327159
 30
0.0
 10
53.0187599163
 20
80.9706844466
 30
0.0
 10
52.6007265148
 20
81.2417651868
 30
0.0
 10
52.2800304182
 20
81.4269149759
 30
0.0
  0
SPLINE
  5
2D8
100
AcDbEntity
  8
0
100
AcDbSpline
 62
7
  6
BYLAYER
 70
0
 71
3
 72
11
 73
7
 74
0
 42
0.0000001
 43
0.0000001
 44
0.0000000001
 40
0.0
 40
0.0
 40
0.0
 40
0.0
 40
0.2558779818
 40
0.5064686263
 40
0.7537956975
 40
1.0
 40
1.0
 40
1.0
 40
1.0
 10
46.7224292652
 20
60.3220066294
 30
0.0
 10
46.9995782996
 20
60.2635097648
 30
0.0
 10
47.5578726216
 20
60.1878383944
 30
0.0
 10
48.3961438669
 20
60.216962477
 30
0.0
 10
49.2047312694
 20
60.398447462
 30
0.0
 10
49.7073315106
 20
60.6237847873
 30
0.0
 10
49.9433640017
 20
60.7600573961
 30
0.0
  0
SPLINE
  5
2D9
100
AcDbEntity
  8
0
100
AcDbSpline
 62
7
  6
BYLAYER
 70
0
 71
3
 72
11
 73
7
 74
0
 42
0.0000001
 43
0.0000001
 44
0.0000000001
 40
0.0
 40
0.0
 40
0.0
 40
0.0
 40
0.2466292115
 40
0.4939031769
 40
0.7445513486
 40
1.0
 40
1.0
 40
1.0
 40
1.0
 10
40.8934045174
 20
76.4351405964
 30
0.0
 10
40.6646244424
 20
76.3030551469
 30
0.0
 10
40.2314625433
 20
75.9922790235
 30
0.0
 10
39.6828330491
 20
75.4072455684
 30
0.0
 10
39.2432376609
 20
74.7258028497
 30
0.0
 10
39.0277740287
 20
74.2255597008
 30
0.0
 10
38.9380065844
 20
73.9670851707
 30
0.0
  0
SPLINE
  5
2DA
100
AcDbEntity
  8
0
100
AcDbSpline
 62
7
  6
BYLAYER
 70
0
 71
3
 72
13
 73
9
 74
0
 42
0.0000001
 43
0.0000001
 44
0.0000000001
 40
0.0
 40
0.0
 40
0.0
 40
0.0
 40
0.2665084932
 40
0.5181154394
 40
0.6403017595
 40
0.7609837482
 40
0.880576151
 40
1.0
 40
1.0
 40
1.0
 40
1.0
 10
46.1683715343
 20
76.0612376981
 30
0.0
 10
45.7425239659
 20
76.3070953443
 30
0.0
 10
44.8714003974
 20
76.716350802
 30
0.0
 10
43.7069886594
 20
76.9800371599
 30
0.0
 10
42.7921227417
 20
77.0001436317
 30
0.0
 10
42.1258772443
 20
76.9175010271
 30
0.0
 10
41.4851258651
 20
76.7346680607
 30
0.0
 10
41.0842282446
 20
76.5453120689
 30
0.0
 10
40.8934045174
 20
76.4351405964
 30
0.0
  0
SPLINE
  5
2DB
100
AcDbEntity
  8
0
100
AcDbSpline
 62
7
  6
BYLAYER
 70
0
 71
3
 72
16
 73
12
 74
0
 42
0.0000001
 43
0.0000001
 44
0.0000000001
 40
0.0
 40
0.0
 40
0.0
 40
0.0
 40
0.138369903
 40
0.2709382151
 40
0.3982789239
 40
0.5216489787
 40
0.642334666
 40
0.7021383822
 40
0.7617497706
 40
0.88052654
 40
1.0
 40
1.0
 40
1.0
 40
1.0
 10
52.2800304182
 20
81.4269149759
 30
0.0
 10
51.9487502274
 20
81.6181753563
 30
0.0
 10
51.279301237
 20
81.9584335803
 30
0.0
 10
50.2410107711
 20
82.3339978094
 30
0.0
 10
49.1997288151
 20
82.5510328802
 30
0.0
 10
48.1691608513
 20
82.5971310786
 30
0.0
 10
47.3314967915
 20
82.4815757605
 30
0.0
 10
46.6936460702
 20
82.2942690766
 30
0.0
 10
46.0831238024
 20
82.0448846307
 30
0.0
 10
45.3721837719
 20
81.6173031005
 30
0.0
 10
44.886236214
 20
81.1650553286
 30
0.0
 10
44.6672981334
 20
80.9177579915
 30
0.0
  0
SPLINE
  5
2DC
100
AcDbEntity
  8
0
100
AcDbSpline
 62
7
  6
BYLAYER
 70
0
 71
3
 72
21
 73
17
 74
0
 42
0.0000001
 43
0.0000001
 44
0.0000000001
 40
0.0
 40
0.0
 40
0.0
 40
0.0
 40
0.0523969876
 40
0.1050428226
 40
0.1585525825
 40
0.2133988968
 40
0.2415368411
 40
0.2702228468
 40
0.3293929536
 40
0.3911409441
 40
0.4554261637
 40
0.5219628864
 40
0.5902816678
 40
0.729626419
 40
0.8679763883
 40
1.0
 40
1.0
 40
1.0
 40
1.0
 10
49.9433640017
 20
60.7600573961
 30
0.0
 10
50.1978299197
 20
60.9069724855
 30
0.0
 10
50.6770673714
 20
61.2590719114
 30
0.0
 10
51.2680259924
 20
61.9315138378
 30
0.0
 10
51.7223114112
 20
62.7179325272
 30
0.0
 10
51.9827326262
 20
63.4416658496
 30
0.0
 10
52.1261615162
 20
64.0516810925
 30
0.0
 10
52.229090303
 20
64.6944759475
 30
0.0
 10
52.2770193286
 20
65.5345101054
 30
0.0
 10
52.2140378312
 20
66.5732070338
 30
0.0
 10
52.036473408
 20
67.6401986217
 30
0.0
 10
51.7495015853
 20
68.7210782099
 30
0.0
 10
51.2257567999
 20
70.168444876
 30
0.0
 10
50.3393465931
 20
71.9051634389
 30
0.0
 10
48.979244619
 20
73.7679984239
 30
0.0
 10
47.8838001488
 20
74.8313423401
 30
0.0
 10
47.3020783479
 20
75.2893100345
 30
0.0
  0
SPLINE
  5
2DD
100
AcDbEntity
  8
0
100
AcDbSpline
 62
7
  6
BYLAYER
 70
0
 71
3
 72
9
 73
5
 74
0
 42
0.0000001
 43
0.0000001
 44
0.0000000001
 40
0.0
 40
0.0
 40
0.0
 40
0.0
 40
0.2554633508
 40
1.0
 40
1.0
 40
1.0
 40
1.0
 10
47.3020783479
 20
75.2893100345
 30
0.0
 10
47.2102670021
 20
75.3615896538
 30
0.0
 10
46.8462325641
 20
75.6385360126
 30
0.0
 10
46.4632989943
 20
75.8909651018
 30
0.0
 10
46.1683715343
 20
76.0612376981
 30
0.0
  0
SPLINE
  5
2DE
100
AcDbEntity
  8
0
100
AcDbSpline
 62
7
  6
BYLAYER
 70
0
 71
3
 72
9
 73
5
 74
0
 42
0.0000001
 43
0.0000001
 44
0.0000000001
 40
0.0
 40
0.0
 40
0.0
 40
0.0
 40
0.4951422624
 40
1.0
 40
1.0
 40
1.0
 40
1.0
 10
44.6672981334
 20
80.9177579915
 30
0.0
 10
44.4684199301
 20
80.6931189065
 30
0.0
 10
44.1062102322
 20
80.2032346186
 30
0.0
 10
43.8278290127
 20
79.6621246484
 30
0.0
 10
43.7076106313
 20
79.3808242053
 30
0.0
  0
SPLINE
  5
2DF
100
AcDbEntity
  8
0
100
AcDbSpline
 62
7
  6
BYLAYER
 70
0
 71
3
 72
9
 73
5
 74
0
 42
0.0000001
 43
0.0000001
 44
0.0000000001
 40
0.0
 40
0.0
 40
0.0
 40
0.0
 40
0.5053073302
 40
1.0
 40
1.0
 40
1.0
 40
1.0
 10
53.8257749205
 20
61.7339358935
 30
0.0
 10
54.1420257635
 20
61.6921229145
 30
0.0
 10
54.7751317753
 20
61.6552696153
 30
0.0
 10
55.4063648615
 20
61.7246425935
 30
0.0
 10
55.7123766582
 20
61.7870066186
 30
0.0
  0
SPLINE
  5
2E0
100
AcDbEntity
  8
0
100
AcDbSpline
 62
7
  6
BYLAYER
 70
0
 71
3
 72
11
 73
7
 74
0
 42
0.0000001
 43
0.0000001
 44
0.0000000001
 40
0.0
 40
0.0
 40
0.0
 40
0.0
 40
0.256110594
 40
0.5068374097
 40
0.7540258895
 40
1.0
 40
1.0
 40
1.0
 40
1.0
 10
50.2234109469
 20
61.0321602432
 30
0.0
 10
50.513002405
 20
60.9809799842
 30
0.0
 10
51.0944751722
 20
60.9202795637
 30
0.0
 10
51.9628873366
 20
60.9715823272
 30
0.0
 10
52.7978417694
 20
61.1726557816
 30
0.0
 10
53.3170902887
 20
61.4088313821
 30
0.0
 10
53.5616909254
 20
61.5500507826
 30
0.0
  0
SPLINE
  5
2E1
100
AcDbEntity
  8
0
100
AcDbSpline
 62
7
  6
BYLAYER
 70
0
 71
3
 72
11
 73
7
 74
0
 42
0.0000001
 43
0.0000001
 44
0.0000000001
 40
0.0
 40
0.0
 40
0.0
 40
0.0
 40
0.2464020805
 40
0.4936907539
 40
0.744411039
 40
1.0
 40
1.0
 40
1.0
 40
1.0
 10
43.3867364776
 20
79.1736940491
 30
0.0
 10
43.1514908606
 20
79.0378757395
 30
0.0
 10
42.7044030865
 20
78.7210593185
 30
0.0
 10
42.1298511777
 20
78.1292878253
 30
0.0
 10
41.6590101977
 20
77.4403274028
 30
0.0
 10
41.419803841
 20
76.9333198837
 30
0.0
 10
41.3176331844
 20
76.6707308227
 30
0.0
  0
SPLINE
  5
2E2
100
AcDbEntity
  8
0
100
AcDbSpline
 62
7
  6
BYLAYER
 70
0
 71
3
 72
14
 73
10
 74
0
 42
0.0000001
 43
0.0000001
 44
0.0000000001
 40
0.0
 40
0.0
 40
0.0
 40
0.0
 40
0.2682832634
 40
0.3962474662
 40
0.520769078
 40
0.6426506064
 40
0.7627291282
 40
0.8815105949
 40
1.0
 40
1.0
 40
1.0
 40
1.0
 10
49.2242009762
 20
78.744076337
 30
0.0
 10
48.7495242163
 20
79.0181248923
 30
0.0
 10
48.0106355055
 20
79.3654240216
 30
0.0
 10
46.985128482
 20
79.6557684014
 30
0.0
 10
46.2275320024
 20
79.7750616942
 30
0.0
 10
45.4766275733
 20
79.7929351868
 30
0.0
 10
44.7422754183
 20
79.7030388695
 30
0.0
 10
44.0371572564
 20
79.502692912
 30
0.0
 10
43.5963803146
 20
79.2947312523
 30
0.0
 10
43.3867364776
 20
79.1736940491
 30
0.0
  0
SPLINE
  5
2E3
100
AcDbEntity
  8
0
100
AcDbSpline
 62
7
  6
BYLAYER
 70
0
 71
3
 72
21
 73
17
 74
0
 42
0.0000001
 43
0.0000001
 44
0.0000000001
 40
0.0
 40
0.0
 40
0.0
 40
0.0
 40
0.0514936489
 40
0.1033778361
 40
0.1562709203
 40
0.2107572729
 40
0.2674428735
 40
0.3267369792
 40
0.3887967166
 40
0.4535124098
 40
0.5205440155
 40
0.5893640374
 40
0.7295289425
 40
0.7994869528
 40
0.8683287577
 40
1.0
 40
1.0
 40
1.0
 40
1.0
 10
53.5616909254
 20
61.5500507826
 30
0.0
 10
53.8458719392
 20
61.7141217881
 30
0.0
 10
54.3810203108
 20
62.1094167098
 30
0.0
 10
55.0381312106
 20
62.8670531687
 30
0.0
 10
55.5398730533
 20
63.7564133508
 30
0.0
 10
55.88442482
 20
64.7486240007
 30
0.0
 10
56.0788929681
 20
65.8211687053
 30
0.0
 10
56.1301521842
 20
66.9575272705
 30
0.0
 10
56.0444575711
 20
68.1425589723
 30
0.0
 10
55.827533789
 20
69.3604111005
 30
0.0
 10
55.4852829423
 20
70.5937645201
 30
0.0
 10
54.8676732072
 20
72.242460981
 30
0.0
 10
54.0373804271
 20
73.8248517154
 30
0.0
 10
53.0263985783
 20
75.2892054608
 30
0.0
 10
51.9316288991
 20
76.6218693111
 30
0.0
 10
50.9935773574
 20
77.5042442636
 30
0.0
 10
50.3246390376
 20
78.0107708995
 30
0.0
  0
SPLINE
  5
2E4
100
AcDbEntity
  8
0
100
AcDbSpline
 62
7
  6
BYLAYER
 70
0
 71
3
 72
9
 73
5
 74
0
 42
0.0000001
 43
0.0000001
 44
0.0000000001
 40
0.0
 40
0.0
 40
0.0
 40
0.0
 40
0.2549519444
 40
1.0
 40
1.0
 40
1.0
 40
1.0
 10
50.3246390376
 20
78.0107708995
 30
0.0
 10
50.2350129728
 20
78.0786366321
 30
0.0
 10
49.879641651
 20
78.3397032052
 30
0.0
 10
49.5087180565
 20
78.5798140402
 30
0.0
 10
49.2242009762
 20
78.744076337
 30
0.0
  0
SPLINE
  5
2E5
100
AcDbEntity
  8
0
100
AcDbSpline
 62
7
  6
BYLAYER
 70
0
 71
3
 72
23
 73
19
 74
0
 42
0.0000001
 43
0.0000001
 44
0.0000000001
 40
0.0
 40
0.0
 40
0.0
 40
0.0
 40
0.0633424664
 40
0.1308593165
 40
0.2017336127
 40
0.2750033257
 40
0.3495596347
 40
0.4242418832
 40
0.4978769984
 40
0.5693441171
 40
0.6376328437
 40
0.7019078428
 40
0.7615843774
 40
0.8164194433
 40
0.8666203946
 40
0.9129541976
 40
0.9567948027
 40
1.0
 40
1.0
 40
1.0
 40
1.0
 10
47.4135579457
 20
76.8326646536
 30
0.0
 10
47.7396187894
 20
76.6444175965
 30
0.0
 10
48.3869848831
 20
76.2089687264
 30
0.0
 10
49.3004979672
 20
75.4289440239
 30
0.0
 10
50.1699886337
 20
74.5168110474
 30
0.0
 10
50.9752700977
 20
73.4940399662
 30
0.0
 10
51.6977099041
 20
72.3841419069
 30
0.0
 10
52.320535042
 20
71.2129885906
 30
0.0
 10
52.8292385213
 20
70.0077691404
 30
0.0
 10
53.2120150279
 20
68.7964689247
 30
0.0
 10
53.4599822611
 20
67.607054759
 30
0.0
 10
53.5672989029
 20
66.4667463916
 30
0.0
 10
53.5311107196
 20
65.4013137125
 30
0.0
 10
53.351189883
 20
64.434521149
 30
0.0
 10
53.0294588404
 20
63.5881573271
 30
0.0
 10
52.5695292843
 20
62.8828801545
 30
0.0
 10
51.9796297471
 20
62.3402444794
 30
0.0
 10
51.5125240834
 20
62.1011732864
 30
0.0
 10
51.2706171017
 20
62.0149714062
 30
0.0
  0
SPLINE
  5
2E6
100
AcDbEntity
  8
0
100
AcDbSpline
 62
7
  6
BYLAYER
 70
0
 71
3
 72
14
 73
10
 74
0
 42
0.0000001
 43
0.0000001
 44
0.0000000001
 40
0.0
 40
0.0
 40
0.0
 40
0.0
 40
0.108977072
 40
0.2188860628
 40
0.3320712633
 40
0.4505447786
 40
0.5758192889
 40
0.7089419144
 40
1.0
 40
1.0
 40
1.0
 40
1.0
 10
42.8001609222
 20
77.0812521483
 30
0.0
 10
42.942892542
 20
77.1869110769
 30
0.0
 10
43.2497853282
 20
77.3733646986
 30
0.0
 10
43.7588914329
 20
77.5650690856
 30
0.0
 10
44.308986915
 20
77.6665406163
 30
0.0
 10
44.8928742303
 20
77.6769776479
 30
0.0
 10
45.5038742915
 20
77.5973074791
 30
0.0
 10
46.3708138259
 20
77.3659595928
 30
0.0
 10
47.0028039638
 20
77.0698082108
 30
0.0
 10
47.4135579457
 20
76.8326646536
 30
0.0
  0
SPLINE
  5
2E7
100
AcDbEntity
  8
0
100
AcDbSpline
 62
7
  6
BYLAYER
 70
0
 71
3
 72
9
 73
5
 74
0
 42
0.0000001
 43
0.0000001
 44
0.0000000001
 40
0.0
 40
0.0
 40
0.0
 40
0.0
 40
0.2566299993
 40
1.0
 40
1.0
 40
1.0
 40
1.0
 10
47.4135579457
 20
75.3513714528
 30
0.0
 10
47.3586839352
 20
75.3830522608
 30
0.0
 10
47.1430529547
 20
75.503326556
 30
0.0
 10
46.9201021314
 20
75.6106422981
 30
0.0
 10
46.7507728333
 20
75.6814561188
 30
0.0
  0
SPLINE
  5
2E8
100
AcDbEntity
  8
0
100
AcDbSpline
 62
7
  6
BYLAYER
 70
0
 71
3
 72
15
 73
11
 74
0
 42
0.0000001
 43
0.0000001
 44
0.0000000001
 40
0.0
 40
0.0
 40
0.0
 40
0.0
 40
0.1077049309
 40
0.2269147451
 40
0.3552024293
 40
0.4890921144
 40
0.6245369836
 40
0.7573515612
 40
0.8835868125
 40
1.0
 40
1.0
 40
1.0
 40
1.0
 10
52.2026722483
 20
66.0903203345
 30
0.0
 10
52.2617891553
 20
66.4784831616
 30
0.0
 10
52.2913179292
 20
67.3116696664
 30
0.0
 10
52.111278453
 20
68.5988473497
 30
0.0
 10
51.7190112473
 20
69.9374269045
 30
0.0
 10
51.1320667112
 20
71.266991536
 30
0.0
 10
50.377039211
 20
72.5279824723
 30
0.0
 10
49.4877987928
 20
73.6634094806
 30
0.0
 10
48.5049089815
 20
74.6219182327
 30
0.0
 10
47.7810879861
 20
75.1391826854
 30
0.0
 10
47.4135579457
 20
75.3513714528
 30
0.0
  0
SPLINE
  5
2E9
100
AcDbEntity
  8
0
100
AcDbSpline
 62
7
  6
BYLAYER
 70
0
 71
3
 72
11
 73
7
 74
0
 42
0.0000001
 43
0.0000001
 44
0.0000000001
 40
0.0
 40
0.0
 40
0.0
 40
0.0
 40
0.2190054843
 40
0.4554628422
 40
0.715244638
 40
1.0
 40
1.0
 40
1.0
 40
1.0
 10
23.3684266725
 20
59.3041633598
 30
0.0
 10
23.462897837
 20
59.3343252689
 30
0.0
 10
23.669124928
 20
59.3689065434
 30
0.0
 10
23.9944983317
 20
59.3421176681
 30
0.0
 10
24.3355902048
 20
59.2413886525
 30
0.0
 10
24.5580083741
 20
59.1323752672
 30
0.0
 10
24.6696759454
 20
59.0679054233
 30
0.0
  0
SPLINE
  5
2EA
100
AcDbEntity
  8
0
100
AcDbSpline
 62
7
  6
BYLAYER
 70
0
 71
3
 72
25
 73
21
 74
0
 42
0.0000001
 43
0.0000001
 44
0.0000000001
 40
0.0
 40
0.0
 40
0.0
 40
0.0
 40
0.0631747878
 40
0.1304897114
 40
0.2011420791
 40
0.2741897362
 40
0.3485444866
 40
0.4230662243
 40
0.4966000972
 40
0.5680405817
 40
0.6363869174
 40
0.7008050518
 40
0.7607002526
 40
0.8158042293
 40
0.8662798723
 40
0.9128282166
 40
0.9350555477
 40
0.9568329582
 40
0.9783982804
 40
1.0
 40
1.0
 40
1.0
 40
1.0
 10
50.4693873876
 20
79.5155032925
 30
0.0
 10
50.8349833583
 20
79.3044311355
 30
0.0
 10
51.5609291395
 20
78.8166547672
 30
0.0
 10
52.5859536034
 20
77.9435633829
 30
0.0
 10
53.5622926927
 20
76.9230203282
 30
0.0
 10
54.4676020844
 20
75.778719553
 30
0.0
 10
55.2812329221
 20
74.5365837947
 30
0.0
 10
55.9845566579
 20
73.2251594633
 30
0.0
 10
56.5614264176
 20
71.8744668591
 30
0.0
 10
56.9986446122
 20
70.5154323647
 30
0.0
 10
57.2862148461
 20
69.1790030959
 30
0.0
 10
57.4174600518
 20
67.8953493735
 30
0.0
 10
57.3890476114
 20
66.6931344899
 30
0.0
 10
57.2004141886
 20
65.5987546225
 30
0.0
 10
56.8539565438
 20
64.6367224205
 30
0.0
 10
56.4294277759
 20
63.9533306112
 30
0.0
 10
56.0200765612
 20
63.5057730168
 30
0.0
 10
55.6845856175
 20
63.2219635216
 30
0.0
 10
55.3183422456
 20
62.9869085583
 30
0.0
 10
55.0561707156
 20
62.8642504543
 30
0.0
 10
54.9217225182
 20
62.8117125986
 30
0.0
  0
SPLINE
  5
2EB
100
AcDbEntity
  8
0
100
AcDbSpline
 62
7
  6
BYLAYER
 70
0
 71
3
 72
15
 73
11
 74
0
 42
0.0000001
 43
0.0000001
 44
0.0000000001
 40
0.0
 40
0.0
 40
0.0
 40
0.0
 40
0.1085498482
 40
0.2184384473
 40
0.3318406395
 40
0.4505948683
 40
0.5760744969
 40
0.7092285043
 40
0.8505774772
 40
1.0
 40
1.0
 40
1.0
 40
1.0
 10
45.3615042071
 20
79.8701096531
 30
0.0
 10
45.5228493238
 20
79.9801750063
 30
0.0
 10
45.8682409957
 20
80.1729517834
 30
0.0
 10
46.4360819138
 20
80.3668400762
 30
0.0
 10
47.0466710029
 20
80.4639771488
 30
0.0
 10
47.6925635731
 20
80.4638003144
 30
0.0
 10
48.3667359329
 20
80.3672436593
 30
0.0
 10
49.0622670161
 20
80.1758325523
 30
0.0
 10
49.7716801621
 20
79.8919075672
 30
0.0
 10
50.2365525225
 20
79.6499275235
 30
0.0
 10
50.4693873876
 20
79.5155032925
 30
0.0
  0
SPLINE
  5
2EC
100
AcDbEntity
  8
0
100
AcDbSpline
 62
7
  6
BYLAYER
 70
0
 71
3
 72
9
 73
5
 74
0
 42
0.0000001
 43
0.0000001
 44
0.0000000001
 40
0.0
 40
0.0
 40
0.0
 40
0.0
 40
0.2570168011
 40
1.0
 40
1.0
 40
1.0
 40
1.0
 10
50.4693873876
 20
78.1158603334
 30
0.0
 10
50.4012727724
 20
78.1551854352
 30
0.0
 10
50.133897936
 20
78.3040451938
 30
0.0
 10
49.8569609184
 20
78.4359728472
 30
0.0
 10
49.646556792
 20
78.5221424808
 30
0.0
  0
SPLINE
  5
2ED
100
AcDbEntity
  8
0
100
AcDbSpline
 62
7
  6
BYLAYER
 70
0
 71
3
 72
15
 73
11
 74
0
 42
0.0000001
 43
0.0000001
 44
0.0000000001
 40
0.0
 40
0.0
 40
0.0
 40
0.0
 40
0.1066352556
 40
0.2251501031
 40
0.353174375
 40
0.4871882147
 40
0.6230379857
 40
0.7563982473
 40
0.8831750794
 40
1.0
 40
1.0
 40
1.0
 40
1.0
 10
56.0882069442
 20
67.0482700326
 30
0.0
 10
56.1703268833
 20
67.5045756849
 30
0.0
 10
56.2264984441
 20
68.4902346954
 30
0.0
 10
56.0361302121
 20
70.0200459372
 30
0.0
 10
55.5869997288
 20
71.618390967
 30
0.0
 10
54.8997740422
 20
73.2111490854
 30
0.0
 10
54.0065035104
 20
74.7249839672
 30
0.0
 10
52.9484092095
 20
76.0894950073
 30
0.0
 10
51.7751744482
 20
77.2411835328
 30
0.0
 10
50.909278424
 20
77.8618948706
 30
0.0
 10
50.4693873876
 20
78.1158603334
 30
0.0
  0
SPLINE
  5
2EE
100
AcDbEntity
  8
0
100
AcDbSpline
 62
7
  6
BYLAYER
 70
0
 71
3
 72
9
 73
5
 74
0
 42
0.0000001
 43
0.0000001
 44
0.0000000001
 40
0.0
 40
0.0
 40
0.0
 40
0.0
 40
0.2541740596
 40
1.0
 40
1.0
 40
1.0
 40
1.0
 10
33.6600812684
 20
65.4961916499
 30
0.0
 10
33.6810104849
 20
65.5195692527
 30
0.0
 10
33.7669137657
 20
65.6082807279
 30
0.0
 10
33.8674868967
 20
65.6828807235
 30
0.0
 10
33.9478805423
 20
65.7277580227
 30
0.0
  0
SPLINE
  5
2EF
100
AcDbEntity
  8
0
100
AcDbSpline
 62
7
  6
BYLAYER
 70
0
 71
3
 72
11
 73
7
 74
0
 42
0.0000001
 43
0.0000001
 44
0.0000000001
 40
0.0
 40
0.0
 40
0.0
 40
0.0
 40
0.2177648091
 40
0.4511366312
 40
0.7105477323
 40
1.0
 40
1.0
 40
1.0
 40
1.0
 10
33.9478805423
 20
65.7277580227
 30
0.0
 10
34.0549656907
 20
65.7875350386
 30
0.0
 10
34.3001251396
 20
65.8729329165
 30
0.0
 10
34.7055095428
 20
65.8801448791
 30
0.0
 10
35.1370930321
 20
65.7743871964
 30
0.0
 10
35.417901344
 20
65.6404958238
 30
0.0
 10
35.5590750385
 20
65.5589909972
 30
0.0
  0
SPLINE
  5
2F0
100
AcDbEntity
  8
0
100
AcDbSpline
 62
7
  6
BYLAYER
 70
0
 71
3
 72
18
 73
14
 74
0
 42
0.0000001
 43
0.0000001
 44
0.0000000001
 40
0.0
 40
0.0
 40
0.0
 40
0.0
 40
0.0428470098
 40
0.087464255
 40
0.1352834841
 40
0.1872353002
 40
0.2437255229
 40
0.3047295282
 40
0.4383618131
 40
0.5826674197
 40
0.7297889245
 40
0.8713403881
 40
1.0
 40
1.0
 40
1.0
 40
1.0
 10
37.059059667
 20
60.3072930491
 30
0.0
 10
37.1330113448
 20
60.3500055436
 30
0.0
 10
37.2732361897
 20
60.4572826342
 30
0.0
 10
37.4419070443
 20
60.670665575
 30
0.0
 10
37.5680400637
 20
60.9315504074
 30
0.0
 10
37.6496375669
 20
61.2336719487
 30
0.0
 10
37.6860120428
 20
61.5706196489
 30
0.0
 10
37.6731709787
 20
62.0721708774
 30
0.0
 10
37.5370550938
 20
62.7393881779
 30
0.0
 10
37.2181457974
 20
63.5284466799
 30
0.0
 10
36.7639496242
 20
64.2672159812
 30
0.0
 10
36.212243061
 20
64.8949273131
 30
0.0
 10
35.7811574174
 20
65.2266489723
 30
0.0
 10
35.5590750385
 20
65.3548653929
 30
0.0
  0
SPLINE
  5
2F1
100
AcDbEntity
  8
0
100
AcDbSpline
 62
7
  6
BYLAYER
 70
0
 71
3
 72
18
 73
14
 74
0
 42
0.0000001
 43
0.0000001
 44
0.0000000001
 40
0.0
 40
0.0
 40
0.0
 40
0.0
 40
0.0434137981
 40
0.089572307
 40
0.1394008811
 40
0.1933869644
 40
0.2516227527
 40
0.3138941791
 40
0.4483524659
 40
0.5913082377
 40
0.7356360462
 40
0.8739752461
 40
1.0
 40
1.0
 40
1.0
 40
1.0
 10
22.8932454236
 20
51.0100310816
 30
0.0
 10
22.975518982
 20
51.0848525212
 30
0.0
 10
23.1270306077
 20
51.260237923
 30
0.0
 10
23.2987707461
 20
51.5758291911
 30
0.0
 10
23.4181714763
 20
51.9429485928
 30
0.0
 10
23.4835991678
 20
52.3543007738
 30
0.0
 10
23.4946165002
 20
52.8023030273
 30
0.0
 10
23.4349944863
 20
53.4538700274
 30
0.0
 10
23.2211974077
 20
54.3031448761
 30
0.0
 10
22.7834410163
 20
55.2955830389
 30
0.0
 10
22.1893935011
 20
56.2155450798
 30
0.0
 10
21.4835371337
 20
56.9948405009
 30
0.0
 10
20.9390647018
 20
57.4077317818
 30
0.0
 10
20.6594908088
 20
57.5691401926
 30
0.0
  0
SPLINE
  5
2F2
100
AcDbEntity
  8
0
100
AcDbSpline
 62
7
  6
BYLAYER
 70
0
 71
3
 72
11
 73
7
 74
0
 42
0.0000001
 43
0.0000001
 44
0.0000000001
 40
0.0
 40
0.0
 40
0.0
 40
0.0
 40
0.2442729342
 40
0.4979944276
 40
0.7527429713
 40
1.0
 40
1.0
 40
1.0
 40
1.0
 10
55.3324554595
 20
78.9945346851
 30
0.0
 10
55.7915436997
 20
78.5611195126
 30
0.0
 10
56.6600457063
 20
77.6041963724
 30
0.0
 10
57.7666131707
 20
75.9976456728
 30
0.0
 10
58.6619653676
 20
74.2558396174
 30
0.0
 10
59.1000478933
 20
73.0292930156
 30
0.0
 10
59.2696446517
 20
72.4131386586
 30
0.0
  0
SPLINE
  5
2F3
100
AcDbEntity
  8
0
100
AcDbSpline
 62
7
  6
BYLAYER
 70
0
 71
3
 72
9
 73
5
 74
0
 42
0.0000001
 43
0.0000001
 44
0.0000000001
 40
0.0
 40
0.0
 40
0.0
 40
0.0
 40
0.255581972
 40
1.0
 40
1.0
 40
1.0
 40
1.0
 10
59.2696446517
 20
72.4131386586
 30
0.0
 10
59.3019876825
 20
72.2956346476
 30
0.0
 10
59.421938794
 20
71.8341100607
 30
0.0
 10
59.5149670655
 20
71.3654616965
 30
0.0
 10
59.5666678912
 20
71.0142720197
 30
0.0
  0
SPLINE
  5
2F4
100
AcDbEntity
  8
0
100
AcDbSpline
 62
7
  6
BYLAYER
 70
0
 71
3
 72
25
 73
21
 74
0
 42
0.0000001
 43
0.0000001
 44
0.0000000001
 40
0.0
 40
0.0
 40
0.0
 40
0.0
 40
0.0623805337
 40
0.1287229132
 40
0.1983135176
 40
0.2702899287
 40
0.3436666682
 40
0.4173993593
 40
0.4904244401
 40
0.561711583
 40
0.6303091791
 40
0.6953968032
 40
0.7563442523
 40
0.8127813839
 40
0.8646818768
 40
0.9124568111
 40
0.9351018253
 40
0.9571070673
 40
0.9786677608
 40
1.0
 40
1.0
 40
1.0
 40
1.0
 10
53.5902228874
 20
85.4814700805
 30
0.0
 10
54.1255346604
 20
85.172414676
 30
0.0
 10
55.1890097137
 20
84.4617073513
 30
0.0
 10
56.695051541
 20
83.194344645
 30
0.0
 10
58.1346447342
 20
81.7162271474
 30
0.0
 10
59.4770694777
 20
80.0591275271
 30
0.0
 10
60.6938612468
 20
78.2580986966
 30
0.0
 10
61.7590961073
 20
76.3516252029
 30
0.0
 10
62.6500227345
 20
74.3803457421
 30
0.0
 10
63.3476525015
 20
72.3862857627
 30
0.0
 10
63.8371216963
 20
70.4117859423
 30
0.0
 10
64.107932176
 20
68.49849942
 30
0.0
 10
64.1540625477
 20
66.6864461488
 30
0.0
 10
63.973457368
 20
65.0128805309
 30
0.0
 10
63.5682285626
 20
63.5126264683
 30
0.0
 10
63.0365820634
 20
62.4130279534
 30
0.0
 10
62.5055857733
 20
61.6646615453
 30
0.0
 10
62.0651207765
 20
61.1762361681
 30
0.0
 10
61.5781066347
 20
60.7538717964
 30
0.0
 10
61.2232426707
 20
60.5174864665
 30
0.0
 10
61.0401763195
 20
60.4118094415
 30
0.0
  0
SPLINE
  5
2F5
100
AcDbEntity
  8
0
100
AcDbSpline
 62
7
  6
BYLAYER
 70
0
 71
3
 72
26
 73
22
 74
0
 42
0.0000001
 43
0.0000001
 44
0.0000000001
 40
0.0
 40
0.0
 40
0.0
 40
0.0
 40
0.0665547045
 40
0.1383726517
 40
0.2139624368
 40
0.2915200929
 40
0.3690779705
 40
0.4446697984
 40
0.5164841273
 40
0.5830407864
 40
0.643392985
 40
0.6973833749
 40
0.7222945483
 40
0.7460735936
 40
0.7690416118
 40
0.7915838109
 40
0.8141261664
 40
0.8370942028
 40
0.8856541557
 40
0.9396491099
 40
1.0
 40
1.0
 40
1.0
 40
1.0
 10
38.2460696199
 20
68.784148737
 30
0.0
 10
38.5026186812
 20
68.6360334182
 30
0.0
 10
39.0093660337
 20
68.2808011339
 30
0.0
 10
39.70664167
 20
67.6284849766
 30
0.0
 10
40.3491883811
 20
66.8573538084
 30
0.0
 10
40.9128548373
 20
65.9964226375
 30
0.0
 10
41.3766276262
 20
65.0777807889
 30
0.0
 10
41.7231444624
 20
64.135818736
 30
0.0
 10
41.9394791915
 20
63.2055826888
 30
0.0
 10
42.0173264073
 20
62.3209833066
 30
0.0
 10
41.953269732
 20
61.5140741021
 30
0.0
 10
41.7758803764
 20
60.9134179054
 30
0.0
 10
41.5606622374
 20
60.5086587971
 30
0.0
 10
41.3707936395
 20
60.2508224413
 30
0.0
 10
41.1500082765
 20
60.0335180675
 30
0.0
 10
40.9004192132
 20
59.8593155753
 30
0.0
 10
40.6247428364
 20
59.7302557854
 30
0.0
 10
40.2195266482
 20
59.6180515918
 30
0.0
 10
39.6520823667
 20
59.6029491477
 30
0.0
 10
38.9414051053
 20
59.7747948096
 30
0.0
 10
38.4787047779
 20
59.9949141828
 30
0.0
 10
38.2460696199
 20
60.1292231155
 30
0.0
  0
SPLINE
  5
2F6
100
AcDbEntity
  8
0
100
AcDbSpline
 62
7
  6
BYLAYER
 70
0
 71
3
 72
22
 73
18
 74
0
 42
0.0000001
 43
0.0000001
 44
0.0000000001
 40
0.0
 40
0.0
 40
0.0
 40
0.0
 40
0.0440988053
 40
0.0878097554
 40
0.1332662176
 40
0.182212549
 40
0.2083935653
 40
0.2358029951
 40
0.2943701781
 40
0.3578646182
 40
0.4257583739
 40
0.5710249213
 40
0.7215666172
 40
0.795770217
 40
0.867578569
 40
0.935968827
 40
1.0
 40
1.0
 40
1.0
 40
1.0
 10
39.3332232352
 20
60.4852084682
 30
0.0
 10
39.4558725713
 20
60.5108978953
 30
0.0
 10
39.6950316539
 20
60.5938354244
 30
0.0
 10
40.0082921417
 20
60.8149599126
 30
0.0
 10
40.2594117945
 20
61.1221432996
 30
0.0
 10
40.4087999301
 20
61.4336805552
 30
0.0
 10
40.4953240398
 20
61.7122200902
 30
0.0
 10
40.5618044933
 20
62.0243361076
 30
0.0
 10
40.5971900437
 20
62.4494257479
 30
0.0
 10
40.5669770628
 20
62.989785779
 30
0.0
 10
40.429311658
 20
63.7653511447
 30
0.0
 10
40.0853550033
 20
64.7475687747
 30
0.0
 10
39.5615478381
 20
65.6661251911
 30
0.0
 10
39.046788579
 20
66.3346703658
 30
0.0
 10
38.6293148646
 20
66.7798940798
 30
0.0
 10
38.1892246848
 20
67.1598554843
 30
0.0
 10
37.8764936238
 20
67.3713124149
 30
0.0
 10
37.7189189712
 20
67.4622861249
 30
0.0
  0
SPLINE
  5
2F7
100
AcDbEntity
  8
0
100
AcDbSpline
 62
7
  6
BYLAYER
 70
0
 71
3
 72
21
 73
17
 74
0
 42
0.0000001
 43
0.0000001
 44
0.0000000001
 40
0.0
 40
0.0
 40
0.0
 40
0.0
 40
0.0612481442
 40
0.1262488526
 40
0.1943371844
 40
0.2647917788
 40
0.4091631634
 40
0.5521152053
 40
0.6208485169
 40
0.6866380721
 40
0.7488351741
 40
0.8069792767
 40
0.8608597454
 40
0.9105831945
 40
0.9566486045
 40
1.0
 40
1.0
 40
1.0
 40
1.0
 10
41.3018990618
 20
71.4669873759
 30
0.0
 10
41.5205712068
 20
71.3407398102
 30
0.0
 10
41.9553696281
 20
71.0522520793
 30
0.0
 10
42.5735948227
 20
70.540764038
 30
0.0
 10
43.1672815164
 20
69.9460248411
 30
0.0
 10
43.9165742458
 20
69.0506272364
 30
0.0
 10
44.7190717246
 20
67.8050416064
 30
0.0
 10
45.3128097618
 20
66.4548512564
 30
0.0
 10
45.6340322664
 20
65.3555593968
 30
0.0
 10
45.7884460037
 20
64.5580667245
 30
0.0
 10
45.8564561566
 20
63.7922395517
 30
0.0
 10
45.8365652746
 20
63.0724168786
 30
0.0
 10
45.7287778395
 20
62.4120256511
 30
0.0
 10
45.5340978346
 20
61.8232980629
 30
0.0
 10
45.2549532276
 20
61.3180673226
 30
0.0
 10
45.0093206765
 20
61.0381662455
 30
0.0
 10
44.8760940314
 20
60.9190397897
 30
0.0
  0
SPLINE
  5
2F8
100
AcDbEntity
  8
0
100
AcDbSpline
 62
7
  6
BYLAYER
 70
0
 71
3
 72
9
 73
5
 74
0
 42
0.0000001
 43
0.0000001
 44
0.0000000001
 40
0.0
 40
0.0
 40
0.0
 40
0.0
 40
0.4992699771
 40
1.0
 40
1.0
 40
1.0
 40
1.0
 10
44.8760940314
 20
60.9190397897
 30
0.0
 10
44.7547264044
 20
60.8105172398
 30
0.0
 10
44.4866704667
 20
60.6192725346
 30
0.0
 10
44.1819185475
 20
60.4946737858
 30
0.0
 10
44.0249842092
 20
60.4495725837
 30
0.0
  0
SPLINE
  5
2F9
100
AcDbEntity
  8
0
100
AcDbSpline
 62
7
  6
BYLAYER
 70
0
 71
3
 72
14
 73
10
 74
0
 42
0.0000001
 43
0.0000001
 44
0.0000000001
 40
0.0
 40
0.0
 40
0.0
 40
0.0
 40
0.1107433547
 40
0.220892099
 40
0.3333393691
 40
0.4506946869
 40
0.5749878328
 40
0.7076452187
 40
1.0
 40
1.0
 40
1.0
 40
1.0
 10
37.6753761193
 20
71.4745756981
 30
0.0
 10
37.7794370371
 20
71.573717748
 30
0.0
 10
38.0066490493
 20
71.752155476
 30
0.0
 10
38.3962167766
 20
71.9467006449
 30
0.0
 10
38.8247394931
 20
72.0628513366
 30
0.0
 10
39.2852361185
 20
72.0991991485
 30
0.0
 10
39.7711901157
 20
72.0564493495
 30
0.0
 10
40.4664189324
 20
71.8901953158
 30
0.0
 10
40.9732988305
 20
71.656700516
 30
0.0
 10
41.3018990618
 20
71.4669873759
 30
0.0
  0
SPLINE
  5
2FA
100
AcDbEntity
  8
0
100
AcDbSpline
 62
7
  6
BYLAYER
 70
0
 71
3
 72
9
 73
5
 74
0
 42
0.0000001
 43
0.0000001
 44
0.0000000001
 40
0.0
 40
0.0
 40
0.0
 40
0.0
 40
0.2622240095
 40
1.0
 40
1.0
 40
1.0
 40
1.0
 10
41.3018990618
 20
70.0673444168
 30
0.0
 10
41.2363452632
 20
70.1051910639
 30
0.0
 10
40.9827426874
 20
70.2430083348
 30
0.0
 10
40.7139540571
 20
70.3541702263
 30
0.0
 10
40.5096691424
 20
70.4143662561
 30
0.0
  0
SPLINE
  5
2FB
100
AcDbEntity
  8
0
100
AcDbSpline
 62
7
  6
BYLAYER
 70
0
 71
3
 72
15
 73
11
 74
0
 42
0.0000001
 43
0.0000001
 44
0.0000000001
 40
0.0
 40
0.0
 40
0.0
 40
0.0
 40
0.1020917861
 40
0.2174999491
 40
0.3442591568
 40
0.478729165
 40
0.616316999
 40
0.7520899838
 40
0.8813014534
 40
1.0
 40
1.0
 40
1.0
 40
1.0
 10
44.4889631799
 20
63.2623788797
 30
0.0
 10
44.5693369208
 20
63.5212333
 30
0.0
 10
44.6591090017
 20
64.0987096492
 30
0.0
 10
44.6068843365
 20
65.0158561362
 30
0.0
 10
44.3821411748
 20
65.9945375037
 30
0.0
 10
43.9964712414
 20
66.9842404929
 30
0.0
 10
43.4701172947
 20
67.9340858462
 30
0.0
 10
42.8303267694
 20
68.7945017432
 30
0.0
 10
42.1108664453
 20
69.5204686569
 30
0.0
 10
41.5748154103
 20
69.9097796541
 30
0.0
 10
41.3018990618
 20
70.0673444168
 30
0.0
  0
SPLINE
  5
2FC
100
AcDbEntity
  8
0
100
AcDbSpline
 62
7
  6
BYLAYER
 70
0
 71
3
 72
18
 73
14
 74
0
 42
0.0000001
 43
0.0000001
 44
0.0000000001
 40
0.0
 40
0.0
 40
0.0
 40
0.0
 40
0.1286604777
 40
0.2702102757
 40
0.4173304164
 40
0.5616385695
 40
0.6952728341
 40
0.7562768259
 40
0.8127655478
 40
0.8647158189
 40
0.9125338531
 40
0.9571509174
 40
1.0
 40
1.0
 40
1.0
 40
1.0
 10
35.5590750385
 20
65.5589909972
 30
0.0
 10
35.7996753817
 20
65.4200834668
 30
0.0
 10
36.2667001056
 20
65.0607023508
 30
0.0
 10
36.8643970459
 20
64.3806533376
 30
0.0
 10
37.3564510248
 20
63.5802827513
 30
0.0
 10
37.7019368965
 20
62.7254215125
 30
0.0
 10
37.8493675988
 20
62.0025569385
 30
0.0
 10
37.8632537034
 20
61.4591859643
 30
0.0
 10
37.823809538
 20
61.0941552157
 30
0.0
 10
37.7353809483
 20
60.7668608306
 30
0.0
 10
37.5986920405
 20
60.4842487766
 30
0.0
 10
37.4159099503
 20
60.2531105561
 30
0.0
 10
37.2639668102
 20
60.1369167898
 30
0.0
 10
37.1838348001
 20
60.0906593203
 30
0.0
  0
SPLINE
  5
2FD
100
AcDbEntity
  8
0
100
AcDbSpline
 62
7
  6
BYLAYER
 70
0
 71
3
 72
9
 73
5
 74
0
 42
0.0000001
 43
0.0000001
 44
0.0000000001
 40
0.0
 40
0.0
 40
0.0
 40
0.0
 40
0.2477101823
 40
1.0
 40
1.0
 40
1.0
 40
1.0
 10
37.1838348001
 20
60.0906593203
 30
0.0
 10
37.1584952326
 20
60.0760316544
 30
0.0
 10
37.0538458867
 20
60.0211110471
 30
0.0
 10
36.9402416548
 20
59.9836262676
 30
0.0
 10
36.8532750236
 20
59.9653928536
 30
0.0
  0
SPLINE
  5
2FE
100
AcDbEntity
  8
0
100
AcDbSpline
 62
7
  6
BYLAYER
 70
0
 71
3
 72
11
 73
7
 74
0
 42
0.0000001
 43
0.0000001
 44
0.0000000001
 40
0.0
 40
0.0
 40
0.0
 40
0.0
 40
0.2897452325
 40
0.5490774014
 40
0.7822206446
 40
1.0
 40
1.0
 40
1.0
 40
1.0
 10
35.5590750385
 20
65.3548653929
 30
0.0
 10
35.427418534
 20
65.4308755917
 30
0.0
 10
35.1655682267
 20
65.5554807789
 30
0.0
 10
34.763055915
 20
65.6526383794
 30
0.0
 10
34.3854264103
 20
65.6430678799
 30
0.0
 10
34.1580364411
 20
65.5605717928
 30
0.0
 10
34.05909041
 20
65.503423234
 30
0.0
  0
SPLINE
  5
2FF
100
AcDbEntity
  8
0
100
AcDbSpline
 62
7
  6
BYLAYER
 70
0
 71
3
 72
17
 73
13
 74
0
 42
0.0000001
 43
0.0000001
 44
0.0000000001
 40
0.0
 40
0.0
 40
0.0
 40
0.0
 40
0.1466530582
 40
0.2776853048
 40
0.3949825039
 40
0.4501504192
 40
0.5040776322
 40
0.5578142151
 40
0.6124289096
 40
0.727735302
 40
0.8561201737
 40
1.0
 40
1.0
 40
1.0
 40
1.0
 10
34.5007757875
 20
66.4653142273
 30
0.0
 10
34.4923380109
 20
66.7448228849
 30
0.0
 10
34.5180531463
 20
67.2771743219
 30
0.0
 10
34.7074998009
 20
68.01239846
 30
0.0
 10
34.9962414438
 20
68.5245685766
 30
0.0
 10
35.2944649475
 20
68.8392391499
 30
0.0
 10
35.5443256561
 20
69.0261940996
 30
0.0
 10
35.8220911209
 20
69.1661384814
 30
0.0
 10
36.2320305079
 20
69.2904391248
 30
0.0
 10
36.8100340649
 20
69.3151250381
 30
0.0
 10
37.5359889561
 20
69.1451534124
 30
0.0
 10
38.0084759142
 20
68.9213204238
 30
0.0
 10
38.2460696199
 20
68.784148737
 30
0.0
  0
SPLINE
  5
300
100
AcDbEntity
  8
0
100
AcDbSpline
 62
7
  6
BYLAYER
 70
0
 71
3
 72
14
 73
10
 74
0
 42
0.0000001
 43
0.0000001
 44
0.0000000001
 40
0.0
 40
0.0
 40
0.0
 40
0.0
 40
0.1515035789
 40
0.2933896246
 40
0.5483474391
 40
0.6649517876
 40
0.7770485324
 40
0.8876542753
 40
1.0
 40
1.0
 40
1.0
 40
1.0
 10
37.7189189712
 20
67.4622861249
 30
0.0
 10
37.6064749505
 20
67.5272042419
 30
0.0
 10
37.3819046327
 20
67.6419531656
 30
0.0
 10
36.9408397947
 20
67.8052484487
 30
0.0
 10
36.4973755168
 20
67.8751003406
 30
0.0
 10
36.0835692119
 20
67.824973504
 30
0.0
 10
35.8055406481
 20
67.7327827046
 30
0.0
 10
35.5562943296
 20
67.5860660582
 30
0.0
 10
35.4144712468
 20
67.4556864997
 30
0.0
 10
35.3502568752
 20
67.3839481601
 30
0.0
  0
SPLINE
  5
301
100
AcDbEntity
  8
0
100
AcDbSpline
 62
7
  6
BYLAYER
 70
0
 71
3
 72
11
 73
7
 74
0
 42
0.0000001
 43
0.0000001
 44
0.0000000001
 40
0.0
 40
0.0
 40
0.0
 40
0.0
 40
0.2847941052
 40
0.5445264319
 40
0.7809837747
 40
1.0
 40
1.0
 40
1.0
 40
1.0
 10
20.6594908088
 20
57.5691401926
 30
0.0
 10
20.5105798809
 20
57.655112012
 30
0.0
 10
20.2140399407
 20
57.8004877725
 30
0.0
 10
19.7592377596
 20
57.9347572389
 30
0.0
 10
19.3254386736
 20
57.9704317474
 30
0.0
 10
19.0504427471
 20
57.9244094582
 30
0.0
 10
18.9244792808
 20
57.8841765753
 30
0.0
  0
SPLINE
  5
302
100
AcDbEntity
  8
0
100
AcDbSpline
 62
7
  6
BYLAYER
 70
0
 71
3
 72
18
 73
14
 74
0
 42
0.0000001
 43
0.0000001
 44
0.0000000001
 40
0.0
 40
0.0
 40
0.0
 40
0.0
 40
0.1458210435
 40
0.2767160613
 40
0.3946522656
 40
0.4503547636
 40
0.5048703357
 40
0.5591584085
 40
0.6141991731
 40
0.6709012239
 40
0.7300473432
 40
0.8576643077
 40
1.0
 40
1.0
 40
1.0
 40
1.0
 10
38.2460696199
 20
68.5562535744
 30
0.0
 10
38.031535431
 20
68.680112144
 30
0.0
 10
37.6047521956
 20
68.8842106454
 30
0.0
 10
36.9495024211
 20
69.0488808175
 30
0.0
 10
36.4245607861
 20
69.0452515775
 30
0.0
 10
36.0466533357
 20
68.9526416579
 30
0.0
 10
35.7883040434
 20
68.8427592601
 30
0.0
 10
35.5526421629
 20
68.69225432
 30
0.0
 10
35.342184078
 20
68.5026376477
 30
0.0
 10
35.1588024767
 20
68.2761335044
 30
0.0
 10
34.9475088346
 20
67.9190914935
 30
0.0
 10
34.7636560127
 20
67.3849152196
 30
0.0
 10
34.708641383
 20
66.9266581933
 30
0.0
 10
34.6992193372
 20
66.6850414193
 30
0.0
  0
SPLINE
  5
303
100
AcDbEntity
  8
0
100
AcDbSpline
 62
7
  6
BYLAYER
 70
0
 71
3
 72
15
 73
11
 74
0
 42
0.0000001
 43
0.0000001
 44
0.0000000001
 40
0.0
 40
0.0
 40
0.0
 40
0.0
 40
0.1080137743
 40
0.2180614182
 40
0.3319976061
 40
0.4513595334
 40
0.5772700781
 40
0.7104895929
 40
0.851435583
 40
1.0
 40
1.0
 40
1.0
 40
1.0
 10
46.1402694554
 20
86.219358689
 30
0.0
 10
46.3845681836
 20
86.3603827639
 30
0.0
 10
46.903212315
 20
86.6033074796
 30
0.0
 10
47.7424477347
 20
86.8353275169
 30
0.0
 10
48.6370779916
 20
86.9351777045
 30
0.0
 10
49.5775807855
 20
86.9023868596
 30
0.0
 10
50.5549140094
 20
86.7385112016
 30
0.0
 10
51.5600474093
 20
86.4455078334
 30
0.0
 10
52.5833289934
 20
86.0266022817
 30
0.0
 10
53.2542203976
 20
85.6754568199
 30
0.0
 10
53.5902228874
 20
85.4814700805
 30
0.0
  0
SPLINE
  5
304
100
AcDbEntity
  8
0
100
AcDbSpline
 62
7
  6
BYLAYER
 70
0
 71
3
 72
19
 73
15
 74
0
 42
0.0000001
 43
0.0000001
 44
0.0000000001
 40
0.0
 40
0.0
 40
0.0
 40
0.0
 40
0.0624097758
 40
0.128828574
 40
0.2703457427
 40
0.4174344401
 40
0.5617135323
 40
0.6953220434
 40
0.7563169689
 40
0.8127986887
 40
0.8647382931
 40
0.9125507195
 40
0.9571601829
 40
1.0
 40
1.0
 40
1.0
 40
1.0
 10
17.2450856546
 20
55.5978442248
 30
0.0
 10
17.3887507435
 20
55.5149010235
 30
0.0
 10
17.6742549447
 20
55.3240540571
 30
0.0
 10
18.2249100703
 20
54.8606775636
 30
0.0
 10
18.851810622
 20
54.1474140711
 30
0.0
 10
19.4570897842
 20
53.1627975758
 30
0.0
 10
19.8823967607
 20
52.1106092213
 30
0.0
 10
20.0638493634
 20
51.2209831176
 30
0.0
 10
20.0810262754
 20
50.5522255077
 30
0.0
 10
20.0325557394
 20
50.1029391599
 30
0.0
 10
19.9236773357
 20
49.7001290921
 30
0.0
 10
19.7555978593
 20
49.3522246371
 30
0.0
 10
19.5306326642
 20
49.0677482041
 30
0.0
 10
19.3436802567
 20
48.924683408
 30
0.0
 10
19.2450653426
 20
48.8677474449
 30
0.0
  0
SPLINE
  5
305
100
AcDbEntity
  8
0
100
AcDbSpline
 62
7
  6
BYLAYER
 70
0
 71
3
 72
25
 73
21
 74
0
 42
0.0000001
 43
0.0000001
 44
0.0000000001
 40
0.0
 40
0.0
 40
0.0
 40
0.0
 40
0.0590335213
 40
0.1118543029
 40
0.1596368825
 40
0.1824151494
 40
0.2049131652
 40
0.2275496122
 40
0.2507299034
 40
0.2999672955
 40
0.3547603016
 40
0.4158638981
 40
0.4830211606
 40
0.5552469152
 40
0.6310649292
 40
0.7086953336
 40
0.7862209117
 40
0.8617279384
 40
0.9334703696
 40
1.0
 40
1.0
 40
1.0
 40
1.0
 10
38.3966157916
 20
60.273907575
 30
0.0
 10
38.6137132272
 20
60.1592482585
 30
0.0
 10
39.044461586
 20
59.9749012192
 30
0.0
 10
39.7022902817
 20
59.8483382651
 30
0.0
 10
40.2222212987
 20
59.8907935771
 30
0.0
 10
40.5902030788
 20
60.0158343753
 30
0.0
 10
40.8400332139
 20
60.1504839012
 30
0.0
 10
41.0648963712
 20
60.3263161869
 30
0.0
 10
41.333784536
 20
60.6182280112
 30
0.0
 10
41.595541566
 20
61.0869368075
 30
0.0
 10
41.7716916163
 20
61.7563039991
 30
0.0
 10
41.8167018445
 20
62.5203677095
 30
0.0
 10
41.7306672691
 20
63.3527539312
 30
0.0
 10
41.5175243731
 20
64.2245319343
 30
0.0
 10
41.1850616232
 20
65.1045082181
 30
0.0
 10
40.7454011794
 20
65.9608295734
 30
0.0
 10
40.214551301
 20
66.7622465905
 30
0.0
 10
39.6117965682
 20
67.4796903202
 30
0.0
 10
38.9591831254
 20
68.0868364257
 30
0.0
 10
38.4856929646
 20
68.4179101016
 30
0.0
 10
38.2460696199
 20
68.5562535744
 30
0.0
  0
SPLINE
  5
306
100
AcDbEntity
  8
0
100
AcDbSpline
 62
7
  6
BYLAYER
 70
0
 71
3
 72
17
 73
13
 74
0
 42
0.0000001
 43
0.0000001
 44
0.0000000001
 40
0.0
 40
0.0
 40
0.0
 40
0.0
 40
0.1260502516
 40
0.2644177803
 40
0.4087761876
 40
0.5517604028
 40
0.6862472798
 40
0.8065758715
 40
0.8605698037
 40
0.910410691
 40
0.9565782754
 40
1.0
 40
1.0
 40
1.0
 40
1.0
 10
24.6696759454
 20
59.0679054233
 30
0.0
 10
24.8793555661
 20
58.9468495765
 30
0.0
 10
25.2877096767
 20
58.6371895201
 30
0.0
 10
25.8171062766
 20
58.0526910868
 30
0.0
 10
26.2626115958
 20
57.3628093079
 30
0.0
 10
26.5910161182
 20
56.6181407531
 30
0.0
 10
26.7784304668
 20
55.8735005451
 30
0.0
 10
26.8065097087
 20
55.2748931501
 30
0.0
 10
26.7386574936
 20
54.8482762392
 30
0.0
 10
26.6491611509
 20
54.5729073568
 30
0.0
 10
26.5203106525
 20
54.3362427108
 30
0.0
 10
26.4067042266
 20
54.2046810751
 30
0.0
 10
26.3449860577
 20
54.1485822138
 30
0.0
  0
SPLINE
  5
307
100
AcDbEntity
  8
0
100
AcDbSpline
 62
7
  6
BYLAYER
 70
0
 71
3
 72
15
 73
11
 74
0
 42
0.0000001
 43
0.0000001
 44
0.0000000001
 40
0.0
 40
0.0
 40
0.0
 40
0.0
 40
0.1124800147
 40
0.2346575634
 40
0.363988421
 40
0.4972566195
 40
0.6309062189
 40
0.7613592599
 40
0.8852930053
 40
1.0
 40
1.0
 40
1.0
 40
1.0
 10
59.807073785
 20
69.419062194
 30
0.0
 10
59.8258300685
 20
69.9147395373
 30
0.0
 10
59.7670457887
 20
70.9535567307
 30
0.0
 10
59.4387763068
 20
72.5295021317
 30
0.0
 10
58.8798165576
 20
74.1363437103
 30
0.0
 10
58.1121105824
 20
75.710476349
 30
0.0
 10
57.1659945998
 20
77.1901352573
 30
0.0
 10
56.0785330653
 20
78.5169836332
 30
0.0
 10
54.8929433132
 20
79.6386634491
 30
0.0
 10
54.0283068872
 20
80.2478831427
 30
0.0
 10
53.5902228874
 20
80.500805336
 30
0.0
  0
SPLINE
  5
308
100
AcDbEntity
  8
0
100
AcDbSpline
 62
7
  6
BYLAYER
 70
0
 71
3
 72
23
 73
19
 74
0
 42
0.0000001
 43
0.0000001
 44
0.0000000001
 40
0.0
 40
0.0
 40
0.0
 40
0.0
 40
0.0632675089
 40
0.1307021272
 40
0.201478295
 40
0.274652612
 40
0.3491227134
 40
0.4237368921
 40
0.4973318574
 40
0.5687936053
 40
0.637116146
 40
0.7014632824
 40
0.7612456827
 40
0.8162096773
 40
0.8665422508
 40
0.9129786667
 40
0.9568556598
 40
1.0
 40
1.0
 40
1.0
 40
1.0
 10
44.3577285037
 20
74.1498260148
 30
0.0
 10
44.6405105567
 20
73.9865654138
 30
0.0
 10
45.202006762
 20
73.6090444867
 30
0.0
 10
45.9945913026
 20
72.9330817253
 30
0.0
 10
46.7492226659
 20
72.1427360259
 30
0.0
 10
47.4485148356
 20
71.2565766853
 30
0.0
 10
48.0763810744
 20
70.2947819958
 30
0.0
 10
48.6183219198
 20
69.2796358075
 30
0.0
 10
49.0618513836
 20
68.2345744497
 30
0.0
 10
49.3967281249
 20
67.1836881145
 30
0.0
 10
49.6152254272
 20
66.151087891
 30
0.0
 10
49.7121975975
 20
65.1602604544
 30
0.0
 10
49.6851338254
 20
64.2334740737
 30
0.0
 10
49.5337971422
 20
63.3912669015
 30
0.0
 10
49.2598160587
 20
62.6524562214
 30
0.0
 10
48.8661951832
 20
62.0348531652
 30
0.0
 10
48.3597982685
 20
61.5570146148
 30
0.0
 10
47.957315617
 20
61.3438273009
 30
0.0
 10
47.7486341969
 20
61.266148304
 30
0.0
  0
SPLINE
  5
309
100
AcDbEntity
  8
0
100
AcDbSpline
 62
7
  6
BYLAYER
 70
0
 71
3
 72
15
 73
11
 74
0
 42
0.0000001
 43
0.0000001
 44
0.0000000001
 40
0.0
 40
0.0
 40
0.0
 40
0.0
 40
0.1096799855
 40
0.2195982888
 40
0.332363191
 40
0.45026084
 40
0.5750415356
 40
0.7079299682
 40
0.8496131842
 40
1.0
 40
1.0
 40
1.0
 40
1.0
 10
40.2219453368
 20
74.2710993455
 30
0.0
 10
40.345548327
 20
74.3745910265
 30
0.0
 10
40.6132436729
 20
74.5590767136
 30
0.0
 10
41.0640676116
 20
74.7545789049
 30
0.0
 10
41.5551693006
 20
74.8650973345
 30
0.0
 10
42.0794142222
 20
74.889629578
 30
0.0
 10
42.6300790904
 20
74.8289084367
 30
0.0
 10
43.2006619112
 20
74.6842646122
 30
0.0
 10
43.7841792309
 20
74.457830288
 30
0.0
 10
44.1663012385
 20
74.2603440976
 30
0.0
 10
44.3577285037
 20
74.1498260148
 30
0.0
  0
SPLINE
  5
30A
100
AcDbEntity
  8
0
100
AcDbSpline
 62
7
  6
BYLAYER
 70
0
 71
3
 72
15
 73
11
 74
0
 42
0.0000001
 43
0.0000001
 44
0.0000000001
 40
0.0
 40
0.0
 40
0.0
 40
0.0
 40
0.1048779017
 40
0.2222221253
 40
0.3497865335
 40
0.4839907673
 40
0.6205083388
 40
0.7547837897
 40
0.8824764941
 40
1.0
 40
1.0
 40
1.0
 40
1.0
 10
48.3600401608
 20
64.6011473433
 30
0.0
 10
48.4341224076
 20
64.9267354831
 30
0.0
 10
48.5006751079
 20
65.6380241475
 30
0.0
 10
48.3906818256
 20
66.7510933129
 30
0.0
 10
48.0844806374
 20
67.9232455741
 30
0.0
 10
47.5967829576
 20
69.0977511399
 30
0.0
 10
46.9514145524
 20
70.2181141791
 30
0.0
 10
46.1795374104
 20
71.2298018873
 30
0.0
 10
45.3191071235
 20
72.0835063944
 30
0.0
 10
44.6817718603
 20
72.5426882085
 30
0.0
 10
44.3577285037
 20
72.7297704952
 30
0.0
  0
SPLINE
  5
30B
100
AcDbEntity
  8
0
100
AcDbSpline
 62
7
  6
BYLAYER
 70
0
 71
3
 72
12
 73
8
 74
0
 42
0.0000001
 43
0.0000001
 44
0.0000000001
 40
0.0
 40
0.0
 40
0.0
 40
0.0
 40
0.1081637921
 40
0.2183727039
 40
0.451354918
 40
0.7104494357
 40
1.0
 40
1.0
 40
1.0
 40
1.0
 10
15.2451059667
 20
55.7959216677
 30
0.0
 10
15.3106865994
 20
55.8337850732
 30
0.0
 10
15.4499314594
 20
55.8990196971
 30
0.0
 10
15.7557128574
 20
55.9835806865
 30
0.0
 10
16.1839917205
 20
55.9950548155
 30
0.0
 10
16.7203190935
 20
55.8653042017
 30
0.0
 10
17.0695272024
 20
55.6992006515
 30
0.0
 10
17.2450856546
 20
55.5978442248
 30
0.0
  0
ENDSEC
  0
SECTION
  2
OBJECTS
  0
DICTIONARY
  5
C
100
AcDbDictionary
280
0
281
1
  3
ACAD_GROUP
350
D
  3
ACAD_MLINESTYLE
350
17
  3
ACAD_LAYOUT
350
1A
  3
ACAD_PLOTSETTINGS
350
19
  3
ACAD_PLOTSTYLENAME
350
E
  0
DICTIONARY
  5
D
102
{ACAD_REACTORS
330
C
102
}
100
AcDbDictionary
280
0
281
1
  0
ACDBDICTIONARYWDFLT
  5
E
102
{ACAD_REACTORS
330
C
102
}
100
AcDbDictionary
281
1
  3
Normal
350
F
100
AcDbDictionaryWithDefault
340
F
  0
DICTIONARY
  5
17
102
{ACAD_REACTORS
330
C
102
}
100
AcDbDictionary
280
0
281
1
  3
Standard
350
18
  0
DICTIONARY
  5
19
102
{ACAD_REACTORS
330
C
102
}
100
AcDbDictionary
281
1
  0
DICTIONARY
  5
1A
102
{ACAD_REACTORS
330
C
102
}
100
AcDbDictionary
281
1
  3
Model
350
30C
  3
Layout1
350
30D
  0
ACDBPLACEHOLDER
  5
F
102
{ACAD_REACTORS
330
E
102
}
  0
MLINESTYLE
  5
18
102
{ACAD_REACTORS
330
17
102
}
100
AcDbMlineStyle
  2
STANDARD
 70
0
  3

 62
256
 51
90.0
 52
90.0
 71
2
 49
0.5
 62
256
  6
BYLAYER
 49
-0.5
 62
256
  6
BYLAYER
  0
LAYOUT
  5
30C
102
{ACAD_REACTORS
330
1A
102
}
100
AcDbPlotSettings
  1

  2
none_device
  4

  6

 40
0.0
 41
0.0
 42
0.0
 43
0.0
 44
210.0
 45
297.0
 46
0.0
 47
0.0
 48
0.0
 49
0.0
140
0.0
141
0.0
142
1.0
143
1.0
 70
1024
 72
1
 73
0
 74
0
  7

 75
0
147
1.0
148
0.0
149
0.0
100
AcDbLayout
  1
Model
 70
0
 71
0
 10
0.0
 20
0.0
 11
210.0
 21
297.0
 12
0.0
 22
0.0
 32
0.0
 14
0.0
 24
0.0
 34
0.0
 15
0.0
 25
0.0
 35
0.0
146
0.0
 13
0.0
 23
0.0
 33
0.0
 16
1.0
 26
0.0
 36
0.0
 17
0.0
 27
1.0
 37
0.0
 76
0
330
210
345
0
346
0
  0
LAYOUT
  5
30D
102
{ACAD_REACTORS
330
1A
102
}
100
AcDbPlotSettings
  1

  2
none_device
  4

  6

 40
0.0
 41
0.0
 42
0.0
 43
0.0
 44
210.0
 45
297.0
 46
0.0
 47
0.0
 48
0.0
 49
0.0
140
0.0
141
0.0
142
1.0
143
1.0
 70
0
 72
1
 73
0
 74
0
  7

 75
0
147
1.0
148
0.0
149
0.0
100
AcDbLayout
  1
Layout1
 70
0
 71
1
 10
0.0
 20
0.0
 11
210.0
 21
297.0
 12
0.0
 22
0.0
 32
0.0
 14
0.0
 24
0.0
 34
0.0
 15
0.0
 25
0.0
 35
0.0
146
0.0
 13
0.0
 23
0.0
 33
0.0
 16
1.0
 26
0.0
 36
0.0
 17
0.0
 27
1.0
 37
0.0
 76
0
330
211
345
0
346
0
  0
ENDSEC
  0
EOF
