999
DXF file: C:\Users\sesa63760\Dev\_Creo\CAD\MCADID0004349_3D-CAD\drw0001_2.dxf
999
Pro/ENGINEER 2019471 by Parametric Technology Corporation
  0
SECTION
  2
HEADER
  9
$ACADVER
  1
AC1024
  9
$DWGCODEPAGE
  3
ANSI_1252
  9
$EXTMAX
 10
51.6007570256
 20
72.9782135076
 30
0.0
  9
$EXTMIN
 10
0.0
 20
0.0
 30
0.0
  9
$LIMMIN
 10
0.0
 20
0.0
  9
$LIMMAX
 10
51.6007570256
 20
72.9782135076
  9
$VIEWCTR
 10
25.8003785128
 20
36.4891067538
  9
$VIEWSIZE
 40
72.9782135076
  9
$CLAYER
  8
0
  9
$LTSCALE
 40
4.757098362
  9
$CELTYPE
  6
BYLAYER
  9
$DIMSCALE
 40
1.0
  9
$DIMASZ
 40
0.6142947265
  9
$DIMEXO
 40
1.0
  9
$DIMDLI
 40
3.2867225046
  9
$DIMEXE
 40
1.0
  9
$DIMCEN
 40
0.7784342774
  9
$DIMLFAC
 40
1.0
  9
$DIMBLK
  1
_FILLED
  9
$DIMALT
 70
0
  9
$DIMALTF
 40
0.0393700787
  9
$DIMTXT
 40
0.8600126171
  9
$DIMTOL
 70
1
  9
$DIMLIM
 70
0
  9
$DIMTFAC
 40
1.0
  9
$DIMTP
 40
0.01
  9
$DIMTM
 40
0.01
  9
$DIMGAP
 40
0.625
  9
$DIMDSEP
 70
46
  9
$AUNITS
 70
0
  9
$PDMODE
 70
3
  9
$PDSIZE
 40
0.3125
  9
$HANDSEED
  5
255
  9
$TILEMODE
 70
1
  9
$MEASUREMENT
 70
1
  9
$INSUNITS
 70
4
  0
ENDSEC
  0
SECTION
  2
CLASSES
  0
CLASS
  1
ACDBDICTIONARYWDFLT
  2
AcDbDictionaryWithDefault
  3
AutoCAD 2000
 90
0
 91
1
280
0
281
0
  0
CLASS
  1
ACDBPLACEHOLDER
  2
AcDbPlaceHolder
  3
AutoCAD 2000
 90
0
 91
1
280
0
281
0
  0
CLASS
  1
LAYOUT
  2
AcDbLayout
  3
AutoCAD 2000
 90
0
 91
0
280
0
281
0
  0
ENDSEC
  0
SECTION
  2
TABLES
  0
TABLE
  2
VPORT
  5
8
100
AcDbSymbolTable
 70
2
  0
VPORT
  5
1F4
100
AcDbSymbolTableRecord
100
AcDbViewportTableRecord
  2
*ACTIVE
 70
0
 10
0.0
 20
0.0
 11
1.0
 21
1.0
 12
25.8003785128
 22
36.4891067538
 13
0.0
 23
0.0
 14
1.0
 24
1.0
 15
0.0
 25
0.0
 16
0.0
 26
0.0
 36
1.0
 17
0.0
 27
0.0
 37
0.0
 40
72.9782135076
 41
0.7070707071
 42
50.0
 43
0.0
 44
0.0
 50
0.0
 51
0.0
 71
0
 72
100
 73
1
 74
1
 75
0
 76
0
 77
0
 78
0
  0
ENDTAB
  0
TABLE
  2
LTYPE
  5
5
100
AcDbSymbolTable
 70
6
  0
LTYPE
  5
14
100
AcDbSymbolTableRecord
100
AcDbLinetypeTableRecord
  2
BYBLOCK
 70
0
  3

 72
65
 73
0
 40
0.0
  0
LTYPE
  5
15
100
AcDbSymbolTableRecord
100
AcDbLinetypeTableRecord
  2
BYLAYER
 70
0
  3

 72
65
 73
0
 40
0.0
  0
LTYPE
  5
16
100
AcDbSymbolTableRecord
100
AcDbLinetypeTableRecord
  2
CONTINUOUS
 70
64
  3
Solid line
 72
65
 73
0
 40
0.0
  0
LTYPE
  5
1F5
100
AcDbSymbolTableRecord
100
AcDbLinetypeTableRecord
  2
CENTER
 70
64
  3
____ _ ____ _ ____ _ ____ _ ____ _ ____ _ ____
 72
65
 73
4
 40
0.6
 49
0.375
 74
0
 49
-0.075
 74
0
 49
0.075
 74
0
 49
-0.075
 74
0
  0
LTYPE
  5
1F6
100
AcDbSymbolTableRecord
100
AcDbLinetypeTableRecord
  2
HIDDEN
 70
64
  3
- - - - - - - - - - - - - - - - - - - -
 72
65
 73
2
 40
0.2
 49
0.1
 74
0
 49
-0.1
 74
0
  0
LTYPE
  5
1F7
100
AcDbSymbolTableRecord
100
AcDbLinetypeTableRecord
  2
PHANTOM
 70
64
  3
_____ _ _ _____ _ _ _____ _ _ _____
 72
65
 73
6
 40
0.8
 49
0.45
 74
0
 49
-0.05
 74
0
 49
0.1
 74
0
 49
-0.05
 74
0
 49
0.1
 74
0
 49
-0.05
 74
0
  0
LTYPE
  5
1F8
100
AcDbSymbolTableRecord
100
AcDbLinetypeTableRecord
  2
DOT
 70
64
  3
. . . . . . . . . . . . . . . . . . . .
 72
65
 73
2
 40
0.2
 49
0.1
 74
0
 49
-0.1
 74
0
  0
LTYPE
  5
1F9
100
AcDbSymbolTableRecord
100
AcDbLinetypeTableRecord
  2
DASHED
 70
64
  3
- - - - - - - - - - - - - - - - - - - -
 72
65
 73
2
 40
0.2
 49
0.1
 74
0
 49
-0.1
 74
0
  0
ENDTAB
  0
TABLE
  2
LAYER
  5
2
100
AcDbSymbolTable
 70
36
  0
LAYER
  5
10
100
AcDbSymbolTableRecord
100
AcDbLayerTableRecord
  2
0
 70
0
 62
7
  6
CONTINUOUS
370
-3
390
F
  0
LAYER
  5
1FA
100
AcDbSymbolTableRecord
100
AcDbLayerTableRecord
  2
DEFAULT_1
 70
0
 62
7
  6
CENTER
370
-3
390
F
  0
LAYER
  5
1FB
100
AcDbSymbolTableRecord
100
AcDbLayerTableRecord
  2
DEFAULT_2
 70
0
 62
7
  6
HIDDEN
370
-3
390
F
  0
LAYER
  5
1FC
100
AcDbSymbolTableRecord
100
AcDbLayerTableRecord
  2
DEFAULT_3
 70
0
 62
7
  6
PHANTOM
370
-3
390
F
  0
LAYER
  5
1FD
100
AcDbSymbolTableRecord
100
AcDbLayerTableRecord
  2
00_COMPONENTS
 70
0
 62
7
  6
CONTINUOUS
370
-3
390
F
  0
LAYER
  5
1FE
100
AcDbSymbolTableRecord
100
AcDbLayerTableRecord
  2
01_1_DEFAULT_DATUMS
 70
0
 62
7
  6
CONTINUOUS
370
-3
390
F
  0
LAYER
  5
1FF
100
AcDbSymbolTableRecord
100
AcDbLayerTableRecord
  2
01_PLANES
 70
0
 62
7
  6
CONTINUOUS
370
-3
390
F
  0
LAYER
  5
200
100
AcDbSymbolTableRecord
100
AcDbLayerTableRecord
  2
02_COORD_SYS
 70
0
 62
7
  6
CONTINUOUS
370
-3
390
F
  0
LAYER
  5
201
100
AcDbSymbolTableRecord
100
AcDbLayerTableRecord
  2
03_AXES
 70
0
 62
7
  6
CONTINUOUS
370
-3
390
F
  0
LAYER
  5
202
100
AcDbSymbolTableRecord
100
AcDbLayerTableRecord
  2
04_POINTS
 70
0
 62
7
  6
CONTINUOUS
370
-3
390
F
  0
LAYER
  5
203
100
AcDbSymbolTableRecord
100
AcDbLayerTableRecord
  2
05_CURVES
 70
0
 62
7
  6
CONTINUOUS
370
-3
390
F
  0
LAYER
  5
204
100
AcDbSymbolTableRecord
100
AcDbLayerTableRecord
  2
06_SURFS
 70
0
 62
7
  6
CONTINUOUS
370
-3
390
F
  0
LAYER
  5
205
100
AcDbSymbolTableRecord
100
AcDbLayerTableRecord
  2
07_COSMETICS
 70
0
 62
7
  6
CONTINUOUS
370
-3
390
F
  0
LAYER
  5
206
100
AcDbSymbolTableRecord
100
AcDbLayerTableRecord
  2
10_NOTES
 70
0
 62
7
  6
CONTINUOUS
370
-3
390
F
  0
LAYER
  5
207
100
AcDbSymbolTableRecord
100
AcDbLayerTableRecord
  2
11_NOTES_PUB
 70
0
 62
7
  6
CONTINUOUS
370
-3
390
F
  0
LAYER
  5
208
100
AcDbSymbolTableRecord
100
AcDbLayerTableRecord
  2
13_REF_GTOL
 70
0
 62
7
  6
CONTINUOUS
370
-3
390
F
  0
LAYER
  5
209
100
AcDbSymbolTableRecord
100
AcDbLayerTableRecord
  2
16_MISC
 70
0
 62
7
  6
CONTINUOUS
370
-3
390
F
  0
LAYER
  5
20A
100
AcDbSymbolTableRecord
100
AcDbLayerTableRecord
  2
17_NO_PRINT
 70
0
 62
7
  6
CONTINUOUS
370
-3
390
F
  0
LAYER
  5
20B
100
AcDbSymbolTableRecord
100
AcDbLayerTableRecord
  2
18_DATUM_CAMS_JOINTS
 70
0
 62
7
  6
CONTINUOUS
370
-3
390
F
  0
LAYER
  5
20C
100
AcDbSymbolTableRecord
100
AcDbLayerTableRecord
  2
19_DATUM_FUNCTIONAL
 70
0
 62
7
  6
CONTINUOUS
370
-3
390
F
  0
LAYER
  5
20D
100
AcDbSymbolTableRecord
100
AcDbLayerTableRecord
  2
20_DATUM_KINEMATIC_SCHEME
 70
0
 62
7
  6
CONTINUOUS
370
-3
390
F
  0
ENDTAB
  0
TABLE
  2
STYLE
  5
3
100
AcDbSymbolTable
 70
1
  0
STYLE
  5
11
100
AcDbSymbolTableRecord
100
AcDbTextStyleTableRecord
  2
STANDARD
 70
0
 40
0.0
 41
1.0
 50
0.0
 71
0
 42
0.2
  3
ARIAL.TTF
  4

  0
STYLE
  5
20E
100
AcDbSymbolTableRecord
100
AcDbTextStyleTableRecord
  2
TEXTSTYLE_1
 70
0
 40
0.0
 41
0.8
 50
0.0
 71
0
 42
0.2
  3
gdt
  4

  0
ENDTAB
  0
TABLE
  2
VIEW
  5
6
100
AcDbSymbolTable
 70
0
  0
ENDTAB
  0
TABLE
  2
UCS
  5
7
100
AcDbSymbolTable
 70
0
  0
ENDTAB
  0
TABLE
  2
APPID
  5
9
100
AcDbSymbolTable
 70
1
  0
APPID
  5
20F
100
AcDbSymbolTableRecord
100
AcDbRegAppTableRecord
  2
ACAD
 70
0
  0
ENDTAB
  0
TABLE
  2
BLOCK_RECORD
  5
1
100
AcDbSymbolTable
 70
0
  0
BLOCK_RECORD
  5
210
100
AcDbSymbolTableRecord
100
AcDbBlockTableRecord
  2
*Model_Space
  0
BLOCK_RECORD
  5
211
100
AcDbSymbolTableRecord
100
AcDbBlockTableRecord
  2
*Paper_Space
  0
BLOCK_RECORD
  5
212
100
AcDbSymbolTableRecord
100
AcDbBlockTableRecord
  2
_FILLED
  0
ENDTAB
  0
TABLE
  2
DIMSTYLE
  5
A
100
AcDbSymbolTable
 70
1
100
AcDbDimStyleTable
 71
0
  0
DIMSTYLE
105
213
100
AcDbSymbolTableRecord
100
AcDbDimStyleTableRecord
  2
STANDARD
 70
0
  3

  4

 40
1.0
 41
0.6142947265
 42
1.0
 43
0.38
 44
1.0
 45
0.0
 46
0.0
 47
0.01
 48
0.01
140
0.8600126171
141
0.09
142
0.0
143
25.4
144
1.0
145
0.0
146
1.0
147
0.625
 71
1
 72
0
 73
0
 74
0
 75
0
 76
0
 77
1
 78
8
 79
2
170
0
171
1
172
0
173
0
174
0
175
0
176
0
177
0
178
0
270
2
179
2
271
2
272
2
273
2
274
2
275
0
280
0
281
0
282
0
283
1
284
8
285
0
286
0
287
3
288
0
340
11
278
46
341
212
342
212
343
212
344
212
  0
ENDTAB
  0
ENDSEC
  0
SECTION
  2
BLOCKS
  0
BLOCK
  5
20
100
AcDbEntity
  8
0
100
AcDbBlockBegin
  2
*Model_Space
 70
0
 10
0.0
 20
0.0
 30
0.0
  3
*Model_Space
  1

  0
ENDBLK
  5
21
100
AcDbEntity
  8
0
100
AcDbBlockEnd
  0
BLOCK
  5
1C
100
AcDbEntity
  8
0
100
AcDbBlockBegin
  2
*Paper_Space
 70
0
 10
0.0
 20
0.0
 30
0.0
  3
*Paper_Space
  1

  0
ENDBLK
  5
1D
100
AcDbEntity
  8
0
100
AcDbBlockEnd
  0
BLOCK
  5
214
100
AcDbEntity
  8
0
100
AcDbBlockBegin
  2
_FILLED
 70
64
 10
0.0
 20
0.0
  3
_FILLED
  1

  0
SOLID
  5
215
100
AcDbEntity
  8
0
  6
BYBLOCK
 62
0
100
AcDbTrace
 10
0.0
 20
0.0
 11
-1.0
 21
0.25
 12
-1.0
 22
-0.25
 13
-1.0
 23
-0.25
  0
ENDBLK
  5
216
100
AcDbEntity
  8
0
  6
BYBLOCK
 62
0
100
AcDbBlockEnd
  0
ENDSEC
  0
SECTION
  2
ENTITIES
  0
LINE
  5
217
100
AcDbEntity
  8
0
100
AcDbLine
 62
7
  6
BYLAYER
 10
6.7529769877
 20
33.6051198257
 11
6.7529394781
 21
39.1051198257
  0
LINE
  5
218
100
AcDbEntity
  8
0
100
AcDbLine
 62
7
  6
BYLAYER
 10
9.6576769877
 20
32.896369808
 11
9.6576769877
 21
39.8138698434
  0
LINE
  5
219
100
AcDbEntity
  8
0
100
AcDbLine
 62
7
  6
BYLAYER
 10
10.1989269877
 20
32.355119808
 11
10.1989269877
 21
40.3551198434
  0
LINE
  5
21A
100
AcDbEntity
  8
0
100
AcDbLine
 62
7
  6
BYLAYER
 10
13.1042589751
 20
42.1286225176
 11
12.6576769877
 21
41.3551198257
  0
LINE
  5
21B
100
AcDbEntity
  8
0
100
AcDbLine
 62
7
  6
BYLAYER
 10
9.6576769877
 20
39.8138698434
 11
10.1989269877
 21
40.3551198434
  0
LINE
  5
21C
100
AcDbEntity
  8
0
100
AcDbLine
 62
7
  6
BYLAYER
 10
10.1989269877
 20
32.355119808
 11
9.6576769877
 21
32.896369808
  0
LINE
  5
21D
100
AcDbEntity
  8
0
100
AcDbLine
 62
7
  6
BYLAYER
 10
12.6576769877
 20
31.3551198257
 11
13.1042589751
 21
30.5816171338
  0
LINE
  5
21E
100
AcDbEntity
  8
0
100
AcDbLine
 62
7
  6
BYLAYER
 10
12.6576769877
 20
31.3551198257
 11
12.6576769877
 21
41.3551198257
  0
LINE
  5
21F
100
AcDbEntity
  8
0
100
AcDbLine
 62
7
  6
BYLAYER
 10
15.6576769877
 20
41.3551198257
 11
15.6576769877
 21
31.3551198257
  0
LINE
  5
220
100
AcDbEntity
  8
0
100
AcDbLine
 62
7
  6
BYLAYER
 10
19.1164269877
 20
40.3551198434
 11
19.1164269877
 21
32.355119808
  0
LINE
  5
221
100
AcDbEntity
  8
0
100
AcDbLine
 62
7
  6
BYLAYER
 10
19.1164269877
 20
39.8138698434
 11
19.6576769877
 21
40.3551198434
  0
LINE
  5
222
100
AcDbEntity
  8
0
100
AcDbLine
 62
7
  6
BYLAYER
 10
19.6576769877
 20
32.355119808
 11
19.1164269877
 21
32.896369808
  0
LINE
  5
223
100
AcDbEntity
  8
0
100
AcDbLine
 62
7
  6
BYLAYER
 10
19.6576769877
 20
32.3551198169
 11
19.6576769877
 21
40.3551198345
  0
LINE
  5
224
100
AcDbEntity
  8
0
100
AcDbLine
 62
7
  6
BYLAYER
 10
15.2110950004
 20
30.5816171338
 11
15.6576769877
 21
31.3551198257
  0
LINE
  5
225
100
AcDbEntity
  8
0
100
AcDbLine
 62
7
  6
BYLAYER
 10
13.1042589751
 20
30.5816171338
 11
15.2110950004
 21
30.5816171338
  0
LINE
  5
226
100
AcDbEntity
  8
0
100
AcDbLine
 62
7
  6
BYLAYER
 10
15.6576769877
 20
41.3551198257
 11
15.2110950004
 21
42.1286225176
  0
LINE
  5
227
100
AcDbEntity
  8
0
100
AcDbLine
 62
7
  6
BYLAYER
 10
32.9076769877
 20
32.3551198257
 11
29.4076769595
 21
32.3551198257
  0
LINE
  5
228
100
AcDbEntity
  8
0
100
AcDbLine
 62
7
  6
BYLAYER
 10
26.1576770079
 20
32.3551198169
 11
19.6576769877
 21
32.3551198169
  0
LINE
  5
229
100
AcDbEntity
  8
0
100
AcDbLine
 62
7
  6
BYLAYER
 10
19.1164269877
 20
32.355119808
 11
15.6576769877
 21
32.355119808
  0
LINE
  5
22A
100
AcDbEntity
  8
0
100
AcDbLine
 62
7
  6
BYLAYER
 10
12.6576769877
 20
32.355119808
 11
10.1989269877
 21
32.355119808
  0
LINE
  5
22B
100
AcDbEntity
  8
0
100
AcDbLine
 62
7
  6
BYLAYER
 10
28.6576769595
 20
33.1051198257
 11
26.9076770079
 21
33.1051198257
  0
LINE
  5
22C
100
AcDbEntity
  8
0
100
AcDbLine
 62
7
  6
BYLAYER
 10
13.1042589751
 20
33.4683684798
 11
15.2110950004
 21
33.4683684798
  0
LINE
  5
22D
100
AcDbEntity
  8
0
100
AcDbLine
 62
7
  6
BYLAYER
 10
9.6576769877
 20
33.6051198257
 11
6.7529394781
 21
33.6051198257
  0
LINE
  5
22E
100
AcDbEntity
  8
0
100
AcDbLine
 62
7
  6
BYLAYER
 10
26.1576770079
 20
40.3551198345
 11
26.1576770079
 21
32.3551198169
  0
LINE
  5
22F
100
AcDbEntity
  8
0
100
AcDbLine
 62
7
  6
BYLAYER
 10
28.6576769595
 20
39.6051198257
 11
29.4076769595
 21
40.3551198257
  0
LINE
  5
230
100
AcDbEntity
  8
0
100
AcDbLine
 62
7
  6
BYLAYER
 10
33.6576769877
 20
35.2551198257
 11
46.6576769877
 21
35.2551198257
  0
LINE
  5
231
100
AcDbEntity
  8
0
100
AcDbLine
 62
7
  6
BYLAYER
 10
29.4076769595
 20
32.3551198257
 11
28.6576769595
 21
33.1051198257
  0
LINE
  5
232
100
AcDbEntity
  8
0
100
AcDbLine
 62
7
  6
BYLAYER
 10
26.9076770079
 20
33.1051198257
 11
26.9076770079
 21
39.6051198257
  0
LINE
  5
233
100
AcDbEntity
  8
0
100
AcDbLine
 62
7
  6
BYLAYER
 10
33.6576769877
 20
37.4551198257
 11
45.9026935408
 21
37.4551198257
  0
LINE
  5
234
100
AcDbEntity
  8
0
100
AcDbLine
 62
7
  6
BYLAYER
 10
28.6576769595
 20
39.6051198257
 11
28.6576769595
 21
33.1051198257
  0
LINE
  5
235
100
AcDbEntity
  8
0
100
AcDbLine
 62
7
  6
BYLAYER
 10
26.9076770079
 20
33.1051198257
 11
26.1576770079
 21
32.3551198257
  0
LINE
  5
236
100
AcDbEntity
  8
0
100
AcDbLine
 62
7
  6
BYLAYER
 10
6.7529394781
 20
39.1051198257
 11
9.6576769877
 21
39.1051198257
  0
LINE
  5
237
100
AcDbEntity
  8
0
100
AcDbLine
 62
7
  6
BYLAYER
 10
13.1042589751
 20
39.2418711717
 11
15.2110950004
 21
39.2418711717
  0
LINE
  5
238
100
AcDbEntity
  8
0
100
AcDbLine
 62
7
  6
BYLAYER
 10
26.1576770079
 20
40.3551198257
 11
26.9076770079
 21
39.6051198257
  0
LINE
  5
239
100
AcDbEntity
  8
0
100
AcDbLine
 62
7
  6
BYLAYER
 10
29.4076769595
 20
32.3551198257
 11
29.4076769595
 21
40.3551198257
  0
LINE
  5
23A
100
AcDbEntity
  8
0
100
AcDbLine
 62
7
  6
BYLAYER
 10
26.9076770079
 20
39.6051198257
 11
28.6576769595
 21
39.6051198257
  0
LINE
  5
23B
100
AcDbEntity
  8
0
100
AcDbLine
 62
7
  6
BYLAYER
 10
10.1989269877
 20
40.3551198434
 11
12.6576769877
 21
40.3551198434
  0
LINE
  5
23C
100
AcDbEntity
  8
0
100
AcDbLine
 62
7
  6
BYLAYER
 10
15.6576769877
 20
40.3551198434
 11
19.1164269877
 21
40.3551198434
  0
LINE
  5
23D
100
AcDbEntity
  8
0
100
AcDbLine
 62
7
  6
BYLAYER
 10
19.6576769877
 20
40.3551198345
 11
26.1576770079
 21
40.3551198345
  0
LINE
  5
23E
100
AcDbEntity
  8
0
100
AcDbLine
 62
7
  6
BYLAYER
 10
29.4076769595
 20
40.3551198257
 11
32.9076769877
 21
40.3551198257
  0
LINE
  5
23F
100
AcDbEntity
  8
0
100
AcDbLine
 62
7
  6
BYLAYER
 10
13.1042589751
 20
42.1286225176
 11
15.2110950004
 21
42.1286225176
  0
LINE
  5
240
100
AcDbEntity
  8
0
100
AcDbLine
 62
7
  6
BYLAYER
 10
32.9076769877
 20
40.3551198257
 11
32.9076769877
 21
32.3551198257
  0
LINE
  5
241
100
AcDbEntity
  8
0
100
AcDbLine
 62
7
  6
BYLAYER
 10
33.6576769877
 20
39.6051198257
 11
33.6576769877
 21
33.1051198257
  0
LINE
  5
242
100
AcDbEntity
  8
0
100
AcDbLine
 62
7
  6
BYLAYER
 10
33.6576769877
 20
33.1051198257
 11
32.9076769877
 21
32.3551198257
  0
LINE
  5
243
100
AcDbEntity
  8
0
100
AcDbLine
 62
7
  6
BYLAYER
 10
32.9076769877
 20
40.3551198257
 11
33.6576769877
 21
39.6051198257
  0
LINE
  5
244
100
AcDbEntity
  8
0
100
AcDbLine
 62
7
  6
BYLAYER
 10
46.6576769877
 20
35.5551198257
 11
46.6576769877
 21
35.2551245496
  0
ARC
  5
245
100
AcDbEntity
  8
0
100
AcDbCircle
 62
7
  6
BYLAYER
 10
9.6576769877
 20
36.3551198257
 40
4.0
100
AcDbArc
 50
136.5674634422
 51
223.4325365576
  0
ARC
  5
246
100
AcDbEntity
  8
0
100
AcDbCircle
 62
7
  6
BYLAYER
 10
46.6576769877
 20
36.6551198257
 40
1.1
100
AcDbArc
 50
133.3417585962
 51
270.0
  0
SPLINE
  5
247
100
AcDbEntity
  8
0
100
AcDbSpline
 62
7
  6
BYLAYER
 70
0
 71
3
 72
14
 73
10
 74
0
 42
0.0000001
 43
0.0000001
 44
0.0000000001
 40
0.0
 40
0.0
 40
0.0
 40
0.0
 40
0.1199286093
 40
0.2404930608
 40
0.3622461737
 40
0.485641672
 40
0.610991295
 40
0.7384771918
 40
1.0
 40
1.0
 40
1.0
 40
1.0
 10
15.6576769877
 20
32.0249928068
 30
0.0
 10
15.6576769877
 20
31.9638940245
 30
0.0
 10
15.6524842831
 20
31.8413105017
 30
0.0
 10
15.6292793417
 20
31.658026793
 30
0.0
 10
15.5911572405
 20
31.4754604126
 30
0.0
 10
15.5389923663
 20
31.293897889
 30
0.0
 10
15.4738575011
 20
31.1134907311
 30
0.0
 10
15.3703363949
 20
30.8726349382
 30
0.0
 10
15.277712654
 20
30.6970022946
 30
0.0
 10
15.2110950004
 20
30.5816171338
 30
0.0
  0
SPLINE
  5
248
100
AcDbEntity
  8
0
100
AcDbSpline
 62
7
  6
BYLAYER
 70
0
 71
3
 72
14
 73
10
 74
0
 42
0.0000001
 43
0.0000001
 44
0.0000000001
 40
0.0
 40
0.0
 40
0.0
 40
0.0
 40
0.2615228632
 40
0.3890087986
 40
0.5143584456
 40
0.6377539801
 40
0.7595070544
 40
0.8800714271
 40
1.0
 40
1.0
 40
1.0
 40
1.0
 10
13.1042589751
 20
39.2418711717
 30
0.0
 10
13.0376413078
 20
39.3572563562
 30
0.0
 10
12.9450176779
 20
39.5328891108
 30
0.0
 10
12.8414965556
 20
39.7737449603
 30
0.0
 10
12.7763616495
 20
39.9541521476
 30
0.0
 10
12.7241964429
 20
40.1357145954
 30
0.0
 10
12.6860746829
 20
40.3182810055
 30
0.0
 10
12.6628695836
 20
40.5015646088
 30
0.0
 10
12.6576769877
 20
40.6241480812
 30
0.0
 10
12.6576769877
 20
40.6852468446
 30
0.0
  0
SPLINE
  5
249
100
AcDbEntity
  8
0
100
AcDbSpline
 62
7
  6
BYLAYER
 70
0
 71
3
 72
13
 73
9
 74
0
 42
0.0000001
 43
0.0000001
 44
0.0000000001
 40
0.0
 40
0.0
 40
0.0
 40
0.0
 40
0.1250057515
 40
0.2500202242
 40
0.3750288535
 40
0.5000355765
 40
0.7500130495
 40
1.0
 40
1.0
 40
1.0
 40
1.0
 10
15.6576769877
 20
36.3551198257
 30
0.0
 10
15.6576769877
 20
36.2330035482
 30
0.0
 10
15.6525163282
 20
35.9887311361
 30
0.0
 10
15.6294249069
 20
35.6229999681
 30
0.0
 10
15.5914576799
 20
35.2585105891
 30
0.0
 10
15.5221248244
 20
34.7749181761
 30
0.0
 10
15.4029833856
 20
34.1756302716
 30
0.0
 10
15.2788262712
 20
33.7029964845
 30
0.0
 10
15.2110950004
 20
33.4683684798
 30
0.0
  0
SPLINE
  5
24A
100
AcDbEntity
  8
0
100
AcDbSpline
 62
7
  6
BYLAYER
 70
0
 71
3
 72
14
 73
10
 74
0
 42
0.0000001
 43
0.0000001
 44
0.0000000001
 40
0.0
 40
0.0
 40
0.0
 40
0.0
 40
0.2615228632
 40
0.3890087986
 40
0.5143584456
 40
0.6377539801
 40
0.7595070544
 40
0.8800714271
 40
1.0
 40
1.0
 40
1.0
 40
1.0
 10
15.2110950004
 20
33.4683684798
 30
0.0
 10
15.2777126677
 20
33.3529832952
 30
0.0
 10
15.3703362976
 20
33.1773505406
 30
0.0
 10
15.4738574199
 20
32.9364946911
 30
0.0
 10
15.5389923259
 20
32.7560875038
 30
0.0
 10
15.5911575326
 20
32.574525056
 30
0.0
 10
15.6292792926
 20
32.3919586459
 30
0.0
 10
15.6524843919
 20
32.2086750426
 30
0.0
 10
15.6576769877
 20
32.0860915702
 30
0.0
 10
15.6576769877
 20
32.0249928068
 30
0.0
  0
SPLINE
  5
24B
100
AcDbEntity
  8
0
100
AcDbSpline
 62
7
  6
BYLAYER
 70
0
 71
3
 72
14
 73
10
 74
0
 42
0.0000001
 43
0.0000001
 44
0.0000000001
 40
0.0
 40
0.0
 40
0.0
 40
0.0
 40
0.1199286093
 40
0.2404930608
 40
0.3622461737
 40
0.485641672
 40
0.610991295
 40
0.7384771918
 40
1.0
 40
1.0
 40
1.0
 40
1.0
 10
15.6576769877
 20
40.6852468446
 30
0.0
 10
15.6576769877
 20
40.6241480623
 30
0.0
 10
15.6524842831
 20
40.5015645395
 30
0.0
 10
15.6292793417
 20
40.3182808308
 30
0.0
 10
15.5911572405
 20
40.1357144505
 30
0.0
 10
15.5389923663
 20
39.9541519268
 30
0.0
 10
15.4738575011
 20
39.7737447689
 30
0.0
 10
15.3703363949
 20
39.532888976
 30
0.0
 10
15.277712654
 20
39.3572563325
 30
0.0
 10
15.2110950004
 20
39.2418711717
 30
0.0
  0
SPLINE
  5
24C
100
AcDbEntity
  8
0
100
AcDbSpline
 62
7
  6
BYLAYER
 70
0
 71
3
 72
13
 73
9
 74
0
 42
0.0000001
 43
0.0000001
 44
0.0000000001
 40
0.0
 40
0.0
 40
0.0
 40
0.0
 40
0.2499870333
 40
0.499964558
 40
0.6249712931
 40
0.7499798971
 40
0.8749942858
 40
1.0
 40
1.0
 40
1.0
 40
1.0
 10
15.2110950004
 20
39.2418711717
 30
0.0
 10
15.2788262936
 20
39.0072430894
 30
0.0
 10
15.4029832636
 20
38.5346091235
 30
0.0
 10
15.5221246792
 20
37.9353210886
 30
0.0
 10
15.591457978
 20
37.4517286958
 30
0.0
 10
15.6294248537
 20
37.0872393752
 30
0.0
 10
15.6525164383
 20
36.7215083644
 30
0.0
 10
15.6576769877
 20
36.4772360666
 30
0.0
 10
15.6576769877
 20
36.3551198257
 30
0.0
  0
SPLINE
  5
24D
100
AcDbEntity
  8
0
100
AcDbSpline
 62
7
  6
BYLAYER
 70
0
 71
3
 72
14
 73
10
 74
0
 42
0.0000001
 43
0.0000001
 44
0.0000000001
 40
0.0
 40
0.0
 40
0.0
 40
0.0
 40
0.2615228632
 40
0.3890087986
 40
0.5143584456
 40
0.6377539801
 40
0.7595070544
 40
0.8800714271
 40
1.0
 40
1.0
 40
1.0
 40
1.0
 10
13.1042589751
 20
30.5816171338
 30
0.0
 10
13.0376413078
 20
30.6970023183
 30
0.0
 10
12.9450176779
 20
30.8726350729
 30
0.0
 10
12.8414965556
 20
31.1134909225
 30
0.0
 10
12.7763616495
 20
31.2938981098
 30
0.0
 10
12.7241964429
 20
31.4754605575
 30
0.0
 10
12.6860746829
 20
31.6580269677
 30
0.0
 10
12.6628695836
 20
31.841310571
 30
0.0
 10
12.6576769877
 20
31.9638940433
 30
0.0
 10
12.6576769877
 20
32.0249928068
 30
0.0
  0
SPLINE
  5
24E
100
AcDbEntity
  8
0
100
AcDbSpline
 62
7
  6
BYLAYER
 70
0
 71
3
 72
14
 73
10
 74
0
 42
0.0000001
 43
0.0000001
 44
0.0000000001
 40
0.0
 40
0.0
 40
0.0
 40
0.0
 40
0.2615228632
 40
0.3890087986
 40
0.5143584456
 40
0.6377539801
 40
0.7595070544
 40
0.8800714271
 40
1.0
 40
1.0
 40
1.0
 40
1.0
 10
15.2110950004
 20
42.1286225176
 30
0.0
 10
15.2777126677
 20
42.0132373331
 30
0.0
 10
15.3703362976
 20
41.8376045785
 30
0.0
 10
15.4738574199
 20
41.596748729
 30
0.0
 10
15.5389923259
 20
41.4163415416
 30
0.0
 10
15.5911575326
 20
41.2347790939
 30
0.0
 10
15.6292792926
 20
41.0522126838
 30
0.0
 10
15.6524843919
 20
40.8689290805
 30
0.0
 10
15.6576769877
 20
40.7463456081
 30
0.0
 10
15.6576769877
 20
40.6852468446
 30
0.0
  0
SPLINE
  5
24F
100
AcDbEntity
  8
0
100
AcDbSpline
 62
7
  6
BYLAYER
 70
0
 71
3
 72
13
 73
9
 74
0
 42
0.0000001
 43
0.0000001
 44
0.0000000001
 40
0.0
 40
0.0
 40
0.0
 40
0.0
 40
0.1250057515
 40
0.2500202242
 40
0.3750288535
 40
0.5000355765
 40
0.7500130495
 40
1.0
 40
1.0
 40
1.0
 40
1.0
 10
12.6576769877
 20
36.3551198257
 30
0.0
 10
12.6576769877
 20
36.4772361032
 30
0.0
 10
12.6628376473
 20
36.7215085153
 30
0.0
 10
12.6859290686
 20
37.0872396833
 30
0.0
 10
12.7238962956
 20
37.4517290623
 30
0.0
 10
12.7932291511
 20
37.9353214753
 30
0.0
 10
12.9123705899
 20
38.5346093798
 30
0.0
 10
13.0365277043
 20
39.0072431669
 30
0.0
 10
13.1042589751
 20
39.2418711717
 30
0.0
  0
SPLINE
  5
250
100
AcDbEntity
  8
0
100
AcDbSpline
 62
7
  6
BYLAYER
 70
0
 71
3
 72
13
 73
9
 74
0
 42
0.0000001
 43
0.0000001
 44
0.0000000001
 40
0.0
 40
0.0
 40
0.0
 40
0.0
 40
0.2499870333
 40
0.499964558
 40
0.6249712931
 40
0.7499798971
 40
0.8749942858
 40
1.0
 40
1.0
 40
1.0
 40
1.0
 10
13.1042589751
 20
33.4683684798
 30
0.0
 10
13.0365276819
 20
33.702996562
 30
0.0
 10
12.9123707119
 20
34.1756305279
 30
0.0
 10
12.7932292963
 20
34.7749185629
 30
0.0
 10
12.7238959975
 20
35.2585109556
 30
0.0
 10
12.6859291218
 20
35.6230002762
 30
0.0
 10
12.6628375372
 20
35.988731287
 30
0.0
 10
12.6576769877
 20
36.2330035848
 30
0.0
 10
12.6576769877
 20
36.3551198257
 30
0.0
  0
SPLINE
  5
251
100
AcDbEntity
  8
0
100
AcDbSpline
 62
7
  6
BYLAYER
 70
0
 71
3
 72
14
 73
10
 74
0
 42
0.0000001
 43
0.0000001
 44
0.0000000001
 40
0.0
 40
0.0
 40
0.0
 40
0.0
 40
0.1199286093
 40
0.2404930608
 40
0.3622461737
 40
0.485641672
 40
0.610991295
 40
0.7384771918
 40
1.0
 40
1.0
 40
1.0
 40
1.0
 10
12.6576769877
 20
40.6852468446
 30
0.0
 10
12.6576769877
 20
40.7463456269
 30
0.0
 10
12.6628696924
 20
40.8689291498
 30
0.0
 10
12.6860746338
 20
41.0522128584
 30
0.0
 10
12.724196735
 20
41.2347792388
 30
0.0
 10
12.7763616092
 20
41.4163417625
 30
0.0
 10
12.8414964744
 20
41.5967489203
 30
0.0
 10
12.9450175805
 20
41.8376047133
 30
0.0
 10
13.0376413215
 20
42.0132373568
 30
0.0
 10
13.1042589751
 20
42.1286225176
 30
0.0
  0
SPLINE
  5
252
100
AcDbEntity
  8
0
100
AcDbSpline
 62
7
  6
BYLAYER
 70
0
 71
3
 72
14
 73
10
 74
0
 42
0.0000001
 43
0.0000001
 44
0.0000000001
 40
0.0
 40
0.0
 40
0.0
 40
0.0
 40
0.1199286093
 40
0.2404930608
 40
0.3622461737
 40
0.485641672
 40
0.610991295
 40
0.7384771918
 40
1.0
 40
1.0
 40
1.0
 40
1.0
 10
12.6576769877
 20
32.0249928068
 30
0.0
 10
12.6576769877
 20
32.0860915891
 30
0.0
 10
12.6628696924
 20
32.2086751119
 30
0.0
 10
12.6860746338
 20
32.3919588206
 30
0.0
 10
12.724196735
 20
32.5745252009
 30
0.0
 10
12.7763616092
 20
32.7560877246
 30
0.0
 10
12.8414964744
 20
32.9364948825
 30
0.0
 10
12.9450175805
 20
33.1773506754
 30
0.0
 10
13.0376413215
 20
33.3529833189
 30
0.0
 10
13.1042589751
 20
33.4683684798
 30
0.0
  0
ENDSEC
  0
SECTION
  2
OBJECTS
  0
DICTIONARY
  5
C
100
AcDbDictionary
280
0
281
1
  3
ACAD_GROUP
350
D
  3
ACAD_MLINESTYLE
350
17
  3
ACAD_LAYOUT
350
1A
  3
ACAD_PLOTSETTINGS
350
19
  3
ACAD_PLOTSTYLENAME
350
E
  0
DICTIONARY
  5
D
102
{ACAD_REACTORS
330
C
102
}
100
AcDbDictionary
280
0
281
1
  0
ACDBDICTIONARYWDFLT
  5
E
102
{ACAD_REACTORS
330
C
102
}
100
AcDbDictionary
281
1
  3
Normal
350
F
100
AcDbDictionaryWithDefault
340
F
  0
DICTIONARY
  5
17
102
{ACAD_REACTORS
330
C
102
}
100
AcDbDictionary
280
0
281
1
  3
Standard
350
18
  0
DICTIONARY
  5
19
102
{ACAD_REACTORS
330
C
102
}
100
AcDbDictionary
281
1
  0
DICTIONARY
  5
1A
102
{ACAD_REACTORS
330
C
102
}
100
AcDbDictionary
281
1
  3
Model
350
253
  3
Layout1
350
254
  0
ACDBPLACEHOLDER
  5
F
102
{ACAD_REACTORS
330
E
102
}
  0
MLINESTYLE
  5
18
102
{ACAD_REACTORS
330
17
102
}
100
AcDbMlineStyle
  2
STANDARD
 70
0
  3

 62
256
 51
90.0
 52
90.0
 71
2
 49
0.5
 62
256
  6
BYLAYER
 49
-0.5
 62
256
  6
BYLAYER
  0
LAYOUT
  5
253
102
{ACAD_REACTORS
330
1A
102
}
100
AcDbPlotSettings
  1

  2
none_device
  4

  6

 40
0.0
 41
0.0
 42
0.0
 43
0.0
 44
210.0
 45
297.0
 46
0.0
 47
0.0
 48
0.0
 49
0.0
140
0.0
141
0.0
142
1.0
143
1.0
 70
1024
 72
1
 73
0
 74
0
  7

 75
0
147
1.0
148
0.0
149
0.0
100
AcDbLayout
  1
Model
 70
0
 71
0
 10
0.0
 20
0.0
 11
210.0
 21
297.0
 12
0.0
 22
0.0
 32
0.0
 14
0.0
 24
0.0
 34
0.0
 15
0.0
 25
0.0
 35
0.0
146
0.0
 13
0.0
 23
0.0
 33
0.0
 16
1.0
 26
0.0
 36
0.0
 17
0.0
 27
1.0
 37
0.0
 76
0
330
210
345
0
346
0
  0
LAYOUT
  5
254
102
{ACAD_REACTORS
330
1A
102
}
100
AcDbPlotSettings
  1

  2
none_device
  4

  6

 40
0.0
 41
0.0
 42
0.0
 43
0.0
 44
210.0
 45
297.0
 46
0.0
 47
0.0
 48
0.0
 49
0.0
140
0.0
141
0.0
142
1.0
143
1.0
 70
0
 72
1
 73
0
 74
0
  7

 75
0
147
1.0
148
0.0
149
0.0
100
AcDbLayout
  1
Layout1
 70
0
 71
1
 10
0.0
 20
0.0
 11
210.0
 21
297.0
 12
0.0
 22
0.0
 32
0.0
 14
0.0
 24
0.0
 34
0.0
 15
0.0
 25
0.0
 35
0.0
146
0.0
 13
0.0
 23
0.0
 33
0.0
 16
1.0
 26
0.0
 36
0.0
 17
0.0
 27
1.0
 37
0.0
 76
0
330
211
345
0
346
0
  0
ENDSEC
  0
EOF
