999
DXF file: C:\Users\sesa63760\Dev\_Creo\CAD\MCADPD0005315_3D-CAD\drw0001_6.dxf
999
Pro/ENGINEER 2019471 by Parametric Technology Corporation
  0
SECTION
  2
HEADER
  9
$ACADVER
  1
AC1024
  9
$DWGCODEPAGE
  3
ANSI_1252
  9
$EXTMAX
 10
243.9645756634
 20
345.0356141525
 30
0.0
  9
$EXTMIN
 10
0.0
 20
0.0
 30
0.0
  9
$LIMMIN
 10
0.0
 20
0.0
  9
$LIMMAX
 10
243.9645756634
 20
345.0356141525
  9
$VIEWCTR
 10
121.9822878317
 20
172.5178070762
  9
$VIEWSIZE
 40
345.0356141525
  9
$CLAYER
  8
0
  9
$LTSCALE
 40
22.491210404
  9
$CELTYPE
  6
BYLAYER
  9
$DIMSCALE
 40
1.0
  9
$DIMASZ
 40
2.9043401865
  9
$DIMEXO
 40
1.0
  9
$DIMDLI
 40
15.5393817337
  9
$DIMEXE
 40
1.0
  9
$DIMCEN
 40
3.6803798843
  9
$DIMLFAC
 40
1.0
  9
$DIMBLK
  1
_FILLED
  9
$DIMALT
 70
0
  9
$DIMALTF
 40
0.0393700787
  9
$DIMTXT
 40
4.0660762611
  9
$DIMTOL
 70
1
  9
$DIMLIM
 70
0
  9
$DIMTFAC
 40
1.0
  9
$DIMTP
 40
0.01
  9
$DIMTM
 40
0.01
  9
$DIMGAP
 40
0.625
  9
$DIMDSEP
 70
46
  9
$AUNITS
 70
0
  9
$PDMODE
 70
3
  9
$PDSIZE
 40
0.3125
  9
$HANDSEED
  5
27F
  9
$TILEMODE
 70
1
  9
$MEASUREMENT
 70
1
  9
$INSUNITS
 70
4
  0
ENDSEC
  0
SECTION
  2
CLASSES
  0
CLASS
  1
ACDBDICTIONARYWDFLT
  2
AcDbDictionaryWithDefault
  3
AutoCAD 2000
 90
0
 91
1
280
0
281
0
  0
CLASS
  1
ACDBPLACEHOLDER
  2
AcDbPlaceHolder
  3
AutoCAD 2000
 90
0
 91
1
280
0
281
0
  0
CLASS
  1
LAYOUT
  2
AcDbLayout
  3
AutoCAD 2000
 90
0
 91
0
280
0
281
0
  0
ENDSEC
  0
SECTION
  2
TABLES
  0
TABLE
  2
VPORT
  5
8
100
AcDbSymbolTable
 70
2
  0
VPORT
  5
1F4
100
AcDbSymbolTableRecord
100
AcDbViewportTableRecord
  2
*ACTIVE
 70
0
 10
0.0
 20
0.0
 11
1.0
 21
1.0
 12
121.9822878317
 22
172.5178070762
 13
0.0
 23
0.0
 14
1.0
 24
1.0
 15
0.0
 25
0.0
 16
0.0
 26
0.0
 36
1.0
 17
0.0
 27
0.0
 37
0.0
 40
345.0356141525
 41
0.7070707071
 42
50.0
 43
0.0
 44
0.0
 50
0.0
 51
0.0
 71
0
 72
100
 73
1
 74
1
 75
0
 76
0
 77
0
 78
0
  0
ENDTAB
  0
TABLE
  2
LTYPE
  5
5
100
AcDbSymbolTable
 70
6
  0
LTYPE
  5
14
100
AcDbSymbolTableRecord
100
AcDbLinetypeTableRecord
  2
BYBLOCK
 70
0
  3

 72
65
 73
0
 40
0.0
  0
LTYPE
  5
15
100
AcDbSymbolTableRecord
100
AcDbLinetypeTableRecord
  2
BYLAYER
 70
0
  3

 72
65
 73
0
 40
0.0
  0
LTYPE
  5
16
100
AcDbSymbolTableRecord
100
AcDbLinetypeTableRecord
  2
CONTINUOUS
 70
64
  3
Solid line
 72
65
 73
0
 40
0.0
  0
LTYPE
  5
1F5
100
AcDbSymbolTableRecord
100
AcDbLinetypeTableRecord
  2
CENTER
 70
64
  3
____ _ ____ _ ____ _ ____ _ ____ _ ____ _ ____
 72
65
 73
4
 40
0.6
 49
0.375
 74
0
 49
-0.075
 74
0
 49
0.075
 74
0
 49
-0.075
 74
0
  0
LTYPE
  5
1F6
100
AcDbSymbolTableRecord
100
AcDbLinetypeTableRecord
  2
HIDDEN
 70
64
  3
- - - - - - - - - - - - - - - - - - - -
 72
65
 73
2
 40
0.2
 49
0.1
 74
0
 49
-0.1
 74
0
  0
LTYPE
  5
1F7
100
AcDbSymbolTableRecord
100
AcDbLinetypeTableRecord
  2
PHANTOM
 70
64
  3
_____ _ _ _____ _ _ _____ _ _ _____
 72
65
 73
6
 40
0.8
 49
0.45
 74
0
 49
-0.05
 74
0
 49
0.1
 74
0
 49
-0.05
 74
0
 49
0.1
 74
0
 49
-0.05
 74
0
  0
LTYPE
  5
1F8
100
AcDbSymbolTableRecord
100
AcDbLinetypeTableRecord
  2
DOT
 70
64
  3
. . . . . . . . . . . . . . . . . . . .
 72
65
 73
2
 40
0.2
 49
0.1
 74
0
 49
-0.1
 74
0
  0
LTYPE
  5
1F9
100
AcDbSymbolTableRecord
100
AcDbLinetypeTableRecord
  2
DASHED
 70
64
  3
- - - - - - - - - - - - - - - - - - - -
 72
65
 73
2
 40
0.2
 49
0.1
 74
0
 49
-0.1
 74
0
  0
ENDTAB
  0
TABLE
  2
LAYER
  5
2
100
AcDbSymbolTable
 70
36
  0
LAYER
  5
10
100
AcDbSymbolTableRecord
100
AcDbLayerTableRecord
  2
0
 70
0
 62
7
  6
CONTINUOUS
370
-3
390
F
  0
LAYER
  5
1FA
100
AcDbSymbolTableRecord
100
AcDbLayerTableRecord
  2
DEFAULT_1
 70
0
 62
7
  6
CENTER
370
-3
390
F
  0
LAYER
  5
1FB
100
AcDbSymbolTableRecord
100
AcDbLayerTableRecord
  2
DEFAULT_2
 70
0
 62
7
  6
HIDDEN
370
-3
390
F
  0
LAYER
  5
1FC
100
AcDbSymbolTableRecord
100
AcDbLayerTableRecord
  2
DEFAULT_3
 70
0
 62
7
  6
PHANTOM
370
-3
390
F
  0
LAYER
  5
1FD
100
AcDbSymbolTableRecord
100
AcDbLayerTableRecord
  2
00_COMPONENTS
 70
0
 62
7
  6
CONTINUOUS
370
-3
390
F
  0
LAYER
  5
1FE
100
AcDbSymbolTableRecord
100
AcDbLayerTableRecord
  2
01_1_DEFAULT_DATUMS
 70
0
 62
7
  6
CONTINUOUS
370
-3
390
F
  0
LAYER
  5
1FF
100
AcDbSymbolTableRecord
100
AcDbLayerTableRecord
  2
01_PLANES
 70
0
 62
7
  6
CONTINUOUS
370
-3
390
F
  0
LAYER
  5
200
100
AcDbSymbolTableRecord
100
AcDbLayerTableRecord
  2
02_COORD_SYS
 70
0
 62
7
  6
CONTINUOUS
370
-3
390
F
  0
LAYER
  5
201
100
AcDbSymbolTableRecord
100
AcDbLayerTableRecord
  2
03_AXES
 70
0
 62
7
  6
CONTINUOUS
370
-3
390
F
  0
LAYER
  5
202
100
AcDbSymbolTableRecord
100
AcDbLayerTableRecord
  2
04_POINTS
 70
0
 62
7
  6
CONTINUOUS
370
-3
390
F
  0
LAYER
  5
203
100
AcDbSymbolTableRecord
100
AcDbLayerTableRecord
  2
05_CURVES
 70
0
 62
7
  6
CONTINUOUS
370
-3
390
F
  0
LAYER
  5
204
100
AcDbSymbolTableRecord
100
AcDbLayerTableRecord
  2
06_SURFS
 70
0
 62
7
  6
CONTINUOUS
370
-3
390
F
  0
LAYER
  5
205
100
AcDbSymbolTableRecord
100
AcDbLayerTableRecord
  2
07_COSMETICS
 70
0
 62
7
  6
CONTINUOUS
370
-3
390
F
  0
LAYER
  5
206
100
AcDbSymbolTableRecord
100
AcDbLayerTableRecord
  2
10_NOTES
 70
0
 62
7
  6
CONTINUOUS
370
-3
390
F
  0
LAYER
  5
207
100
AcDbSymbolTableRecord
100
AcDbLayerTableRecord
  2
11_NOTES_PUB
 70
0
 62
7
  6
CONTINUOUS
370
-3
390
F
  0
LAYER
  5
208
100
AcDbSymbolTableRecord
100
AcDbLayerTableRecord
  2
13_REF_GTOL
 70
0
 62
7
  6
CONTINUOUS
370
-3
390
F
  0
LAYER
  5
209
100
AcDbSymbolTableRecord
100
AcDbLayerTableRecord
  2
16_MISC
 70
0
 62
7
  6
CONTINUOUS
370
-3
390
F
  0
LAYER
  5
20A
100
AcDbSymbolTableRecord
100
AcDbLayerTableRecord
  2
17_NO_PRINT
 70
0
 62
7
  6
CONTINUOUS
370
-3
390
F
  0
LAYER
  5
20B
100
AcDbSymbolTableRecord
100
AcDbLayerTableRecord
  2
18_DATUM_CAMS_JOINTS
 70
0
 62
7
  6
CONTINUOUS
370
-3
390
F
  0
LAYER
  5
20C
100
AcDbSymbolTableRecord
100
AcDbLayerTableRecord
  2
19_DATUM_FUNCTIONAL
 70
0
 62
7
  6
CONTINUOUS
370
-3
390
F
  0
LAYER
  5
20D
100
AcDbSymbolTableRecord
100
AcDbLayerTableRecord
  2
20_DATUM_KINEMATIC_SCHEME
 70
0
 62
7
  6
CONTINUOUS
370
-3
390
F
  0
ENDTAB
  0
TABLE
  2
STYLE
  5
3
100
AcDbSymbolTable
 70
1
  0
STYLE
  5
11
100
AcDbSymbolTableRecord
100
AcDbTextStyleTableRecord
  2
STANDARD
 70
0
 40
0.0
 41
1.0
 50
0.0
 71
0
 42
0.2
  3
ARIAL.TTF
  4

  0
STYLE
  5
20E
100
AcDbSymbolTableRecord
100
AcDbTextStyleTableRecord
  2
TEXTSTYLE_1
 70
0
 40
0.0
 41
0.8
 50
0.0
 71
0
 42
0.2
  3
gdt
  4

  0
ENDTAB
  0
TABLE
  2
VIEW
  5
6
100
AcDbSymbolTable
 70
0
  0
ENDTAB
  0
TABLE
  2
UCS
  5
7
100
AcDbSymbolTable
 70
0
  0
ENDTAB
  0
TABLE
  2
APPID
  5
9
100
AcDbSymbolTable
 70
1
  0
APPID
  5
20F
100
AcDbSymbolTableRecord
100
AcDbRegAppTableRecord
  2
ACAD
 70
0
  0
ENDTAB
  0
TABLE
  2
BLOCK_RECORD
  5
1
100
AcDbSymbolTable
 70
0
  0
BLOCK_RECORD
  5
210
100
AcDbSymbolTableRecord
100
AcDbBlockTableRecord
  2
*Model_Space
  0
BLOCK_RECORD
  5
211
100
AcDbSymbolTableRecord
100
AcDbBlockTableRecord
  2
*Paper_Space
  0
BLOCK_RECORD
  5
212
100
AcDbSymbolTableRecord
100
AcDbBlockTableRecord
  2
_FILLED
  0
ENDTAB
  0
TABLE
  2
DIMSTYLE
  5
A
100
AcDbSymbolTable
 70
1
100
AcDbDimStyleTable
 71
0
  0
DIMSTYLE
105
213
100
AcDbSymbolTableRecord
100
AcDbDimStyleTableRecord
  2
STANDARD
 70
0
  3

  4

 40
1.0
 41
2.9043401865
 42
1.0
 43
0.38
 44
1.0
 45
0.0
 46
0.0
 47
0.01
 48
0.01
140
4.0660762611
141
0.09
142
0.0
143
25.4
144
1.0
145
0.0
146
1.0
147
0.625
 71
1
 72
0
 73
0
 74
0
 75
0
 76
0
 77
1
 78
8
 79
2
170
0
171
1
172
0
173
0
174
0
175
0
176
0
177
0
178
0
270
2
179
2
271
2
272
2
273
2
274
2
275
0
280
0
281
0
282
0
283
1
284
8
285
0
286
0
287
3
288
0
340
11
278
46
341
212
342
212
343
212
344
212
  0
ENDTAB
  0
ENDSEC
  0
SECTION
  2
BLOCKS
  0
BLOCK
  5
20
100
AcDbEntity
  8
0
100
AcDbBlockBegin
  2
*Model_Space
 70
0
 10
0.0
 20
0.0
 30
0.0
  3
*Model_Space
  1

  0
ENDBLK
  5
21
100
AcDbEntity
  8
0
100
AcDbBlockEnd
  0
BLOCK
  5
1C
100
AcDbEntity
  8
0
100
AcDbBlockBegin
  2
*Paper_Space
 70
0
 10
0.0
 20
0.0
 30
0.0
  3
*Paper_Space
  1

  0
ENDBLK
  5
1D
100
AcDbEntity
  8
0
100
AcDbBlockEnd
  0
BLOCK
  5
214
100
AcDbEntity
  8
0
100
AcDbBlockBegin
  2
_FILLED
 70
64
 10
0.0
 20
0.0
  3
_FILLED
  1

  0
SOLID
  5
215
100
AcDbEntity
  8
0
  6
BYBLOCK
 62
0
100
AcDbTrace
 10
0.0
 20
0.0
 11
-1.0
 21
0.25
 12
-1.0
 22
-0.25
 13
-1.0
 23
-0.25
  0
ENDBLK
  5
216
100
AcDbEntity
  8
0
  6
BYBLOCK
 62
0
100
AcDbBlockEnd
  0
ENDSEC
  0
SECTION
  2
ENTITIES
  0
LINE
  5
217
100
AcDbEntity
  8
0
100
AcDbLine
 62
7
  6
BYLAYER
 10
27.5938928524
 20
170.9188070762
 11
27.5938928524
 21
187.8340684775
  0
LINE
  5
218
100
AcDbEntity
  8
0
100
AcDbLine
 62
7
  6
BYLAYER
 10
30.5938928524
 20
106.8188070762
 11
30.5938928524
 21
170.9188070762
  0
LINE
  5
219
100
AcDbEntity
  8
0
100
AcDbLine
 62
7
  6
BYLAYER
 10
33.4088928524
 20
191.4177890782
 11
33.4088928524
 21
191.5297073187
  0
LINE
  5
21A
100
AcDbEntity
  8
0
100
AcDbLine
 62
7
  6
BYLAYER
 10
35.4095445665
 20
192.2933060835
 11
35.4095445665
 21
191.4944747822
  0
LINE
  5
21B
100
AcDbEntity
  8
0
100
AcDbLine
 62
7
  6
BYLAYER
 10
36.1166513477
 20
191.484800703
 11
36.1166513477
 21
192.2602443367
  0
LINE
  5
21C
100
AcDbEntity
  8
0
100
AcDbLine
 62
7
  6
BYLAYER
 10
40.6938928524
 20
170.9188070762
 11
40.6938928524
 21
106.8188070762
  0
LINE
  5
21D
100
AcDbEntity
  8
0
100
AcDbLine
 62
7
  6
BYLAYER
 10
40.1138928524
 20
170.9188070762
 11
40.1177503758
 21
187.834167373
  0
LINE
  5
21E
100
AcDbEntity
  8
0
100
AcDbLine
 62
7
  6
BYLAYER
 10
49.4088928524
 20
193.2268732822
 11
49.4088928524
 21
193.3188070762
  0
LINE
  5
21F
100
AcDbEntity
  8
0
100
AcDbLine
 62
7
  6
BYLAYER
 10
30.5938928524
 20
106.8188070762
 11
217.5938928524
 21
106.8188070762
  0
LINE
  5
220
100
AcDbEntity
  8
0
100
AcDbLine
 62
7
  6
BYLAYER
 10
94.0938928524
 20
193.3188070762
 11
94.0938928524
 21
197.2168070762
  0
LINE
  5
221
100
AcDbEntity
  8
0
100
AcDbLine
 62
7
  6
BYLAYER
 10
97.5938928524
 20
193.3188070762
 11
97.5938928524
 21
198.2168070762
  0
LINE
  5
222
100
AcDbEntity
  8
0
100
AcDbLine
 62
7
  6
BYLAYER
 10
101.5938928524
 20
198.2168070762
 11
101.5938928524
 21
206.4168070762
  0
LINE
  5
223
100
AcDbEntity
  8
0
100
AcDbLine
 62
7
  6
BYLAYER
 10
118.6456692277
 20
235.7988211558
 11
118.0938928525
 21
219.9980131181
  0
LINE
  5
224
100
AcDbEntity
  8
0
100
AcDbLine
 62
7
  6
BYLAYER
 10
27.5938928524
 20
170.9188070762
 11
220.5938928524
 21
170.9188070762
  0
LINE
  5
225
100
AcDbEntity
  8
0
100
AcDbLine
 62
7
  6
BYLAYER
 10
130.0938928524
 20
219.998013116
 11
129.5421164772
 21
235.7988211518
  0
LINE
  5
226
100
AcDbEntity
  8
0
100
AcDbLine
 62
7
  6
BYLAYER
 10
40.1177503758
 20
187.834167373
 11
208.0700312173
 21
187.8341833226
  0
LINE
  5
227
100
AcDbEntity
  8
0
100
AcDbLine
 62
7
  6
BYLAYER
 10
146.5938928524
 20
198.2168070762
 11
146.5938928524
 21
206.4168070762
  0
LINE
  5
228
100
AcDbEntity
  8
0
100
AcDbLine
 62
7
  6
BYLAYER
 10
40.3593255237
 20
193.3188070762
 11
49.4085944804
 21
193.3188070762
  0
LINE
  5
229
100
AcDbEntity
  8
0
100
AcDbLine
 62
7
  6
BYLAYER
 10
49.6040634966
 20
193.3188070762
 11
198.5837222082
 21
193.3188070762
  0
LINE
  5
22A
100
AcDbEntity
  8
0
100
AcDbLine
 62
7
  6
BYLAYER
 10
198.7800555428
 20
193.3188070762
 11
207.8284601811
 21
193.3188070762
  0
LINE
  5
22B
100
AcDbEntity
  8
0
100
AcDbLine
 62
7
  6
BYLAYER
 10
150.5938928524
 20
193.3188070762
 11
150.5938928524
 21
198.2168070762
  0
LINE
  5
22C
100
AcDbEntity
  8
0
100
AcDbLine
 62
7
  6
BYLAYER
 10
154.0938928524
 20
193.3188070762
 11
154.0938928524
 21
197.2168070762
  0
LINE
  5
22D
100
AcDbEntity
  8
0
100
AcDbLine
 62
7
  6
BYLAYER
 10
154.0938928524
 20
197.2168070762
 11
94.0938928524
 21
197.2168070762
  0
LINE
  5
22E
100
AcDbEntity
  8
0
100
AcDbLine
 62
7
  6
BYLAYER
 10
95.0938928524
 20
198.2168070762
 11
153.0938928524
 21
198.2168070762
  0
LINE
  5
22F
100
AcDbEntity
  8
0
100
AcDbLine
 62
7
  6
BYLAYER
 10
146.5938928524
 20
206.4168070762
 11
143.8419671568
 21
206.4168070762
  0
LINE
  5
230
100
AcDbEntity
  8
0
100
AcDbLine
 62
7
  6
BYLAYER
 10
104.345818546
 20
206.4168070762
 11
101.5938928524
 21
206.4168070762
  0
LINE
  5
231
100
AcDbEntity
  8
0
100
AcDbLine
 62
7
  6
BYLAYER
 10
144.5930911575
 20
208.4168070762
 11
142.0865827767
 21
208.4168070762
  0
LINE
  5
232
100
AcDbEntity
  8
0
100
AcDbLine
 62
7
  6
BYLAYER
 10
106.101202927
 20
208.4168070762
 11
103.5946945473
 21
208.4168070762
  0
LINE
  5
233
100
AcDbEntity
  8
0
100
AcDbLine
 62
7
  6
BYLAYER
 10
127.8803339228
 20
235.7168070762
 11
120.3074517819
 21
235.7168070762
  0
LINE
  5
234
100
AcDbEntity
  8
0
100
AcDbLine
 62
7
  6
BYLAYER
 10
127.0434566111
 20
238.2168070762
 11
121.1443290937
 21
238.2168070762
  0
LINE
  5
235
100
AcDbEntity
  8
0
100
AcDbLine
 62
7
  6
BYLAYER
 10
127.2053162856
 20
238.2115618629
 11
127.0434566111
 21
238.2168070762
  0
LINE
  5
236
100
AcDbEntity
  8
0
100
AcDbLine
 62
7
  6
BYLAYER
 10
198.7788928524
 20
193.2261048164
 11
198.7788928524
 21
193.3188070762
  0
LINE
  5
237
100
AcDbEntity
  8
0
100
AcDbLine
 62
7
  6
BYLAYER
 10
200.7795445665
 20
192.4829797499
 11
200.7795445665
 21
192.4211773959
  0
LINE
  5
238
100
AcDbEntity
  8
0
100
AcDbLine
 62
7
  6
BYLAYER
 10
201.4866513477
 20
192.210910892
 11
201.4866513477
 21
192.2602443367
  0
LINE
  5
239
100
AcDbEntity
  8
0
100
AcDbLine
 62
7
  6
BYLAYER
 10
208.0738928524
 20
170.9188070762
 11
208.0700312173
 21
187.8341833226
  0
LINE
  5
23A
100
AcDbEntity
  8
0
100
AcDbLine
 62
7
  6
BYLAYER
 10
207.4938928524
 20
106.8188070762
 11
207.4938928524
 21
170.9188070762
  0
LINE
  5
23B
100
AcDbEntity
  8
0
100
AcDbLine
 62
7
  6
BYLAYER
 10
214.7788928524
 20
191.4529421023
 11
214.7788928524
 21
191.5297073187
  0
LINE
  5
23C
100
AcDbEntity
  8
0
100
AcDbLine
 62
7
  6
BYLAYER
 10
217.5938928524
 20
170.9188070762
 11
217.5938928524
 21
106.8188070762
  0
LINE
  5
23D
100
AcDbEntity
  8
0
100
AcDbLine
 62
7
  6
BYLAYER
 10
220.5938928524
 20
170.9188070762
 11
220.5938928524
 21
187.8341332384
  0
ARC
  5
23E
100
AcDbEntity
  8
0
100
AcDbCircle
 62
7
  6
BYLAYER
 10
42.4160333705
 20
170.933411642
 40
22.4796791773
100
AcDbArc
 50
95.2494389924
 51
131.2514604195
  0
ARC
  5
23F
100
AcDbEntity
  8
0
100
AcDbCircle
 62
7
  6
BYLAYER
 10
48.7276180187
 20
194.5200220388
 40
1.4879824061
100
AcDbArc
 50
302.0772178029
 51
303.1274209659
  0
ARC
  5
240
100
AcDbEntity
  8
0
100
AcDbCircle
 62
7
  6
BYLAYER
 10
95.0938928524
 20
197.2168070762
 40
1.0
100
AcDbArc
 50
90.0
 51
180.0
  0
ARC
  5
241
100
AcDbEntity
  8
0
100
AcDbCircle
 62
7
  6
BYLAYER
 10
108.8516539842
 20
235.5709371439
 40
19.0292390274
100
AcDbArc
 50
0.4392090154
 51
0.7019211096
  0
ARC
  5
242
100
AcDbEntity
  8
0
100
AcDbCircle
 62
7
  6
BYLAYER
 10
41.4089458105
 20
209.4028221756
 40
18.0297457313
100
AcDbArc
 50
268.6031426743
 51
269.9998317072
  0
ARC
  5
243
100
AcDbEntity
  8
0
100
AcDbCircle
 62
7
  6
BYLAYER
 10
41.41001
 20
209.3759675207
 40
17.8902726545
100
AcDbArc
 50
268.5448913636
 51
269.997259777
  0
ARC
  5
244
100
AcDbEntity
  8
0
100
AcDbCircle
 62
7
  6
BYLAYER
 10
106.1012029282
 20
220.4168070762
 40
12.0
100
AcDbArc
 50
269.9999999946
 51
358.0000000149
  0
ARC
  5
245
100
AcDbEntity
  8
0
100
AcDbCircle
 62
7
  6
BYLAYER
 10
121.1443290937
 20
235.7168070762
 40
2.5
100
AcDbArc
 50
90.0
 51
178.1200425706
  0
ARC
  5
246
100
AcDbEntity
  8
0
100
AcDbCircle
 62
7
  6
BYLAYER
 10
103.5938928524
 20
206.4168070762
 40
2.0
100
AcDbArc
 50
90.0
 51
180.0
  0
ARC
  5
247
100
AcDbEntity
  8
0
100
AcDbCircle
 62
7
  6
BYLAYER
 10
205.7717523343
 20
170.933411642
 40
22.4796791773
100
AcDbArc
 50
48.7485663957
 51
84.7505610076
  0
ARC
  5
248
100
AcDbEntity
  8
0
100
AcDbCircle
 62
7
  6
BYLAYER
 10
199.4731857276
 20
194.5400839718
 40
1.5119046755
100
AcDbArc
 50
236.9461798394
 51
237.9856752488
  0
ARC
  5
249
100
AcDbEntity
  8
0
100
AcDbCircle
 62
7
  6
BYLAYER
 10
153.0938928524
 20
197.2168070762
 40
1.0
100
AcDbArc
 50
0.0
 51
90.0
  0
ARC
  5
24A
100
AcDbEntity
  8
0
100
AcDbCircle
 62
7
  6
BYLAYER
 10
139.3360146115
 20
235.5709567237
 40
19.0291217809
100
AcDbArc
 50
179.2981312516
 51
179.5608472341
  0
ARC
  5
24B
100
AcDbEntity
  8
0
100
AcDbCircle
 62
7
  6
BYLAYER
 10
206.7773632392
 20
209.6731508803
 40
18.1873595309
100
AcDbArc
 50
269.9987866259
 51
271.392002914
  0
ARC
  5
24C
100
AcDbEntity
  8
0
100
AcDbCircle
 62
7
  6
BYLAYER
 10
206.7819966971
 20
209.53204072
 40
18.0461784949
100
AcDbArc
 50
271.3881797885
 51
273.4899608362
  0
ARC
  5
24D
100
AcDbEntity
  8
0
100
AcDbCircle
 62
7
  6
BYLAYER
 10
206.7788327929
 20
209.4020109566
 40
18.0289345123
100
AcDbArc
 50
270.0001908685
 51
271.3969341547
  0
ARC
  5
24E
100
AcDbEntity
  8
0
100
AcDbCircle
 62
7
  6
BYLAYER
 10
206.7764283488
 20
209.4649073307
 40
17.9791159857
100
AcDbArc
 50
268.1881603447
 51
270.0017518772
  0
ARC
  5
24F
100
AcDbEntity
  8
0
100
AcDbCircle
 62
7
  6
BYLAYER
 10
142.0865827766
 20
220.4168070762
 40
12.0
100
AcDbArc
 50
181.9999999935
 51
270.0000000026
  0
ARC
  5
250
100
AcDbEntity
  8
0
100
AcDbCircle
 62
7
  6
BYLAYER
 10
127.0434566111
 20
235.7168070762
 40
2.5
100
AcDbArc
 50
1.8799573376
 51
86.8928932577
  0
ARC
  5
251
100
AcDbEntity
  8
0
100
AcDbCircle
 62
7
  6
BYLAYER
 10
144.5938928524
 20
206.4168070762
 40
2.0
100
AcDbArc
 50
0.0
 51
90.0
  0
SPLINE
  5
252
100
AcDbEntity
  8
0
100
AcDbSpline
 62
7
  6
BYLAYER
 70
0
 71
3
 72
10
 73
6
 74
0
 42
0.0000001
 43
0.0000001
 44
0.0000000001
 40
0.0
 40
0.0
 40
0.0
 40
0.0
 40
0.1163898657
 40
0.3218322664
 40
1.0
 40
1.0
 40
1.0
 40
1.0
 10
215.0224966731
 20
191.4214495655
 30
0.0
 10
215.0132450222
 20
191.4256268855
 30
0.0
 10
214.9854238904
 20
191.4313288989
 30
0.0
 10
214.899507817
 20
191.4445856639
 30
0.0
 10
214.8224144718
 20
191.450587806
 30
0.0
 10
214.7634281055
 20
191.4549413489
 30
0.0
  0
SPLINE
  5
253
100
AcDbEntity
  8
0
100
AcDbSpline
 62
7
  6
BYLAYER
 70
0
 71
3
 72
12
 73
8
 74
0
 42
0.0000001
 43
0.0000001
 44
0.0000000001
 40
0.0
 40
0.0
 40
0.0
 40
0.0
 40
0.056509109
 40
0.1378518948
 40
0.366597209
 40
0.6637493777
 40
1.0
 40
1.0
 40
1.0
 40
1.0
 10
214.7634281055
 20
191.4549413489
 30
0.0
 10
214.6216534501
 20
191.4654051574
 30
0.0
 10
214.2751088445
 20
191.4809673279
 30
0.0
 10
213.353060476
 20
191.501054285
 30
0.0
 10
211.8251981997
 20
191.4922718385
 30
0.0
 10
209.6568338399
 20
191.4445257089
 30
0.0
 10
208.06401116
 20
191.3990570504
 30
0.0
 10
207.2183550376
 20
191.3784345076
 30
0.0
  0
SPLINE
  5
254
100
AcDbEntity
  8
0
100
AcDbSpline
 62
7
  6
BYLAYER
 70
0
 71
3
 72
14
 73
10
 74
0
 42
0.0000001
 43
0.0000001
 44
0.0000000001
 40
0.0
 40
0.0
 40
0.0
 40
0.0
 40
0.3383228537
 40
0.4951591304
 40
0.6381178487
 40
0.7635826881
 40
0.8679933823
 40
0.9478763673
 40
1.0
 40
1.0
 40
1.0
 40
1.0
 10
41.4088928524
 20
191.3730764444
 30
0.0
 10
42.3558887534
 20
191.3730764444
 30
0.0
 10
43.7448686566
 20
191.4841376117
 30
0.0
 10
45.4995444108
 20
191.8221441005
 30
0.0
 10
46.652352361
 20
192.1221267583
 30
0.0
 10
47.6461272468
 20
192.4419991885
 30
0.0
 10
48.4576576756
 20
192.7488822073
 30
0.0
 10
49.0632719425
 20
193.01524282
 30
0.0
 10
49.3942298592
 20
193.1816822422
 30
0.0
 10
49.5178284866
 20
193.2592052174
 30
0.0
  0
SPLINE
  5
255
100
AcDbEntity
  8
0
100
AcDbSpline
 62
7
  6
BYLAYER
 70
0
 71
3
 72
9
 73
5
 74
0
 42
0.0000001
 43
0.0000001
 44
0.0000000001
 40
0.0
 40
0.0
 40
0.0
 40
0.0
 40
0.2795767912
 40
1.0
 40
1.0
 40
1.0
 40
1.0
 10
49.5408045982
 20
193.2739003644
 30
0.0
 10
49.5468588417
 20
193.2778541264
 30
0.0
 10
49.5683923174
 20
193.2921761327
 30
0.0
 10
49.5894635231
 20
193.30723018
 30
0.0
 10
49.6040634966
 20
193.3188070762
 30
0.0
  0
SPLINE
  5
256
100
AcDbEntity
  8
0
100
AcDbSpline
 62
7
  6
BYLAYER
 70
0
 71
3
 72
9
 73
5
 74
0
 42
0.0000001
 43
0.0000001
 44
0.0000000001
 40
0.0
 40
0.0
 40
0.0
 40
0.0
 40
0.2199857711
 40
1.0
 40
1.0
 40
1.0
 40
1.0
 10
198.5837222082
 20
193.3188070762
 30
0.0
 10
198.5882885501
 20
193.3151862432
 30
0.0
 10
198.6093229871
 20
193.2990760687
 30
0.0
 10
198.6312371673
 20
193.2841442501
 30
0.0
 10
198.6485527151
 20
193.2728680696
 30
0.0
  0
SPLINE
  5
257
100
AcDbEntity
  8
0
100
AcDbSpline
 62
7
  6
BYLAYER
 70
0
 71
3
 72
11
 73
7
 74
0
 42
0.0000001
 43
0.0000001
 44
0.0000000001
 40
0.0
 40
0.0
 40
0.0
 40
0.0
 40
0.1456716782
 40
0.366545448
 40
0.6543038542
 40
1.0
 40
1.0
 40
1.0
 40
1.0
 10
198.6716777794
 20
193.2581164383
 30
0.0
 10
198.7889101408
 20
193.1847666264
 30
0.0
 10
199.1000134131
 20
193.0270452338
 30
0.0
 10
199.6676894568
 20
192.7752034987
 30
0.0
 10
200.4251810927
 20
192.4841280773
 30
0.0
 10
200.996359416
 20
192.295236569
 30
0.0
 10
201.3104187285
 20
192.2000258677
 30
0.0
  0
SPLINE
  5
258
100
AcDbEntity
  8
0
100
AcDbSpline
 62
7
  6
BYLAYER
 70
0
 71
3
 72
9
 73
5
 74
0
 42
0.0000001
 43
0.0000001
 44
0.0000000001
 40
0.0
 40
0.0
 40
0.0
 40
0.0
 40
0.2220305688
 40
1.0
 40
1.0
 40
1.0
 40
1.0
 10
201.3104187285
 20
192.2000258677
 30
0.0
 10
201.7028542052
 20
192.0810545286
 30
0.0
 10
203.4859077943
 20
191.5996595938
 30
0.0
 10
205.3420448447
 20
191.3730764444
 30
0.0
 10
206.7788928524
 20
191.3730764444
 30
0.0
  0
SPLINE
  5
259
100
AcDbEntity
  8
0
100
AcDbSpline
 62
7
  6
BYLAYER
 70
0
 71
3
 72
9
 73
5
 74
0
 42
0.0000001
 43
0.0000001
 44
0.0000000001
 40
0.0
 40
0.0
 40
0.0
 40
0.0
 40
0.3277708951
 40
1.0
 40
1.0
 40
1.0
 40
1.0
 10
33.1652889405
 20
191.4214494327
 30
0.0
 10
33.186455421
 20
191.4310058516
 30
0.0
 10
33.2584946427
 20
191.4385233036
 30
0.0
 10
33.3280404271
 20
191.4471670451
 30
0.0
 10
33.3755071986
 20
191.4511064919
 30
0.0
  0
SPLINE
  5
25A
100
AcDbEntity
  8
0
100
AcDbSpline
 62
7
  6
BYLAYER
 70
0
 71
3
 72
10
 73
6
 74
0
 42
0.0000001
 43
0.0000001
 44
0.0000000001
 40
0.0
 40
0.0
 40
0.0
 40
0.0
 40
0.1487937525
 40
0.3688605918
 40
1.0
 40
1.0
 40
1.0
 40
1.0
 10
33.3755071986
 20
191.4511064919
 30
0.0
 10
33.5070034221
 20
191.4620198603
 30
0.0
 10
33.8338206032
 20
191.4782549011
 30
0.0
 10
34.7203342709
 20
191.5003171963
 30
0.0
 10
35.4753447668
 20
191.4972115084
 30
0.0
 10
36.0349973988
 20
191.4910984014
 30
0.0
  0
SPLINE
  5
25B
100
AcDbEntity
  8
0
100
AcDbSpline
 62
7
  6
BYLAYER
 70
0
 71
3
 72
9
 73
5
 74
0
 42
0.0000001
 43
0.0000001
 44
0.0000000001
 40
0.0
 40
0.0
 40
0.0
 40
0.0
 40
0.2217158973
 40
1.0
 40
1.0
 40
1.0
 40
1.0
 10
36.0349973988
 20
191.4910984014
 30
0.0
 10
36.3997554315
 20
191.4871141355
 30
0.0
 10
38.0448218282
 20
191.4602497384
 30
0.0
 10
39.6893502893
 20
191.4096467111
 30
0.0
 10
40.9694477399
 20
191.3784337872
 30
0.0
  0
SPLINE
  5
25C
100
AcDbEntity
  8
0
100
AcDbSpline
 62
7
  6
BYLAYER
 70
0
 71
3
 72
27
 73
23
 74
0
 42
0.0000001
 43
0.0000001
 44
0.0000000001
 40
0.0
 40
0.0
 40
0.0
 40
0.0
 40
0.1950882712
 40
0.3827304094
 40
0.5555894345
 40
0.6343991399
 40
0.7071096742
 40
0.7730110792
 40
0.831473221
 40
0.8819193777
 40
0.9238789695
 40
0.9415426581
 40
0.956941487
 40
0.9700384241
 40
0.9807964667
 40
0.9891867114
 40
0.992489004
 40
0.9951936847
 40
0.9972989435
 40
0.9988029576
 40
0.9997038981
 40
1.0
 40
1.0
 40
1.0
 40
1.0
 10
208.0700312514
 20
187.8341833226
 30
0.0
 10
208.88452489
 20
187.8337829549
 30
0.0
 10
210.4824219677
 20
187.8438567994
 30
0.0
 10
212.8018612271
 20
187.8693460458
 30
0.0
 10
214.6359006738
 20
187.8874591656
 30
0.0
 10
215.990163697
 20
187.8953242367
 30
0.0
 10
216.8978992773
 20
187.8974368012
 30
0.0
 10
217.7206850128
 20
187.8956453381
 30
0.0
 10
218.4504998975
 20
187.8902786148
 30
0.0
 10
219.0803198572
 20
187.8816866351
 30
0.0
 10
219.5397663203
 20
187.8722583385
 30
0.0
 10
219.8528731763
 20
187.8637875228
 30
0.0
 10
220.0454879859
 20
187.8577653597
 30
0.0
 10
220.2092904705
 20
187.8519062326
 30
0.0
 10
220.3437445071
 20
187.8464877051
 30
0.0
 10
220.4375156197
 20
187.8421194412
 30
0.0
 10
220.4973391075
 20
187.839249721
 30
0.0
 10
220.5316046704
 20
187.837246152
 30
0.0
 10
220.5567836826
 20
187.8364627658
 30
0.0
 10
220.5781723895
 20
187.8339934842
 30
0.0
 10
220.5849081131
 20
187.8358885336
 30
0.0
 10
220.5945473935
 20
187.8330679951
 30
0.0
 10
220.5938924155
 20
187.8341164504
 30
0.0
  0
SPLINE
  5
25D
100
AcDbEntity
  8
0
100
AcDbSpline
 62
7
  6
BYLAYER
 70
0
 71
3
 72
11
 73
7
 74
0
 42
0.0000001
 43
0.0000001
 44
0.0000000001
 40
0.0
 40
0.0
 40
0.0
 40
0.0
 40
0.2544436767
 40
0.5212263993
 40
0.7746002608
 40
1.0
 40
1.0
 40
1.0
 40
1.0
 10
104.3458215842
 20
206.4168070762
 30
0.0
 10
104.3458215729
 20
206.6656184336
 30
0.0
 10
104.4299419818
 20
207.179249793
 30
0.0
 10
104.8113821291
 20
207.8546646391
 30
0.0
 10
105.4072367363
 20
208.3122125625
 30
0.0
 10
105.8807952747
 20
208.4168070774
 30
0.0
 10
106.1012056059
 20
208.4168070763
 30
0.0
  0
SPLINE
  5
25E
100
AcDbEntity
  8
0
100
AcDbSpline
 62
7
  6
BYLAYER
 70
0
 71
3
 72
13
 73
9
 74
0
 42
0.0000001
 43
0.0000001
 44
0.0000000001
 40
0.0
 40
0.0
 40
0.0
 40
0.0
 40
0.1476264315
 40
0.2945366658
 40
0.4390812348
 40
0.5780420253
 40
0.8213464907
 40
1.0
 40
1.0
 40
1.0
 40
1.0
 10
119.702311741
 20
219.9282141233
 30
0.0
 10
119.6598647637
 20
218.820843996
 30
0.0
 10
119.2827611848
 20
216.6121880627
 30
0.0
 10
117.9099459635
 20
213.5798507508
 30
0.0
 10
115.8960417328
 20
211.0149773923
 30
0.0
 10
112.8155531657
 20
208.4949452929
 30
0.0
 10
108.8633280571
 20
206.7943065054
 30
0.0
 10
105.6869120281
 20
206.416814194
 30
0.0
 10
104.345818546
 20
206.4168070762
 30
0.0
  0
SPLINE
  5
25F
100
AcDbEntity
  8
0
100
AcDbSpline
 62
7
  6
BYLAYER
 70
0
 71
3
 72
18
 73
14
 74
0
 42
0.0000001
 43
0.0000001
 44
0.0000000001
 40
0.0
 40
0.0
 40
0.0
 40
0.0
 40
0.200477345
 40
0.3949829691
 40
0.5737401941
 40
0.7277455565
 40
0.8493093984
 40
0.8968531488
 40
0.9352236027
 40
0.9642882644
 40
0.9844273879
 40
0.9961521631
 40
1.0
 40
1.0
 40
1.0
 40
1.0
 10
119.7023117299
 20
219.9282141228
 30
0.0
 10
119.5947879777
 20
219.9321176426
 30
0.0
 10
119.3829461354
 20
219.939934542
 30
0.0
 10
119.0752565707
 20
219.9516987971
 30
0.0
 10
118.7924758654
 20
219.9629587532
 30
0.0
 10
118.5489293011
 20
219.9732181855
 30
0.0
 10
118.3755200017
 20
219.9808888214
 30
0.0
 10
118.2645617491
 20
219.9864910903
 30
0.0
 10
118.202403296
 20
219.9893860141
 30
0.0
 10
118.1568151751
 20
219.9929450183
 30
0.0
 10
118.1212863308
 20
219.9933032505
 30
0.0
 10
118.1071047069
 20
219.9980215952
 30
0.0
 10
118.0938207926
 20
219.9959492697
 30
0.0
 10
118.0938928524
 20
219.9980131153
 30
0.0
  0
SPLINE
  5
260
100
AcDbEntity
  8
0
100
AcDbSpline
 62
7
  6
BYLAYER
 70
0
 71
3
 72
8
 73
4
 74
0
 42
0.0000001
 43
0.0000001
 44
0.0000000001
 40
0.0
 40
0.0
 40
0.0
 40
0.0
 40
1.0
 40
1.0
 40
1.0
 40
1.0
 10
119.702311741
 20
219.9282141233
 30
0.0
 10
119.9037220795
 20
225.1910900459
 30
0.0
 10
120.1054915835
 20
230.4539522257
 30
0.0
 10
120.3074517819
 20
235.7168070762
 30
0.0
  0
SPLINE
  5
261
100
AcDbEntity
  8
0
100
AcDbSpline
 62
7
  6
BYLAYER
 70
0
 71
3
 72
14
 73
10
 74
0
 42
0.0000001
 43
0.0000001
 44
0.0000000001
 40
0.0
 40
0.0
 40
0.0
 40
0.0
 40
0.3495211972
 40
0.50801562
 40
0.6491475694
 40
0.7691012232
 40
0.866076703
 40
0.9409196447
 40
1.0
 40
1.0
 40
1.0
 40
1.0
 10
120.308320573
 20
235.8040561242
 30
0.0
 10
120.3139727471
 20
236.1170891129
 30
0.0
 10
120.3459579746
 20
236.5729836938
 30
0.0
 10
120.457550039
 20
237.1442678621
 30
0.0
 10
120.5617216352
 20
237.5059615383
 30
0.0
 10
120.6847538458
 20
237.8032513073
 30
0.0
 10
120.8227382371
 20
238.026807319
 30
0.0
 10
120.9715597333
 20
238.1751725778
 30
0.0
 10
121.0914115959
 20
238.2168070762
 30
0.0
 10
121.1443328919
 20
238.2168070762
 30
0.0
  0
SPLINE
  5
262
100
AcDbEntity
  8
0
100
AcDbSpline
 62
7
  6
BYLAYER
 70
0
 71
3
 72
9
 73
5
 74
0
 42
0.0000001
 43
0.0000001
 44
0.0000000001
 40
0.0
 40
0.0
 40
0.0
 40
0.0
 40
0.2228362648
 40
1.0
 40
1.0
 40
1.0
 40
1.0
 10
201.4866513477
 20
192.2602443367
 30
0.0
 10
201.8279737703
 20
192.1599147293
 30
0.0
 10
203.371250059
 20
191.7509309839
 30
0.0
 10
204.9678423279
 20
191.5340827167
 30
0.0
 10
206.2079772915
 20
191.4947800351
 30
0.0
  0
SPLINE
  5
263
100
AcDbEntity
  8
0
100
AcDbSpline
 62
7
  6
BYLAYER
 70
0
 71
3
 72
9
 73
5
 74
0
 42
0.0000001
 43
0.0000001
 44
0.0000000001
 40
0.0
 40
0.0
 40
0.0
 40
0.0
 40
0.2765302348
 40
1.0
 40
1.0
 40
1.0
 40
1.0
 10
207.8805334317
 20
191.5193292276
 30
0.0
 10
208.3123383532
 20
191.5456919327
 30
0.0
 10
209.8701730113
 20
191.6973085633
 30
0.0
 10
211.4071026245
 20
192.0436071291
 30
0.0
 10
212.4855261268
 20
192.3871110288
 30
0.0
  0
SPLINE
  5
264
100
AcDbEntity
  8
0
100
AcDbSpline
 62
7
  6
BYLAYER
 70
0
 71
3
 72
18
 73
14
 74
0
 42
0.0000001
 43
0.0000001
 44
0.0000000001
 40
0.0
 40
0.0
 40
0.0
 40
0.0
 40
0.1925348123
 40
0.3822949483
 40
0.5597861476
 40
0.7153357027
 40
0.8402591688
 40
0.8897441139
 40
0.9299900862
 40
0.9607104357
 40
0.9822186232
 40
0.9950228681
 40
1.0
 40
1.0
 40
1.0
 40
1.0
 10
127.8794650275
 20
235.8040571028
 30
0.0
 10
127.9862645695
 20
235.8072461972
 30
0.0
 10
128.1983416076
 20
235.8130519147
 30
0.0
 10
128.5089176038
 20
235.8198731951
 30
0.0
 10
128.7990287314
 20
235.8242737599
 30
0.0
 10
129.0531325558
 20
235.8260116784
 30
0.0
 10
129.2363458835
 20
235.8250339033
 30
0.0
 10
129.3552951243
 20
235.8225025368
 30
0.0
 10
129.422410051
 20
235.8201053972
 30
0.0
 10
129.472868828
 20
235.817193949
 30
0.0
 10
129.5105367815
 20
235.8137038194
 30
0.0
 10
129.5290381002
 20
235.8103238975
 30
0.0
 10
129.5418430275
 20
235.806814263
 30
0.0
 10
129.541933749
 20
235.8040536952
 30
0.0
  0
SPLINE
  5
265
100
AcDbEntity
  8
0
100
AcDbSpline
 62
7
  6
BYLAYER
 70
0
 71
3
 72
18
 73
14
 74
0
 42
0.0000001
 43
0.0000001
 44
0.0000000001
 40
0.0
 40
0.0
 40
0.0
 40
0.0
 40
0.0051506543
 40
0.0181444608
 40
0.0398261285
 40
0.0706990324
 40
0.1110652775
 40
0.160630606
 40
0.2856042204
 40
0.4410556709
 40
0.6183241735
 40
0.8077873243
 40
1.0
 40
1.0
 40
1.0
 40
1.0
 10
118.6458614339
 20
235.8041860289
 30
0.0
 10
118.646176495
 20
235.8070268084
 30
0.0
 10
118.6590132341
 20
235.8102691103
 30
0.0
 10
118.6780133759
 20
235.8138766095
 30
0.0
 10
118.7158413444
 20
235.8172226889
 30
0.0
 10
118.7666065764
 20
235.8201776219
 30
0.0
 10
118.833889707
 20
235.8225355703
 30
0.0
 10
118.9529842646
 20
235.8250560502
 30
0.0
 10
119.1361975116
 20
235.8260068094
 30
0.0
 10
119.3901404742
 20
235.8242584632
 30
0.0
 10
119.679891603
 20
235.8198535415
 30
0.0
 10
119.9899837483
 20
235.8130384516
 30
0.0
 10
120.2017055968
 20
235.8072414901
 30
0.0
 10
120.3083205932
 20
235.8040578784
 30
0.0
  0
SPLINE
  5
266
100
AcDbEntity
  8
0
100
AcDbSpline
 62
7
  6
BYLAYER
 70
0
 71
3
 72
9
 73
5
 74
0
 42
0.0000001
 43
0.0000001
 44
0.0000000001
 40
0.0
 40
0.0
 40
0.0
 40
0.0
 40
0.2726867193
 40
1.0
 40
1.0
 40
1.0
 40
1.0
 10
40.5241308615
 20
189.8000719631
 30
0.0
 10
40.5587802625
 20
189.9450838099
 30
0.0
 10
40.6906081563
 20
190.4756772057
 30
0.0
 10
40.8419024518
 20
191.0017778247
 30
0.0
 10
40.9694523432
 20
191.3784324243
 30
0.0
  0
SPLINE
  5
267
100
AcDbEntity
  8
0
100
AcDbSpline
 62
7
  6
BYLAYER
 70
0
 71
3
 72
18
 73
14
 74
0
 42
0.0000001
 43
0.0000001
 44
0.0000000001
 40
0.0
 40
0.0
 40
0.0
 40
0.0
 40
0.2029286154
 40
0.3941269834
 40
0.5667397666
 40
0.7156817382
 40
0.8365461737
 40
0.8853156932
 40
0.9257473843
 40
0.9574926725
 40
0.9804089457
 40
0.9944468766
 40
1.0
 40
1.0
 40
1.0
 40
1.0
 10
127.8803716973
 20
235.7168069683
 30
0.0
 10
127.9929672832
 20
235.7208521461
 30
0.0
 10
128.2116484479
 20
235.7287764403
 30
0.0
 10
128.5260827759
 20
235.740595353
 30
0.0
 10
128.810554342
 20
235.7519802498
 30
0.0
 10
129.0559488395
 20
235.7619677803
 30
0.0
 10
129.2327975349
 20
235.7685302538
 30
0.0
 10
129.3491629743
 20
235.7738305343
 30
0.0
 10
129.4165150039
 20
235.7778014112
 30
0.0
 10
129.4683171605
 20
235.782107109
 30
0.0
 10
129.5080661665
 20
235.787044799
 30
0.0
 10
129.5278228414
 20
235.7911783293
 30
0.0
 10
129.54196941
 20
235.7957311525
 30
0.0
 10
129.541829254
 20
235.7988111212
 30
0.0
  0
SPLINE
  5
268
100
AcDbEntity
  8
0
100
AcDbSpline
 62
7
  6
BYLAYER
 70
0
 71
3
 72
9
 73
5
 74
0
 42
0.0000001
 43
0.0000001
 44
0.0000000001
 40
0.0
 40
0.0
 40
0.0
 40
0.0
 40
0.5813908611
 40
1.0
 40
1.0
 40
1.0
 40
1.0
 10
200.7795445665
 20
192.4829797499
 30
0.0
 10
200.4619293659
 20
192.5899012803
 30
0.0
 10
199.9205821245
 20
192.7886600223
 30
0.0
 10
199.3907099974
 20
193.0171762769
 30
0.0
 10
199.1744951321
 20
193.124300634
 30
0.0
  0
SPLINE
  5
269
100
AcDbEntity
  8
0
100
AcDbSpline
 62
7
  6
BYLAYER
 70
0
 71
3
 72
9
 73
5
 74
0
 42
0.0000001
 43
0.0000001
 44
0.0000000001
 40
0.0
 40
0.0
 40
0.0
 40
0.0
 40
0.598471275
 40
1.0
 40
1.0
 40
1.0
 40
1.0
 10
199.1744951321
 20
193.124300634
 30
0.0
 10
199.1045619983
 20
193.1589492322
 30
0.0
 10
198.9889936318
 20
193.2191854084
 30
0.0
 10
198.8769647072
 20
193.2868977472
 30
0.0
 10
198.8354476371
 20
193.3188070762
 30
0.0
  0
SPLINE
  5
26A
100
AcDbEntity
  8
0
100
AcDbSpline
 62
7
  6
BYLAYER
 70
0
 71
3
 72
18
 73
14
 74
0
 42
0.0000001
 43
0.0000001
 44
0.0000000001
 40
0.0
 40
0.0
 40
0.0
 40
0.0
 40
0.2004775281
 40
0.3949832667
 40
0.5737405241
 40
0.7277458487
 40
0.8493096041
 40
0.8968533039
 40
0.9352237089
 40
0.9642883279
 40
0.9844274178
 40
0.996152171
 40
1.0
 40
1.0
 40
1.0
 40
1.0
 10
128.4854739771
 20
219.9282140584
 30
0.0
 10
128.5929978275
 20
219.9321175822
 30
0.0
 10
128.8048398293
 20
219.9399344887
 30
0.0
 10
129.112529571
 20
219.9516987526
 30
0.0
 10
129.3953103348
 20
219.9629587134
 30
0.0
 10
129.6388568497
 20
219.9732181462
 30
0.0
 10
129.8122660552
 20
219.9808887802
 30
0.0
 10
129.9232242082
 20
219.986491046
 30
0.0
 10
129.9853825845
 20
219.9893859677
 30
0.0
 10
130.03097064
 20
219.9929449677
 30
0.0
 10
130.0664994268
 20
219.9933032016
 30
0.0
 10
130.0806810259
 20
219.998021537
 30
0.0
 10
130.093964914
 20
219.9959492186
 30
0.0
 10
130.0938928543
 20
219.99801306
 30
0.0
  0
SPLINE
  5
26B
100
AcDbEntity
  8
0
100
AcDbSpline
 62
7
  6
BYLAYER
 70
0
 71
3
 72
11
 73
7
 74
0
 42
0.0000001
 43
0.0000001
 44
0.0000000001
 40
0.0
 40
0.0
 40
0.0
 40
0.0
 40
0.2253995518
 40
0.4787733278
 40
0.7455561166
 40
1.0
 40
1.0
 40
1.0
 40
1.0
 10
142.0865827781
 20
208.4168070762
 30
0.0
 10
142.3069929448
 20
208.4168070762
 30
0.0
 10
142.7805512429
 20
208.3122127352
 30
0.0
 10
143.3764059758
 20
207.8546652318
 30
0.0
 10
143.7578465866
 20
207.1792503349
 30
0.0
 10
143.8419671612
 20
206.6656186569
 30
0.0
 10
143.8419671612
 20
206.4168070762
 30
0.0
  0
SPLINE
  5
26C
100
AcDbEntity
  8
0
100
AcDbSpline
 62
7
  6
BYLAYER
 70
0
 71
3
 72
27
 73
23
 74
0
 42
0.0000001
 43
0.0000001
 44
0.0000000001
 40
0.0
 40
0.0
 40
0.0
 40
0.0
 40
0.1950461535
 40
0.3826267281
 40
0.5555316766
 40
0.6343679214
 40
0.7070926106
 40
0.7730045335
 40
0.8314692865
 40
0.8819250086
 40
0.9238871295
 40
0.941554253
 40
0.9569523889
 40
0.970045817
 40
0.9808012504
 40
0.9891929794
 40
0.9924957889
 40
0.9951997539
 40
0.9973032402
 40
0.9988051629
 40
0.9997044309
 40
1.0
 40
1.0
 40
1.0
 40
1.0
 10
40.1177503396
 20
187.834159735
 30
0.0
 10
39.3034323714
 20
187.8337628639
 30
0.0
 10
37.7059680841
 20
187.843865192
 30
0.0
 10
35.386768828
 20
187.8692900257
 30
0.0
 10
33.5526841171
 20
187.8874537001
 30
0.0
 10
32.19805941
 20
187.895376873
 30
0.0
 10
31.2901098376
 20
187.8974622556
 30
0.0
 10
30.4672098382
 20
187.895719632
 30
0.0
 10
29.7373003841
 20
187.8903226721
 30
0.0
 10
29.1074179964
 20
187.8817877896
 30
0.0
 10
28.6479074385
 20
187.8723212051
 30
0.0
 10
28.3347777309
 20
187.8638786334
 30
0.0
 10
28.1421663566
 20
187.8578484231
 30
0.0
 10
27.9783927336
 20
187.8519718041
 30
0.0
 10
27.8439590555
 20
187.8465407872
 30
0.0
 10
27.7501883315
 20
187.842195668
 30
0.0
 10
27.6903609819
 20
187.8393286192
 30
0.0
 10
27.6561011457
 20
187.837310401
 30
0.0
 10
27.6309502602
 20
187.8364998507
 30
0.0
 10
27.6095713469
 20
187.8339998412
 30
0.0
 10
27.6028791544
 20
187.8358654501
 30
0.0
 10
27.5932260238
 20
187.8330304175
 30
0.0
 10
27.5938932506
 20
187.8340684775
 30
0.0
  0
SPLINE
  5
26D
100
AcDbEntity
  8
0
100
AcDbSpline
 62
7
  6
BYLAYER
 70
0
 71
3
 72
9
 73
5
 74
0
 42
0.0000001
 43
0.0000001
 44
0.0000000001
 40
0.0
 40
0.0
 40
0.0
 40
0.0
 40
0.2271932177
 40
1.0
 40
1.0
 40
1.0
 40
1.0
 10
207.2183125635
 20
191.3784316153
 30
0.0
 10
207.2581535372
 20
191.2607815728
 30
0.0
 10
207.4256162694
 20
190.7402652642
 30
0.0
 10
207.5654076806
 20
190.211145549
 30
0.0
 10
207.6636021384
 20
189.8001993484
 30
0.0
  0
SPLINE
  5
26E
100
AcDbEntity
  8
0
100
AcDbSpline
 62
7
  6
BYLAYER
 70
0
 71
3
 72
9
 73
5
 74
0
 42
0.0000001
 43
0.0000001
 44
0.0000000001
 40
0.0
 40
0.0
 40
0.0
 40
0.0
 40
0.2592633277
 40
1.0
 40
1.0
 40
1.0
 40
1.0
 10
40.5241106553
 20
189.7999873971
 30
0.0
 10
40.1676222554
 20
189.9626611672
 30
0.0
 10
38.7727763697
 20
190.5437720338
 30
0.0
 10
37.2900025083
 20
190.9291504547
 30
0.0
 10
36.1775961709
 20
191.0554111632
 30
0.0
  0
SPLINE
  5
26F
100
AcDbEntity
  8
0
100
AcDbSpline
 62
7
  6
BYLAYER
 70
0
 71
3
 72
10
 73
6
 74
0
 42
0.0000001
 43
0.0000001
 44
0.0000000001
 40
0.0
 40
0.0
 40
0.0
 40
0.0
 40
0.52165836
 40
0.7651624372
 40
1.0
 40
1.0
 40
1.0
 40
1.0
 10
36.1775961709
 20
191.0554111632
 30
0.0
 10
35.1028652717
 20
191.1773956217
 30
0.0
 10
33.4791885229
 20
191.1356794551
 30
0.0
 10
31.4877827313
 20
190.5267320424
 30
0.0
 10
30.6022572883
 20
190.064741009
 30
0.0
 10
30.1935956157
 20
189.7999956265
 30
0.0
  0
SPLINE
  5
270
100
AcDbEntity
  8
0
100
AcDbSpline
 62
7
  6
BYLAYER
 70
0
 71
3
 72
18
 73
14
 74
0
 42
0.0000001
 43
0.0000001
 44
0.0000000001
 40
0.0
 40
0.0
 40
0.0
 40
0.0
 40
0.2031733375
 40
0.3944714191
 40
0.5671047619
 40
0.7160023725
 40
0.8367485936
 40
0.8854483135
 40
0.9258206376
 40
0.9575184235
 40
0.9803974432
 40
0.994417148
 40
1.0
 40
1.0
 40
1.0
 40
1.0
 10
120.2964911654
 20
235.7172023422
 30
0.0
 10
120.1844954122
 20
235.7212301347
 30
0.0
 10
119.9670513057
 20
235.7291151384
 30
0.0
 10
119.654467485
 20
235.7408755959
 30
0.0
 10
119.3718108064
 20
235.7521988948
 30
0.0
 10
119.1280962101
 20
235.7621628329
 30
0.0
 10
118.9525319414
 20
235.7686719699
 30
0.0
 10
118.8370553101
 20
235.7738760772
 30
0.0
 10
118.7702470842
 20
235.7777791885
 30
0.0
 10
118.7188346465
 20
235.7820063932
 30
0.0
 10
118.679460707
 20
235.7869674338
 30
0.0
 10
118.6597530165
 20
235.791038882
 30
0.0
 10
118.6458171704
 20
235.7957348374
 30
0.0
 10
118.6459564512
 20
235.7988111252
 30
0.0
  0
SPLINE
  5
271
100
AcDbEntity
  8
0
100
AcDbSpline
 62
7
  6
BYLAYER
 70
0
 71
3
 72
9
 73
5
 74
0
 42
0.0000001
 43
0.0000001
 44
0.0000000001
 40
0.0
 40
0.0
 40
0.0
 40
0.0
 40
0.4771908121
 40
1.0
 40
1.0
 40
1.0
 40
1.0
 10
40.5241115806
 20
189.8000733252
 30
0.0
 10
40.4503222179
 20
189.4893790613
 30
0.0
 10
40.3084819925
 20
188.8352977861
 30
0.0
 10
40.1787546526
 20
188.1786975249
 30
0.0
 10
40.1177510756
 20
187.8341926254
 30
0.0
  0
SPLINE
  5
272
100
AcDbEntity
  8
0
100
AcDbSpline
 62
7
  6
BYLAYER
 70
0
 71
3
 72
10
 73
6
 74
0
 42
0.0000001
 43
0.0000001
 44
0.0000000001
 40
0.0
 40
0.0
 40
0.0
 40
0.0
 40
0.5520782674
 40
0.7939805869
 40
1.0
 40
1.0
 40
1.0
 40
1.0
 10
127.8794650473
 20
235.8040553696
 30
0.0
 10
127.8733094873
 20
236.1657046626
 30
0.0
 10
127.8308029738
 20
236.6874455113
 30
0.0
 10
127.6847049584
 20
237.3268516838
 30
0.0
 10
127.5871883524
 20
237.604926888
 30
0.0
 10
127.5309937088
 20
237.7276493602
 30
0.0
  0
SPLINE
  5
273
100
AcDbEntity
  8
0
100
AcDbSpline
 62
7
  6
BYLAYER
 70
0
 71
3
 72
11
 73
7
 74
0
 42
0.0000001
 43
0.0000001
 44
0.0000000001
 40
0.0
 40
0.0
 40
0.0
 40
0.0
 40
0.3310133416
 40
0.6023702026
 40
0.8189326276
 40
1.0
 40
1.0
 40
1.0
 40
1.0
 10
127.5309937088
 20
237.7276493602
 30
0.0
 10
127.4978184259
 20
237.8001002643
 30
0.0
 10
127.4299695012
 20
237.9288978384
 30
0.0
 10
127.3101859103
 20
238.0868649687
 30
0.0
 10
127.1832268215
 20
238.1899908946
 30
0.0
 10
127.0870321196
 20
238.2168070762
 30
0.0
 10
127.0434435689
 20
238.2168070762
 30
0.0
  0
SPLINE
  5
274
100
AcDbEntity
  8
0
100
AcDbSpline
 62
7
  6
BYLAYER
 70
0
 71
3
 72
13
 73
9
 74
0
 42
0.0000001
 43
0.0000001
 44
0.0000000001
 40
0.0
 40
0.0
 40
0.0
 40
0.0
 40
0.1476259265
 40
0.2945360107
 40
0.4390808035
 40
0.5780415326
 40
0.8213459949
 40
1.0
 40
1.0
 40
1.0
 40
1.0
 10
128.4854739638
 20
219.9282141225
 30
0.0
 10
128.5279204632
 20
218.8208430333
 30
0.0
 10
128.9050282938
 20
216.6121837539
 30
0.0
 10
130.2778309205
 20
213.5798306995
 30
0.0
 10
132.2916794144
 20
211.0149104074
 30
0.0
 10
135.3720697909
 20
208.4947009798
 30
0.0
 10
139.3244543623
 20
206.7943316828
 30
0.0
 10
142.5008642245
 20
206.4168021598
 30
0.0
 10
143.8419671568
 20
206.4168070762
 30
0.0
  0
SPLINE
  5
275
100
AcDbEntity
  8
0
100
AcDbSpline
 62
7
  6
BYLAYER
 70
0
 71
3
 72
8
 73
4
 74
0
 42
0.0000001
 43
0.0000001
 44
0.0000000001
 40
0.0
 40
0.0
 40
0.0
 40
0.0
 40
1.0
 40
1.0
 40
1.0
 40
1.0
 10
127.8803339228
 20
235.7168070762
 30
0.0
 10
128.082298581
 20
230.4539523965
 30
0.0
 10
128.2840636248
 20
225.1910900453
 30
0.0
 10
128.4854739638
 20
219.9282141225
 30
0.0
  0
SPLINE
  5
276
100
AcDbEntity
  8
0
100
AcDbSpline
 62
7
  6
BYLAYER
 70
0
 71
3
 72
9
 73
5
 74
0
 42
0.0000001
 43
0.0000001
 44
0.0000000001
 40
0.0
 40
0.0
 40
0.0
 40
0.0
 40
0.2226025362
 40
1.0
 40
1.0
 40
1.0
 40
1.0
 10
36.1166513477
 20
192.2602443367
 30
0.0
 10
36.4659628299
 20
192.1575663948
 30
0.0
 10
38.0474045429
 20
191.7400172623
 30
0.0
 10
39.6846033608
 20
191.5236831626
 30
0.0
 10
40.9557096628
 20
191.4914639812
 30
0.0
  0
SPLINE
  5
277
100
AcDbEntity
  8
0
100
AcDbSpline
 62
7
  6
BYLAYER
 70
0
 71
3
 72
15
 73
11
 74
0
 42
0.0000001
 43
0.0000001
 44
0.0000000001
 40
0.0
 40
0.0
 40
0.0
 40
0.0
 40
0.3497777078
 40
0.5107331513
 40
0.6559979954
 40
0.7814625817
 40
0.8831359322
 40
0.9571060106
 40
0.9825982718
 40
1.0
 40
1.0
 40
1.0
 40
1.0
 10
41.4091543814
 20
191.4856948867
 30
0.0
 10
42.3681394191
 20
191.4857022721
 30
0.0
 10
43.7715251046
 20
191.5989717822
 30
0.0
 10
45.5376935843
 20
191.9430787322
 30
0.0
 10
46.6831667744
 20
192.2440052969
 30
0.0
 10
47.6549735362
 20
192.558978294
 30
0.0
 10
48.4259079478
 20
192.8547344348
 30
0.0
 10
48.9307263101
 20
193.0783540328
 30
0.0
 10
49.2139754277
 20
193.2279536573
 30
0.0
 10
49.3145099125
 20
193.2897329857
 30
0.0
 10
49.3523380677
 20
193.3188070762
 30
0.0
  0
SPLINE
  5
278
100
AcDbEntity
  8
0
100
AcDbSpline
 62
7
  6
BYLAYER
 70
0
 71
3
 72
9
 73
5
 74
0
 42
0.0000001
 43
0.0000001
 44
0.0000000001
 40
0.0
 40
0.0
 40
0.0
 40
0.0
 40
0.5227942932
 40
1.0
 40
1.0
 40
1.0
 40
1.0
 10
208.070031916
 20
187.8341926254
 30
0.0
 10
208.008980749
 20
188.1787037195
 30
0.0
 10
207.8796716542
 20
188.8354300839
 30
0.0
 10
207.7376361458
 20
189.4895252484
 30
0.0
 10
207.663631537
 20
189.800201425
 30
0.0
  0
SPLINE
  5
279
100
AcDbEntity
  8
0
100
AcDbSpline
 62
7
  6
BYLAYER
 70
0
 71
3
 72
11
 73
7
 74
0
 42
0.0000001
 43
0.0000001
 44
0.0000000001
 40
0.0
 40
0.0
 40
0.0
 40
0.0
 40
0.2819319427
 40
0.5422955283
 40
0.780025666
 40
1.0
 40
1.0
 40
1.0
 40
1.0
 10
207.6636420611
 20
189.8002021354
 30
0.0
 10
208.5830047857
 20
190.2197207174
 30
0.0
 10
210.4266446492
 20
190.8784495834
 30
0.0
 10
213.224355192
 20
191.2435003857
 30
0.0
 10
215.8091992937
 20
190.9125501328
 30
0.0
 10
217.3321180642
 20
190.2288933172
 30
0.0
 10
217.9938713154
 20
189.8002021355
 30
0.0
  0
ELLIPSE
  5
27A
100
AcDbEntity
  8
0
100
AcDbEllipse
 62
7
  6
BYLAYER
 10
43.2231401521
 20
170.933411642
 30
0.0
 11
22.4796791773
 21
0.0
 31
0.0
 40
1.0
 41
7.9456016283
 42
8.1756285649
  0
ELLIPSE
  5
27B
100
AcDbEntity
  8
0
100
AcDbEllipse
 62
7
  6
BYLAYER
 10
208.5931401521
 20
170.933411642
 30
0.0
 11
22.4796791773
 21
0.0
 31
0.0
 40
1.0
 41
7.9456016283
 42
8.1756285649
  0
ELLIPSE
  5
27C
100
AcDbEntity
  8
0
100
AcDbEllipse
 62
7
  6
BYLAYER
 10
207.1789265897
 20
170.933411642
 30
0.0
 11
22.4796791773
 21
-0.0
 31
0.0
 40
1.0
 41
7.9456016283
 42
8.1426480594
  0
ENDSEC
  0
SECTION
  2
OBJECTS
  0
DICTIONARY
  5
C
100
AcDbDictionary
280
0
281
1
  3
ACAD_GROUP
350
D
  3
ACAD_MLINESTYLE
350
17
  3
ACAD_LAYOUT
350
1A
  3
ACAD_PLOTSETTINGS
350
19
  3
ACAD_PLOTSTYLENAME
350
E
  0
DICTIONARY
  5
D
102
{ACAD_REACTORS
330
C
102
}
100
AcDbDictionary
280
0
281
1
  0
ACDBDICTIONARYWDFLT
  5
E
102
{ACAD_REACTORS
330
C
102
}
100
AcDbDictionary
281
1
  3
Normal
350
F
100
AcDbDictionaryWithDefault
340
F
  0
DICTIONARY
  5
17
102
{ACAD_REACTORS
330
C
102
}
100
AcDbDictionary
280
0
281
1
  3
Standard
350
18
  0
DICTIONARY
  5
19
102
{ACAD_REACTORS
330
C
102
}
100
AcDbDictionary
281
1
  0
DICTIONARY
  5
1A
102
{ACAD_REACTORS
330
C
102
}
100
AcDbDictionary
281
1
  3
Model
350
27D
  3
Layout1
350
27E
  0
ACDBPLACEHOLDER
  5
F
102
{ACAD_REACTORS
330
E
102
}
  0
MLINESTYLE
  5
18
102
{ACAD_REACTORS
330
17
102
}
100
AcDbMlineStyle
  2
STANDARD
 70
0
  3

 62
256
 51
90.0
 52
90.0
 71
2
 49
0.5
 62
256
  6
BYLAYER
 49
-0.5
 62
256
  6
BYLAYER
  0
LAYOUT
  5
27D
102
{ACAD_REACTORS
330
1A
102
}
100
AcDbPlotSettings
  1

  2
none_device
  4

  6

 40
0.0
 41
0.0
 42
0.0
 43
0.0
 44
210.0
 45
297.0
 46
0.0
 47
0.0
 48
0.0
 49
0.0
140
0.0
141
0.0
142
1.0
143
1.0
 70
1024
 72
1
 73
0
 74
0
  7

 75
0
147
1.0
148
0.0
149
0.0
100
AcDbLayout
  1
Model
 70
0
 71
0
 10
0.0
 20
0.0
 11
210.0
 21
297.0
 12
0.0
 22
0.0
 32
0.0
 14
0.0
 24
0.0
 34
0.0
 15
0.0
 25
0.0
 35
0.0
146
0.0
 13
0.0
 23
0.0
 33
0.0
 16
1.0
 26
0.0
 36
0.0
 17
0.0
 27
1.0
 37
0.0
 76
0
330
210
345
0
346
0
  0
LAYOUT
  5
27E
102
{ACAD_REACTORS
330
1A
102
}
100
AcDbPlotSettings
  1

  2
none_device
  4

  6

 40
0.0
 41
0.0
 42
0.0
 43
0.0
 44
210.0
 45
297.0
 46
0.0
 47
0.0
 48
0.0
 49
0.0
140
0.0
141
0.0
142
1.0
143
1.0
 70
0
 72
1
 73
0
 74
0
  7

 75
0
147
1.0
148
0.0
149
0.0
100
AcDbLayout
  1
Layout1
 70
0
 71
1
 10
0.0
 20
0.0
 11
210.0
 21
297.0
 12
0.0
 22
0.0
 32
0.0
 14
0.0
 24
0.0
 34
0.0
 15
0.0
 25
0.0
 35
0.0
146
0.0
 13
0.0
 23
0.0
 33
0.0
 16
1.0
 26
0.0
 36
0.0
 17
0.0
 27
1.0
 37
0.0
 76
0
330
211
345
0
346
0
  0
ENDSEC
  0
EOF
