999
DXF file: C:\Users\sesa63760\Dev\_Creo\CAD\MCADPE0010587_3D-CAD\drw0001_1.dxf
999
Pro/ENGINEER 2019471 by Parametric Technology Corporation
  0
SECTION
  2
HEADER
  9
$ACADVER
  1
AC1024
  9
$DWGCODEPAGE
  3
ANSI_1252
  9
$EXTMAX
 10
48.3731466536
 20
68.4134502673
 30
0.0
  9
$EXTMIN
 10
0.0
 20
0.0
 30
0.0
  9
$LIMMIN
 10
0.0
 20
0.0
  9
$LIMMAX
 10
48.3731466536
 20
68.4134502673
  9
$VIEWCTR
 10
24.1865733268
 20
34.2067251336
  9
$VIEWSIZE
 40
68.4134502673
  9
$CLAYER
  8
0
  9
$LTSCALE
 40
4.4595434248
  9
$CELTYPE
  6
BYLAYER
  9
$DIMSCALE
 40
1.0
  9
$DIMASZ
 40
0.5758707935
  9
$DIMEXO
 40
1.0
  9
$DIMDLI
 40
3.0811390935
  9
$DIMEXE
 40
1.0
  9
$DIMCEN
 40
0.7297434695
  9
$DIMLFAC
 40
1.0
  9
$DIMBLK
  1
_FILLED
  9
$DIMALT
 70
0
  9
$DIMALTF
 40
0.0393700787
  9
$DIMTXT
 40
0.8062191109
  9
$DIMTOL
 70
1
  9
$DIMLIM
 70
0
  9
$DIMTFAC
 40
1.0
  9
$DIMTP
 40
0.01
  9
$DIMTM
 40
0.01
  9
$DIMGAP
 40
0.625
  9
$DIMDSEP
 70
46
  9
$AUNITS
 70
0
  9
$PDMODE
 70
3
  9
$PDSIZE
 40
0.3125
  9
$HANDSEED
  5
27A
  9
$TILEMODE
 70
1
  9
$MEASUREMENT
 70
1
  9
$INSUNITS
 70
4
  0
ENDSEC
  0
SECTION
  2
CLASSES
  0
CLASS
  1
ACDBDICTIONARYWDFLT
  2
AcDbDictionaryWithDefault
  3
AutoCAD 2000
 90
0
 91
1
280
0
281
0
  0
CLASS
  1
ACDBPLACEHOLDER
  2
AcDbPlaceHolder
  3
AutoCAD 2000
 90
0
 91
1
280
0
281
0
  0
CLASS
  1
LAYOUT
  2
AcDbLayout
  3
AutoCAD 2000
 90
0
 91
0
280
0
281
0
  0
ENDSEC
  0
SECTION
  2
TABLES
  0
TABLE
  2
VPORT
  5
8
100
AcDbSymbolTable
 70
2
  0
VPORT
  5
1F4
100
AcDbSymbolTableRecord
100
AcDbViewportTableRecord
  2
*ACTIVE
 70
0
 10
0.0
 20
0.0
 11
1.0
 21
1.0
 12
24.1865733268
 22
34.2067251336
 13
0.0
 23
0.0
 14
1.0
 24
1.0
 15
0.0
 25
0.0
 16
0.0
 26
0.0
 36
1.0
 17
0.0
 27
0.0
 37
0.0
 40
68.4134502673
 41
0.7070707071
 42
50.0
 43
0.0
 44
0.0
 50
0.0
 51
0.0
 71
0
 72
100
 73
1
 74
1
 75
0
 76
0
 77
0
 78
0
  0
ENDTAB
  0
TABLE
  2
LTYPE
  5
5
100
AcDbSymbolTable
 70
6
  0
LTYPE
  5
14
100
AcDbSymbolTableRecord
100
AcDbLinetypeTableRecord
  2
BYBLOCK
 70
0
  3

 72
65
 73
0
 40
0.0
  0
LTYPE
  5
15
100
AcDbSymbolTableRecord
100
AcDbLinetypeTableRecord
  2
BYLAYER
 70
0
  3

 72
65
 73
0
 40
0.0
  0
LTYPE
  5
16
100
AcDbSymbolTableRecord
100
AcDbLinetypeTableRecord
  2
CONTINUOUS
 70
64
  3
Solid line
 72
65
 73
0
 40
0.0
  0
LTYPE
  5
1F5
100
AcDbSymbolTableRecord
100
AcDbLinetypeTableRecord
  2
CENTER
 70
64
  3
____ _ ____ _ ____ _ ____ _ ____ _ ____ _ ____
 72
65
 73
4
 40
0.6
 49
0.375
 74
0
 49
-0.075
 74
0
 49
0.075
 74
0
 49
-0.075
 74
0
  0
LTYPE
  5
1F6
100
AcDbSymbolTableRecord
100
AcDbLinetypeTableRecord
  2
HIDDEN
 70
64
  3
- - - - - - - - - - - - - - - - - - - -
 72
65
 73
2
 40
0.2
 49
0.1
 74
0
 49
-0.1
 74
0
  0
LTYPE
  5
1F7
100
AcDbSymbolTableRecord
100
AcDbLinetypeTableRecord
  2
PHANTOM
 70
64
  3
_____ _ _ _____ _ _ _____ _ _ _____
 72
65
 73
6
 40
0.8
 49
0.45
 74
0
 49
-0.05
 74
0
 49
0.1
 74
0
 49
-0.05
 74
0
 49
0.1
 74
0
 49
-0.05
 74
0
  0
LTYPE
  5
1F8
100
AcDbSymbolTableRecord
100
AcDbLinetypeTableRecord
  2
DOT
 70
64
  3
. . . . . . . . . . . . . . . . . . . .
 72
65
 73
2
 40
0.2
 49
0.1
 74
0
 49
-0.1
 74
0
  0
LTYPE
  5
1F9
100
AcDbSymbolTableRecord
100
AcDbLinetypeTableRecord
  2
DASHED
 70
64
  3
- - - - - - - - - - - - - - - - - - - -
 72
65
 73
2
 40
0.2
 49
0.1
 74
0
 49
-0.1
 74
0
  0
ENDTAB
  0
TABLE
  2
LAYER
  5
2
100
AcDbSymbolTable
 70
36
  0
LAYER
  5
10
100
AcDbSymbolTableRecord
100
AcDbLayerTableRecord
  2
0
 70
0
 62
7
  6
CONTINUOUS
370
-3
390
F
  0
LAYER
  5
1FA
100
AcDbSymbolTableRecord
100
AcDbLayerTableRecord
  2
DEFAULT_1
 70
0
 62
7
  6
CENTER
370
-3
390
F
  0
LAYER
  5
1FB
100
AcDbSymbolTableRecord
100
AcDbLayerTableRecord
  2
DEFAULT_2
 70
0
 62
7
  6
HIDDEN
370
-3
390
F
  0
LAYER
  5
1FC
100
AcDbSymbolTableRecord
100
AcDbLayerTableRecord
  2
DEFAULT_3
 70
0
 62
7
  6
PHANTOM
370
-3
390
F
  0
LAYER
  5
1FD
100
AcDbSymbolTableRecord
100
AcDbLayerTableRecord
  2
00_COMPONENTS
 70
0
 62
7
  6
CONTINUOUS
370
-3
390
F
  0
LAYER
  5
1FE
100
AcDbSymbolTableRecord
100
AcDbLayerTableRecord
  2
01_1_DEFAULT_DATUMS
 70
0
 62
7
  6
CONTINUOUS
370
-3
390
F
  0
LAYER
  5
1FF
100
AcDbSymbolTableRecord
100
AcDbLayerTableRecord
  2
01_PLANES
 70
0
 62
7
  6
CONTINUOUS
370
-3
390
F
  0
LAYER
  5
200
100
AcDbSymbolTableRecord
100
AcDbLayerTableRecord
  2
02_COORD_SYS
 70
0
 62
7
  6
CONTINUOUS
370
-3
390
F
  0
LAYER
  5
201
100
AcDbSymbolTableRecord
100
AcDbLayerTableRecord
  2
03_AXES
 70
0
 62
7
  6
CONTINUOUS
370
-3
390
F
  0
LAYER
  5
202
100
AcDbSymbolTableRecord
100
AcDbLayerTableRecord
  2
04_POINTS
 70
0
 62
7
  6
CONTINUOUS
370
-3
390
F
  0
LAYER
  5
203
100
AcDbSymbolTableRecord
100
AcDbLayerTableRecord
  2
05_CURVES
 70
0
 62
7
  6
CONTINUOUS
370
-3
390
F
  0
LAYER
  5
204
100
AcDbSymbolTableRecord
100
AcDbLayerTableRecord
  2
06_SURFS
 70
0
 62
7
  6
CONTINUOUS
370
-3
390
F
  0
LAYER
  5
205
100
AcDbSymbolTableRecord
100
AcDbLayerTableRecord
  2
07_COSMETICS
 70
0
 62
7
  6
CONTINUOUS
370
-3
390
F
  0
LAYER
  5
206
100
AcDbSymbolTableRecord
100
AcDbLayerTableRecord
  2
10_NOTES
 70
0
 62
7
  6
CONTINUOUS
370
-3
390
F
  0
LAYER
  5
207
100
AcDbSymbolTableRecord
100
AcDbLayerTableRecord
  2
11_NOTES_PUB
 70
0
 62
7
  6
CONTINUOUS
370
-3
390
F
  0
LAYER
  5
208
100
AcDbSymbolTableRecord
100
AcDbLayerTableRecord
  2
13_REF_GTOL
 70
0
 62
7
  6
CONTINUOUS
370
-3
390
F
  0
LAYER
  5
209
100
AcDbSymbolTableRecord
100
AcDbLayerTableRecord
  2
16_MISC
 70
0
 62
7
  6
CONTINUOUS
370
-3
390
F
  0
LAYER
  5
20A
100
AcDbSymbolTableRecord
100
AcDbLayerTableRecord
  2
17_NO_PRINT
 70
0
 62
7
  6
CONTINUOUS
370
-3
390
F
  0
LAYER
  5
20B
100
AcDbSymbolTableRecord
100
AcDbLayerTableRecord
  2
18_DATUM_CAMS_JOINTS
 70
0
 62
7
  6
CONTINUOUS
370
-3
390
F
  0
LAYER
  5
20C
100
AcDbSymbolTableRecord
100
AcDbLayerTableRecord
  2
19_DATUM_FUNCTIONAL
 70
0
 62
7
  6
CONTINUOUS
370
-3
390
F
  0
LAYER
  5
20D
100
AcDbSymbolTableRecord
100
AcDbLayerTableRecord
  2
20_DATUM_KINEMATIC_SCHEME
 70
0
 62
7
  6
CONTINUOUS
370
-3
390
F
  0
ENDTAB
  0
TABLE
  2
STYLE
  5
3
100
AcDbSymbolTable
 70
1
  0
STYLE
  5
11
100
AcDbSymbolTableRecord
100
AcDbTextStyleTableRecord
  2
STANDARD
 70
0
 40
0.0
 41
1.0
 50
0.0
 71
0
 42
0.2
  3
ARIAL.TTF
  4

  0
STYLE
  5
20E
100
AcDbSymbolTableRecord
100
AcDbTextStyleTableRecord
  2
TEXTSTYLE_1
 70
0
 40
0.0
 41
0.8
 50
0.0
 71
0
 42
0.2
  3
gdt
  4

  0
ENDTAB
  0
TABLE
  2
VIEW
  5
6
100
AcDbSymbolTable
 70
0
  0
ENDTAB
  0
TABLE
  2
UCS
  5
7
100
AcDbSymbolTable
 70
0
  0
ENDTAB
  0
TABLE
  2
APPID
  5
9
100
AcDbSymbolTable
 70
1
  0
APPID
  5
20F
100
AcDbSymbolTableRecord
100
AcDbRegAppTableRecord
  2
ACAD
 70
0
  0
ENDTAB
  0
TABLE
  2
BLOCK_RECORD
  5
1
100
AcDbSymbolTable
 70
0
  0
BLOCK_RECORD
  5
210
100
AcDbSymbolTableRecord
100
AcDbBlockTableRecord
  2
*Model_Space
  0
BLOCK_RECORD
  5
211
100
AcDbSymbolTableRecord
100
AcDbBlockTableRecord
  2
*Paper_Space
  0
BLOCK_RECORD
  5
212
100
AcDbSymbolTableRecord
100
AcDbBlockTableRecord
  2
_FILLED
  0
ENDTAB
  0
TABLE
  2
DIMSTYLE
  5
A
100
AcDbSymbolTable
 70
1
100
AcDbDimStyleTable
 71
0
  0
DIMSTYLE
105
213
100
AcDbSymbolTableRecord
100
AcDbDimStyleTableRecord
  2
STANDARD
 70
0
  3

  4

 40
1.0
 41
0.5758707935
 42
1.0
 43
0.38
 44
1.0
 45
0.0
 46
0.0
 47
0.01
 48
0.01
140
0.8062191109
141
0.09
142
0.0
143
25.4
144
1.0
145
0.0
146
1.0
147
0.625
 71
1
 72
0
 73
0
 74
0
 75
0
 76
0
 77
1
 78
8
 79
2
170
0
171
1
172
0
173
0
174
0
175
0
176
0
177
0
178
0
270
2
179
2
271
2
272
2
273
2
274
2
275
0
280
0
281
0
282
0
283
1
284
8
285
0
286
0
287
3
288
0
340
11
278
46
341
212
342
212
343
212
344
212
  0
ENDTAB
  0
ENDSEC
  0
SECTION
  2
BLOCKS
  0
BLOCK
  5
20
100
AcDbEntity
  8
0
100
AcDbBlockBegin
  2
*Model_Space
 70
0
 10
0.0
 20
0.0
 30
0.0
  3
*Model_Space
  1

  0
ENDBLK
  5
21
100
AcDbEntity
  8
0
100
AcDbBlockEnd
  0
BLOCK
  5
1C
100
AcDbEntity
  8
0
100
AcDbBlockBegin
  2
*Paper_Space
 70
0
 10
0.0
 20
0.0
 30
0.0
  3
*Paper_Space
  1

  0
ENDBLK
  5
1D
100
AcDbEntity
  8
0
100
AcDbBlockEnd
  0
BLOCK
  5
214
100
AcDbEntity
  8
0
100
AcDbBlockBegin
  2
_FILLED
 70
64
 10
0.0
 20
0.0
  3
_FILLED
  1

  0
SOLID
  5
215
100
AcDbEntity
  8
0
  6
BYBLOCK
 62
0
100
AcDbTrace
 10
0.0
 20
0.0
 11
-1.0
 21
0.25
 12
-1.0
 22
-0.25
 13
-1.0
 23
-0.25
  0
ENDBLK
  5
216
100
AcDbEntity
  8
0
  6
BYBLOCK
 62
0
100
AcDbBlockEnd
  0
ENDSEC
  0
SECTION
  2
ENTITIES
  0
LINE
  5
217
100
AcDbEntity
  8
0
100
AcDbLine
 62
7
  6
BYLAYER
 10
15.0163579206
 20
8.0462993855
 11
9.854499909
 21
10.7816339821
  0
LINE
  5
218
100
AcDbEntity
  8
0
100
AcDbLine
 62
7
  6
BYLAYER
 10
9.854499909
 20
10.7816339821
 11
5.6118415581
 21
13.2310785093
  0
LINE
  5
219
100
AcDbEntity
  8
0
100
AcDbLine
 62
7
  6
BYLAYER
 10
9.854499909
 20
17.7219045278
 11
5.6118415581
 21
20.1713490549
  0
LINE
  5
21A
100
AcDbEntity
  8
0
100
AcDbLine
 62
7
  6
BYLAYER
 10
16.7841175137
 20
14.0475745147
 11
15.9355711804
 21
14.5374718856
  0
LINE
  5
21B
100
AcDbEntity
  8
0
100
AcDbLine
 62
7
  6
BYLAYER
 10
30.9743082553
 20
60.5341147629
 11
26.0245813948
 21
57.6764056858
  0
LINE
  5
21C
100
AcDbEntity
  8
0
100
AcDbLine
 62
7
  6
BYLAYER
 10
18.5292807204
 20
53.3490176547
 11
13.5795538599
 21
50.4913085776
  0
LINE
  5
21D
100
AcDbEntity
  8
0
100
AcDbLine
 62
7
  6
BYLAYER
 10
5.6118415581
 20
20.1713490549
 11
5.6118415581
 21
13.2310785093
  0
LINE
  5
21E
100
AcDbEntity
  8
0
100
AcDbLine
 62
7
  6
BYLAYER
 10
13.5795538599
 20
50.4913085776
 11
11.6567906641
 21
47.2138737334
  0
LINE
  5
21F
100
AcDbEntity
  8
0
100
AcDbLine
 62
7
  6
BYLAYER
 10
8.620848776
 20
42.038976611
 11
6.6980855802
 21
38.7615417668
  0
LINE
  5
220
100
AcDbEntity
  8
0
100
AcDbLine
 62
7
  6
BYLAYER
 10
7.3432191927
 20
23.4099855451
 11
10.8787678185
 21
21.3687817725
  0
LINE
  5
221
100
AcDbEntity
  8
0
100
AcDbLine
 62
7
  6
BYLAYER
 10
13.1385891465
 20
46.3165636866
 11
10.1209710188
 21
41.1729002235
  0
LINE
  5
222
100
AcDbEntity
  8
0
100
AcDbLine
 62
7
  6
BYLAYER
 10
35.2169666062
 20
58.0846702357
 11
30.2672397457
 21
55.2269611586
  0
LINE
  5
223
100
AcDbEntity
  8
0
100
AcDbLine
 62
7
  6
BYLAYER
 10
22.7719390713
 20
50.8995731276
 11
17.8222122108
 21
48.0418640505
  0
LINE
  5
224
100
AcDbEntity
  8
0
100
AcDbLine
 62
7
  6
BYLAYER
 10
25.1053464065
 20
51.8384225744
 11
22.8996370718
 21
50.5649632978
  0
LINE
  5
225
100
AcDbEntity
  8
0
100
AcDbLine
 62
7
  6
BYLAYER
 10
9.854499909
 20
17.7219045278
 11
9.854499909
 21
10.7816339821
  0
LINE
  5
226
100
AcDbEntity
  8
0
100
AcDbLine
 62
7
  6
BYLAYER
 10
10.940743931
 20
36.3120972396
 11
12.8635071269
 21
39.5895320838
  0
LINE
  5
227
100
AcDbEntity
  8
0
100
AcDbLine
 62
7
  6
BYLAYER
 10
15.899449015
 20
44.7644292063
 11
17.8222122108
 21
48.0418640505
  0
LINE
  5
228
100
AcDbEntity
  8
0
100
AcDbLine
 62
7
  6
BYLAYER
 10
23.0273063917
 20
50.2304286201
 11
25.458901269
 21
51.6343021971
  0
LINE
  5
229
100
AcDbEntity
  8
0
100
AcDbLine
 62
7
  6
BYLAYER
 10
14.3453056092
 20
38.692222037
 11
17.3812474974
 21
43.8671191594
  0
LINE
  5
22A
100
AcDbEntity
  8
0
100
AcDbLine
 62
7
  6
BYLAYER
 10
26.0246137785
 20
47.8784729783
 11
23.6911740596
 21
46.5312689702
  0
LINE
  5
22B
100
AcDbEntity
  8
0
100
AcDbLine
 62
7
  6
BYLAYER
 10
26.3074553134
 20
48.0417706398
 11
28.9944498948
 21
49.5930984245
  0
LINE
  5
22C
100
AcDbEntity
  8
0
100
AcDbLine
 62
7
  6
BYLAYER
 10
29.3480047573
 20
49.3889780473
 11
23.6911740596
 21
46.1230248163
  0
LINE
  5
22D
100
AcDbEntity
  8
0
100
AcDbLine
 62
7
  6
BYLAYER
 10
15.0163579206
 20
13.02696413
 11
15.0163579206
 21
14.0067670306
  0
LINE
  5
22E
100
AcDbEntity
  8
0
100
AcDbLine
 62
7
  6
BYLAYER
 10
16.7841175137
 20
11.3531165381
 11
16.7841175137
 21
14.0475745147
  0
LINE
  5
22F
100
AcDbEntity
  8
0
100
AcDbLine
 62
7
  6
BYLAYER
 10
12.3151948024
 20
29.3807921076
 11
7.3432191927
 21
23.4099855451
  0
LINE
  5
230
100
AcDbEntity
  8
0
100
AcDbLine
 62
7
  6
BYLAYER
 10
26.0245813948
 20
57.6764056858
 11
25.1053464065
 21
54.2062795841
  0
LINE
  5
231
100
AcDbEntity
  8
0
100
AcDbLine
 62
7
  6
BYLAYER
 10
10.8989927891
 20
35.9871529746
 11
7.3634441634
 21
38.0283567472
  0
LINE
  5
232
100
AcDbEntity
  8
0
100
AcDbLine
 62
7
  6
BYLAYER
 10
6.6980855802
 20
38.7615417668
 11
10.9407439311
 21
36.3120972396
  0
LINE
  5
233
100
AcDbEntity
  8
0
100
AcDbLine
 62
7
  6
BYLAYER
 10
38.3507845487
 20
21.5183564633
 11
34.1081261978
 21
23.9678009904
  0
LINE
  5
234
100
AcDbEntity
  8
0
100
AcDbLine
 62
7
  6
BYLAYER
 10
23.6911740596
 20
46.1230248163
 11
23.6911740596
 21
48.490881826
  0
LINE
  5
235
100
AcDbEntity
  8
0
100
AcDbLine
 62
7
  6
BYLAYER
 10
29.3480047573
 20
51.7568350569
 11
30.2672397457
 21
55.2269611586
  0
LINE
  5
236
100
AcDbEntity
  8
0
100
AcDbLine
 62
7
  6
BYLAYER
 10
35.9330133392
 20
57.8075680479
 11
35.8973150103
 21
57.7447301232
  0
LINE
  5
237
100
AcDbEntity
  8
0
100
AcDbLine
 62
7
  6
BYLAYER
 10
37.139729802
 20
57.0274378361
 11
35.6579313196
 21
54.4191044973
  0
LINE
  5
238
100
AcDbEntity
  8
0
100
AcDbLine
 62
7
  6
BYLAYER
 10
12.8635071268
 20
39.5895320838
 11
8.620848776
 21
42.038976611
  0
LINE
  5
239
100
AcDbEntity
  8
0
100
AcDbLine
 62
7
  6
BYLAYER
 10
12.8635071269
 20
39.5895320838
 11
14.3453056092
 21
38.692222037
  0
LINE
  5
23A
100
AcDbEntity
  8
0
100
AcDbLine
 62
7
  6
BYLAYER
 10
25.1053464065
 20
54.2062795841
 11
25.1053464065
 21
51.8384225744
  0
LINE
  5
23B
100
AcDbEntity
  8
0
100
AcDbLine
 62
7
  6
BYLAYER
 10
25.458901269
 20
48.5316724627
 11
25.458901269
 21
51.6343021971
  0
LINE
  5
23C
100
AcDbEntity
  8
0
100
AcDbLine
 62
7
  6
BYLAYER
 10
42.3105660371
 20
25.6824792843
 11
41.3271526193
 21
26.2502404413
  0
LINE
  5
23D
100
AcDbEntity
  8
0
100
AcDbLine
 62
7
  6
BYLAYER
 10
16.7841175137
 20
11.3531165381
 11
15.0163579206
 21
8.0462993855
  0
LINE
  5
23E
100
AcDbEntity
  8
0
100
AcDbLine
 62
7
  6
BYLAYER
 10
38.6938732077
 20
52.749790182
 11
40.1756716901
 21
55.3581235208
  0
LINE
  5
23F
100
AcDbEntity
  8
0
100
AcDbLine
 62
7
  6
BYLAYER
 10
42.3105660371
 20
27.1521836352
 11
41.2382879031
 21
27.7712496994
  0
LINE
  5
240
100
AcDbEntity
  8
0
100
AcDbLine
 62
7
  6
BYLAYER
 10
11.6567906641
 20
47.2138737334
 11
13.1385891465
 21
46.3165636866
  0
LINE
  5
241
100
AcDbEntity
  8
0
100
AcDbLine
 62
7
  6
BYLAYER
 10
17.3812474974
 20
43.8671191594
 11
15.899449015
 21
44.7644292063
  0
LINE
  5
242
100
AcDbEntity
  8
0
100
AcDbLine
 62
7
  6
BYLAYER
 10
22.7719390713
 20
50.8995731276
 11
23.6911740596
 21
48.490881826
  0
LINE
  5
243
100
AcDbEntity
  8
0
100
AcDbLine
 62
7
  6
BYLAYER
 10
29.3480047573
 20
51.7568350569
 11
29.3480047573
 21
49.3889780473
  0
LINE
  5
244
100
AcDbEntity
  8
0
100
AcDbLine
 62
7
  6
BYLAYER
 10
17.3812474974
 20
43.8671191594
 11
13.1385891465
 21
46.3165636866
  0
LINE
  5
245
100
AcDbEntity
  8
0
100
AcDbLine
 62
7
  6
BYLAYER
 10
15.899449015
 20
44.7644292063
 11
11.6567906641
 21
47.2138737334
  0
LINE
  5
246
100
AcDbEntity
  8
0
100
AcDbLine
 62
7
  6
BYLAYER
 10
43.5126425604
 20
29.0709523225
 11
40.8924935266
 21
30.5836618504
  0
LINE
  5
247
100
AcDbEntity
  8
0
100
AcDbLine
 62
7
  6
BYLAYER
 10
40.3306752929
 20
33.3576217585
 11
42.4519868045
 21
34.5823542201
  0
LINE
  5
248
100
AcDbEntity
  8
0
100
AcDbLine
 62
7
  6
BYLAYER
 10
17.8222122108
 20
48.0418640505
 11
13.5795538599
 21
50.4913085776
  0
LINE
  5
249
100
AcDbEntity
  8
0
100
AcDbLine
 62
7
  6
BYLAYER
 10
34.1081261978
 20
25.0293387888
 11
34.1081261978
 21
23.9678009904
  0
LINE
  5
24A
100
AcDbEntity
  8
0
100
AcDbLine
 62
7
  6
BYLAYER
 10
15.0163579206
 20
14.0067670306
 11
38.3507845487
 21
27.4788241083
  0
LINE
  5
24B
100
AcDbEntity
  8
0
100
AcDbLine
 62
7
  6
BYLAYER
 10
23.3315175075
 20
49.4332976604
 11
26.0246137785
 21
47.8784729783
  0
LINE
  5
24C
100
AcDbEntity
  8
0
100
AcDbLine
 62
7
  6
BYLAYER
 10
26.3074553134
 20
48.0417706398
 11
23.1716569605
 21
49.852183706
  0
LINE
  5
24D
100
AcDbEntity
  8
0
100
AcDbLine
 62
7
  6
BYLAYER
 10
38.3507845487
 20
27.4788241083
 11
38.3507845487
 21
21.5183564633
  0
LINE
  5
24E
100
AcDbEntity
  8
0
100
AcDbLine
 62
7
  6
BYLAYER
 10
16.7841175137
 20
14.0475745147
 11
15.0163579206
 21
13.02696413
  0
LINE
  5
24F
100
AcDbEntity
  8
0
100
AcDbLine
 62
7
  6
BYLAYER
 10
22.7719390713
 20
50.8995731276
 11
18.5292807204
 21
53.3490176547
  0
LINE
  5
250
100
AcDbEntity
  8
0
100
AcDbLine
 62
7
  6
BYLAYER
 10
42.3105660371
 20
25.6824792843
 11
41.3913310487
 21
25.1517618843
  0
LINE
  5
251
100
AcDbEntity
  8
0
100
AcDbLine
 62
7
  6
BYLAYER
 10
29.3480047573
 20
49.3889780473
 11
28.9944498948
 21
49.5930984245
  0
LINE
  5
252
100
AcDbEntity
  8
0
100
AcDbLine
 62
7
  6
BYLAYER
 10
25.458901269
 20
51.6343021971
 11
25.1053464065
 21
51.8384225744
  0
LINE
  5
253
100
AcDbEntity
  8
0
100
AcDbLine
 62
7
  6
BYLAYER
 10
29.3480047573
 20
51.7568350569
 11
25.1053464065
 21
54.2062795841
  0
LINE
  5
254
100
AcDbEntity
  8
0
100
AcDbLine
 62
7
  6
BYLAYER
 10
42.3105660371
 20
27.1521836352
 11
42.3105660371
 21
25.6824792843
  0
LINE
  5
255
100
AcDbEntity
  8
0
100
AcDbLine
 62
7
  6
BYLAYER
 10
42.4519868045
 20
34.5823542201
 11
42.4519868045
 21
38.9914672726
  0
LINE
  5
256
100
AcDbEntity
  8
0
100
AcDbLine
 62
7
  6
BYLAYER
 10
43.5126425604
 20
24.4985387865
 11
43.5126425604
 21
29.0709523225
  0
LINE
  5
257
100
AcDbEntity
  8
0
100
AcDbLine
 62
7
  6
BYLAYER
 10
42.3105660371
 20
27.1521836352
 11
43.5126425604
 21
29.0709523225
  0
LINE
  5
258
100
AcDbEntity
  8
0
100
AcDbLine
 62
7
  6
BYLAYER
 10
38.3507845487
 20
21.5183564633
 11
43.5126425604
 21
24.4985387865
  0
LINE
  5
259
100
AcDbEntity
  8
0
100
AcDbLine
 62
7
  6
BYLAYER
 10
30.2672397457
 20
55.2269611586
 11
26.0245813948
 21
57.6764056858
  0
LINE
  5
25A
100
AcDbEntity
  8
0
100
AcDbLine
 62
7
  6
BYLAYER
 10
35.6579313196
 20
54.4191044973
 11
38.6938732077
 21
52.749790182
  0
LINE
  5
25B
100
AcDbEntity
  8
0
100
AcDbLine
 62
7
  6
BYLAYER
 10
38.6938732077
 20
52.749790182
 11
35.6940649108
 21
54.4816911289
  0
LINE
  5
25C
100
AcDbEntity
  8
0
100
AcDbLine
 62
7
  6
BYLAYER
 10
35.2169666062
 20
58.0846702357
 11
37.139729802
 21
57.0274378361
  0
LINE
  5
25D
100
AcDbEntity
  8
0
100
AcDbLine
 62
7
  6
BYLAYER
 10
40.1756716901
 20
55.3581235208
 11
42.0984348859
 21
54.3008911211
  0
LINE
  5
25E
100
AcDbEntity
  8
0
100
AcDbLine
 62
7
  6
BYLAYER
 10
37.855776535
 20
56.7503356483
 11
35.9330133392
 21
57.8075680479
  0
LINE
  5
25F
100
AcDbEntity
  8
0
100
AcDbLine
 62
7
  6
BYLAYER
 10
32.8970714511
 20
59.4768823632
 11
30.9743082553
 21
60.5341147629
  0
LINE
  5
260
100
AcDbEntity
  8
0
100
AcDbLine
 62
7
  6
BYLAYER
 10
35.2169666062
 20
58.0846702357
 11
30.9743082553
 21
60.5341147629
  0
LINE
  5
261
100
AcDbEntity
  8
0
100
AcDbLine
 62
7
  6
BYLAYER
 10
37.139729802
 20
57.0274378361
 11
32.8970714511
 21
59.4768823632
  0
LINE
  5
262
100
AcDbEntity
  8
0
100
AcDbLine
 62
7
  6
BYLAYER
 10
40.1756716901
 20
55.3581235208
 11
35.9330133392
 21
57.8075680479
  0
LINE
  5
263
100
AcDbEntity
  8
0
100
AcDbLine
 62
7
  6
BYLAYER
 10
37.855776535
 20
56.7503356483
 11
42.0984348859
 21
54.3008911211
  0
ARC
  5
264
100
AcDbEntity
  8
0
100
AcDbCircle
 62
7
  6
BYLAYER
 10
3.513042457
 20
31.5818235393
 40
8.8060342077
100
AcDbArc
 50
30.7591659919
 51
32.4907041588
  0
SPLINE
  5
265
100
AcDbEntity
  8
0
100
AcDbSpline
 62
7
  6
BYLAYER
 70
0
 71
3
 72
22
 73
18
 74
0
 42
0.0000001
 43
0.0000001
 44
0.0000000001
 40
0.0
 40
0.0
 40
0.0
 40
0.0
 40
0.0428175103
 40
0.0874041647
 40
0.1351908043
 40
0.1871074332
 40
0.2435596013
 40
0.3045226967
 40
0.369629057
 40
0.4382440187
 40
0.5095517912
 40
0.5825953496
 40
0.7296191708
 40
0.8016144505
 40
0.871226825
 40
0.9376269186
 40
1.0
 40
1.0
 40
1.0
 40
1.0
 10
15.6722049096
 20
50.7770884926
 30
0.0
 10
15.672215302
 20
50.7158865774
 30
0.0
 10
15.6885500576
 20
50.5904180556
 30
0.0
 10
15.7605466179
 20
50.4092747132
 30
0.0
 10
15.8772676091
 20
50.2375122633
 30
0.0
 10
16.0355411682
 20
50.0786090154
 30
0.0
 10
16.2316317435
 20
49.9353157493
 30
0.0
 10
16.4613863776
 20
49.8103297149
 30
0.0
 10
16.7200159415
 20
49.7061619501
 30
0.0
 10
17.0020477359
 20
49.6248529078
 30
0.0
 10
17.3015808726
 20
49.5681674935
 30
0.0
 10
17.7163950295
 20
49.5269338309
 30
0.0
 10
18.1361417317
 20
49.538515833
 30
0.0
 10
18.5440257282
 20
49.6031236009
 30
0.0
 10
18.8326777103
 20
49.6763829717
 30
0.0
 10
19.0996942717
 20
49.7732101266
 30
0.0
 10
19.2652686556
 20
49.8547940735
 30
0.0
 10
19.3424783952
 20
49.8993708714
 30
0.0
  0
SPLINE
  5
266
100
AcDbEntity
  8
0
100
AcDbSpline
 62
7
  6
BYLAYER
 70
0
 71
3
 72
22
 73
18
 74
0
 42
0.0000001
 43
0.0000001
 44
0.0000000001
 40
0.0
 40
0.0
 40
0.0
 40
0.0
 40
0.0428175103
 40
0.0874041647
 40
0.1351908043
 40
0.1871074332
 40
0.2435596013
 40
0.3045226967
 40
0.369629057
 40
0.4382440187
 40
0.5095517912
 40
0.5825953496
 40
0.7296191708
 40
0.8016144505
 40
0.871226825
 40
0.9376269186
 40
1.0
 40
1.0
 40
1.0
 40
1.0
 10
28.4707843632
 20
58.1663076777
 30
0.0
 10
28.4707947555
 20
58.1051057625
 30
0.0
 10
28.4871295111
 20
57.9796372407
 30
0.0
 10
28.5591260715
 20
57.7984938983
 30
0.0
 10
28.6758470627
 20
57.6267314484
 30
0.0
 10
28.8341206218
 20
57.4678282005
 30
0.0
 10
29.0302111971
 20
57.3245349344
 30
0.0
 10
29.2599658311
 20
57.1995488999
 30
0.0
 10
29.5185953951
 20
57.0953811352
 30
0.0
 10
29.8006271895
 20
57.0140720929
 30
0.0
 10
30.1001603262
 20
56.9573866785
 30
0.0
 10
30.5149744831
 20
56.916153016
 30
0.0
 10
30.9347211853
 20
56.927735018
 30
0.0
 10
31.3426051818
 20
56.992342786
 30
0.0
 10
31.6312571639
 20
57.0656021567
 30
0.0
 10
31.8982737253
 20
57.1624293117
 30
0.0
 10
32.0638481091
 20
57.2440132586
 30
0.0
 10
32.1410578488
 20
57.2885900565
 30
0.0
  0
SPLINE
  5
267
100
AcDbEntity
  8
0
100
AcDbSpline
 62
7
  6
BYLAYER
 70
0
 71
3
 72
12
 73
8
 74
0
 42
0.0000001
 43
0.0000001
 44
0.0000000001
 40
0.0
 40
0.0
 40
0.0
 40
0.0
 40
0.2246490661
 40
0.3428884582
 40
0.4653663472
 40
0.723599582
 40
1.0
 40
1.0
 40
1.0
 40
1.0
 10
6.6980855802
 20
38.7615417668
 30
0.0
 10
6.9912571339
 20
38.3013121731
 30
0.0
 10
7.3729645705
 20
37.55499884
 30
0.0
 10
7.764851953
 20
36.4940866198
 30
0.0
 10
8.0987721662
 20
35.3278722573
 30
0.0
 10
8.3733952685
 20
33.7506294751
 30
0.0
 10
8.4402569069
 20
32.4506334771
 30
0.0
 10
8.4402569069
 20
31.7792542997
 30
0.0
  0
SPLINE
  5
268
100
AcDbEntity
  8
0
100
AcDbSpline
 62
7
  6
BYLAYER
 70
0
 71
3
 72
14
 73
10
 74
0
 42
0.0000001
 43
0.0000001
 44
0.0000000001
 40
0.0
 40
0.0
 40
0.0
 40
0.0
 40
0.1129662458
 40
0.230130136
 40
0.3511431045
 40
0.4756741592
 40
0.6033065289
 40
0.7335817264
 40
1.0
 40
1.0
 40
1.0
 40
1.0
 10
8.4402569069
 20
31.7792542997
 30
0.0
 10
8.4402569069
 20
31.3260129853
 30
0.0
 10
8.4080339945
 20
30.4024536139
 30
0.0
 10
8.2698997382
 20
28.999566743
 30
0.0
 10
8.0417672267
 20
27.5614823061
 30
0.0
 10
7.7251405192
 20
26.0973620328
 30
0.0
 10
7.3220607024
 20
24.6160837919
 30
0.0
 10
6.6678037351
 20
22.6160713254
 30
0.0
 10
6.0623533349
 20
21.1406926506
 30
0.0
 10
5.6118415581
 20
20.1713490549
 30
0.0
  0
SPLINE
  5
269
100
AcDbEntity
  8
0
100
AcDbSpline
 62
7
  6
BYLAYER
 70
0
 71
3
 72
13
 73
9
 74
0
 42
0.0000001
 43
0.0000001
 44
0.0000000001
 40
0.0
 40
0.0
 40
0.0
 40
0.0
 40
0.2893488869
 40
0.5483248098
 40
0.6677505165
 40
0.7817645106
 40
0.8919054767
 40
1.0
 40
1.0
 40
1.0
 40
1.0
 10
19.3424783952
 20
49.8993708714
 30
0.0
 10
19.4368317394
 20
49.9538454749
 30
0.0
 10
19.6079510658
 20
50.0716200452
 30
0.0
 10
19.7829579545
 20
50.2557165309
 30
0.0
 10
19.8815051605
 20
50.4134413698
 30
0.0
 10
19.9335316555
 20
50.5324482735
 30
0.0
 10
19.9651148816
 20
50.6540462599
 30
0.0
 10
19.972186974
 20
50.7363872316
 30
0.0
 10
19.9721800628
 20
50.7770884946
 30
0.0
  0
SPLINE
  5
26A
100
AcDbEntity
  8
0
100
AcDbSpline
 62
7
  6
BYLAYER
 70
0
 71
3
 72
13
 73
9
 74
0
 42
0.0000001
 43
0.0000001
 44
0.0000000001
 40
0.0
 40
0.0
 40
0.0
 40
0.0
 40
0.2893488869
 40
0.5483248098
 40
0.6677505165
 40
0.7817645106
 40
0.8919054767
 40
1.0
 40
1.0
 40
1.0
 40
1.0
 10
32.1410578488
 20
57.2885900565
 30
0.0
 10
32.235411193
 20
57.34306466
 30
0.0
 10
32.4065305194
 20
57.4608392302
 30
0.0
 10
32.5815374081
 20
57.644935716
 30
0.0
 10
32.6800846141
 20
57.8026605548
 30
0.0
 10
32.7321111091
 20
57.9216674585
 30
0.0
 10
32.7636943351
 20
58.043265445
 30
0.0
 10
32.7707664276
 20
58.1256064166
 30
0.0
 10
32.7707595163
 20
58.1663076797
 30
0.0
  0
SPLINE
  5
26B
100
AcDbEntity
  8
0
100
AcDbSpline
 62
7
  6
BYLAYER
 70
0
 71
3
 72
11
 73
7
 74
0
 42
0.0000001
 43
0.0000001
 44
0.0000000001
 40
0.0
 40
0.0
 40
0.0
 40
0.0
 40
0.2652806084
 40
0.5216928831
 40
0.7671571611
 40
1.0
 40
1.0
 40
1.0
 40
1.0
 10
42.0984348859
 20
54.3008911211
 30
0.0
 10
41.8414922485
 20
53.5938364719
 30
0.0
 10
41.387083886
 20
52.1841427168
 30
0.0
 10
40.8842250154
 20
50.0650761721
 30
0.0
 10
40.576850142
 20
48.0017158222
 30
0.0
 10
40.503336982
 20
46.6446223579
 30
0.0
 10
40.503336982
 20
45.9843170326
 30
0.0
  0
SPLINE
  5
26C
100
AcDbEntity
  8
0
100
AcDbSpline
 62
7
  6
BYLAYER
 70
0
 71
3
 72
15
 73
11
 74
0
 42
0.0000001
 43
0.0000001
 44
0.0000000001
 40
0.0
 40
0.0
 40
0.0
 40
0.0
 40
0.1419152996
 40
0.2788978103
 40
0.4108050416
 40
0.5376911698
 40
0.6597262117
 40
0.7771927593
 40
0.8904700795
 40
1.0
 40
1.0
 40
1.0
 40
1.0
 10
40.503336982
 20
45.9843170326
 30
0.0
 10
40.503336982
 20
45.6352112108
 30
0.0
 10
40.5230956368
 20
44.9489288988
 30
0.0
 10
40.6152982223
 20
43.9418950875
 30
0.0
 10
40.7694321207
 20
42.9797676827
 30
0.0
 10
40.9846833473
 20
42.0670913077
 30
0.0
 10
41.2602710277
 20
41.20790938
 30
0.0
 10
41.5950250397
 20
40.4060008167
 30
0.0
 10
41.9876145047
 20
39.6653705868
 30
0.0
 10
42.2912692319
 20
39.2077247562
 30
0.0
 10
42.4519868045
 20
38.9914672726
 30
0.0
  0
SPLINE
  5
26D
100
AcDbEntity
  8
0
100
AcDbSpline
 62
7
  6
BYLAYER
 70
0
 71
3
 72
10
 73
6
 74
0
 42
0.0000001
 43
0.0000001
 44
0.0000000001
 40
0.0
 40
0.0
 40
0.0
 40
0.0
 40
0.484734757
 40
0.7385915188
 40
1.0
 40
1.0
 40
1.0
 40
1.0
 10
40.3306752929
 20
33.3576217585
 30
0.0
 10
40.6556881549
 20
32.0585028463
 30
0.0
 10
41.0249983506
 20
30.0455456176
 30
0.0
 10
41.3029581686
 20
27.2963002176
 30
0.0
 10
41.3730872961
 20
25.8737143615
 30
0.0
 10
41.3913310487
 20
25.1517618843
 30
0.0
  0
SPLINE
  5
26E
100
AcDbEntity
  8
0
100
AcDbSpline
 62
7
  6
BYLAYER
 70
0
 71
3
 72
11
 73
7
 74
0
 42
0.0000001
 43
0.0000001
 44
0.0000000001
 40
0.0
 40
0.0
 40
0.0
 40
0.0
 40
0.2337644288
 40
0.4793286692
 40
0.7353118195
 40
1.0
 40
1.0
 40
1.0
 40
1.0
 10
12.3293603953
 20
29.5339301499
 30
0.0
 10
12.3293603953
 20
28.8851137004
 30
0.0
 10
12.263082908
 20
27.5541322814
 30
0.0
 10
11.9842844688
 20
25.5301727371
 30
0.0
 10
11.5271569929
 20
23.4511015428
 30
0.0
 10
11.1131129799
 20
22.0650480519
 30
0.0
 10
10.8787678185
 20
21.3687817725
 30
0.0
  0
SPLINE
  5
26F
100
AcDbEntity
  8
0
100
AcDbSpline
 62
7
  6
BYLAYER
 70
0
 71
3
 72
11
 73
7
 74
0
 42
0.0000001
 43
0.0000001
 44
0.0000000001
 40
0.0
 40
0.0
 40
0.0
 40
0.0
 40
0.2268574774
 40
0.4685143891
 40
0.7261455469
 40
1.0
 40
1.0
 40
1.0
 40
1.0
 10
10.8989927891
 20
35.9871529746
 30
0.0
 10
11.1403551461
 20
35.5439846424
 30
0.0
 10
11.5646874243
 20
34.5870311532
 30
0.0
 10
12.008275609
 20
33.0293843432
 30
0.0
 10
12.2740798552
 20
31.3264411249
 30
0.0
 10
12.3293603953
 20
30.1431049425
 30
0.0
 10
12.3293603953
 20
29.5339301499
 30
0.0
  0
SPLINE
  5
270
100
AcDbEntity
  8
0
100
AcDbSpline
 62
7
  6
BYLAYER
 70
0
 71
3
 72
13
 73
9
 74
0
 42
0.0000001
 43
0.0000001
 44
0.0000000001
 40
0.0
 40
0.0
 40
0.0
 40
0.0
 40
0.2893488869
 40
0.5483248098
 40
0.6677505165
 40
0.7817645106
 40
0.8919054767
 40
1.0
 40
1.0
 40
1.0
 40
1.0
 10
16.3019065771
 20
51.6548061158
 30
0.0
 10
16.2075532329
 20
51.6003315123
 30
0.0
 10
16.0364339065
 20
51.4825569421
 30
0.0
 10
15.8614270178
 20
51.2984604563
 30
0.0
 10
15.7628798118
 20
51.1407356175
 30
0.0
 10
15.7108533169
 20
51.0217287138
 30
0.0
 10
15.6792700908
 20
50.9001307273
 30
0.0
 10
15.6721979984
 20
50.8177897557
 30
0.0
 10
15.6722049096
 20
50.7770884926
 30
0.0
  0
SPLINE
  5
271
100
AcDbEntity
  8
0
100
AcDbSpline
 62
7
  6
BYLAYER
 70
0
 71
3
 72
14
 73
10
 74
0
 42
0.0000001
 43
0.0000001
 44
0.0000000001
 40
0.0
 40
0.0
 40
0.0
 40
0.0
 40
0.2664182736
 40
0.3966934711
 40
0.5243258408
 40
0.6488568955
 40
0.769869864
 40
0.8870337542
 40
1.0
 40
1.0
 40
1.0
 40
1.0
 10
9.854499909
 20
17.7219045278
 30
0.0
 10
10.3050116858
 20
18.6912481235
 30
0.0
 10
10.910462086
 20
20.1666267983
 30
0.0
 10
11.5647190533
 20
22.1666392647
 30
0.0
 10
11.9677988701
 20
23.6479175057
 30
0.0
 10
12.2844255776
 20
25.112037779
 30
0.0
 10
12.5125580891
 20
26.5501222158
 30
0.0
 10
12.6506923454
 20
27.9530090868
 30
0.0
 10
12.6829152578
 20
28.8765684581
 30
0.0
 10
12.6829152578
 20
29.3298097726
 30
0.0
  0
SPLINE
  5
272
100
AcDbEntity
  8
0
100
AcDbSpline
 62
7
  6
BYLAYER
 70
0
 71
3
 72
12
 73
8
 74
0
 42
0.0000001
 43
0.0000001
 44
0.0000000001
 40
0.0
 40
0.0
 40
0.0
 40
0.0
 40
0.2752739927
 40
0.5332405866
 40
0.6558651111
 40
0.7744048399
 40
1.0
 40
1.0
 40
1.0
 40
1.0
 10
12.6829152578
 20
29.3298097726
 30
0.0
 10
12.6829152578
 20
29.9740940484
 30
0.0
 10
12.6212226001
 20
31.2233467499
 30
0.0
 10
12.3688740043
 20
32.7417832815
 30
0.0
 10
12.0621231264
 20
33.8700149579
 30
0.0
 10
11.7014839302
 20
34.9017821968
 30
0.0
 10
11.3503429482
 20
35.6317774412
 30
0.0
 10
11.0802843286
 20
36.0854985858
 30
0.0
  0
SPLINE
  5
273
100
AcDbEntity
  8
0
100
AcDbSpline
 62
7
  6
BYLAYER
 70
0
 71
3
 72
22
 73
18
 74
0
 42
0.0000001
 43
0.0000001
 44
0.0000000001
 40
0.0
 40
0.0
 40
0.0
 40
0.0
 40
0.0428175103
 40
0.0874041647
 40
0.1351908043
 40
0.1871074332
 40
0.2435596013
 40
0.3045226967
 40
0.369629057
 40
0.4382440187
 40
0.5095517912
 40
0.5825953496
 40
0.7296191708
 40
0.8016144505
 40
0.871226825
 40
0.9376269186
 40
1.0
 40
1.0
 40
1.0
 40
1.0
 10
32.7707595163
 20
58.1663076797
 30
0.0
 10
32.770749124
 20
58.2275095949
 30
0.0
 10
32.7544143684
 20
58.3529781167
 30
0.0
 10
32.682417808
 20
58.5341214591
 30
0.0
 10
32.5656968169
 20
58.705883909
 30
0.0
 10
32.4074232577
 20
58.8647871569
 30
0.0
 10
32.2113326824
 20
59.008080423
 30
0.0
 10
31.9815780484
 20
59.1330664574
 30
0.0
 10
31.7229484845
 20
59.2372342222
 30
0.0
 10
31.4409166901
 20
59.3185432645
 30
0.0
 10
31.1413835534
 20
59.3752286788
 30
0.0
 10
30.7265693964
 20
59.4164623414
 30
0.0
 10
30.3068226942
 20
59.4048803393
 30
0.0
 10
29.8989386977
 20
59.3402725714
 30
0.0
 10
29.6102867156
 20
59.2670132006
 30
0.0
 10
29.3432701543
 20
59.1701860457
 30
0.0
 10
29.1776957704
 20
59.0886020988
 30
0.0
 10
29.1004860307
 20
59.0440253009
 30
0.0
  0
SPLINE
  5
274
100
AcDbEntity
  8
0
100
AcDbSpline
 62
7
  6
BYLAYER
 70
0
 71
3
 72
11
 73
7
 74
0
 42
0.0000001
 43
0.0000001
 44
0.0000000001
 40
0.0
 40
0.0
 40
0.0
 40
0.0
 40
0.2738544531
 40
0.5314856109
 40
0.7731425226
 40
1.0
 40
1.0
 40
1.0
 40
1.0
 10
8.7938117695
 20
31.5751339225
 30
0.0
 10
8.7938117695
 20
32.1843087151
 30
0.0
 10
8.7385312295
 20
33.3676448975
 30
0.0
 10
8.4727269832
 20
35.0705881158
 30
0.0
 10
8.0291387986
 20
36.6282349258
 30
0.0
 10
7.6048065204
 20
37.585188415
 30
0.0
 10
7.3634441634
 20
38.0283567472
 30
0.0
  0
SPLINE
  5
275
100
AcDbEntity
  8
0
100
AcDbSpline
 62
7
  6
BYLAYER
 70
0
 71
3
 72
11
 73
7
 74
0
 42
0.0000001
 43
0.0000001
 44
0.0000000001
 40
0.0
 40
0.0
 40
0.0
 40
0.0
 40
0.2646881805
 40
0.5206713308
 40
0.7662355712
 40
1.0
 40
1.0
 40
1.0
 40
1.0
 10
7.3432191927
 20
23.4099855451
 30
0.0
 10
7.5775643542
 20
24.1062518245
 30
0.0
 10
7.9916083672
 20
25.4923053154
 30
0.0
 10
8.448735843
 20
27.5713765097
 30
0.0
 10
8.7275342823
 20
29.595336054
 30
0.0
 10
8.7938117695
 20
30.926317473
 30
0.0
 10
8.7938117695
 20
31.5751339225
 30
0.0
  0
SPLINE
  5
276
100
AcDbEntity
  8
0
100
AcDbSpline
 62
7
  6
BYLAYER
 70
0
 71
3
 72
22
 73
18
 74
0
 42
0.0000001
 43
0.0000001
 44
0.0000000001
 40
0.0
 40
0.0
 40
0.0
 40
0.0
 40
0.0428175103
 40
0.0874041647
 40
0.1351908043
 40
0.1871074332
 40
0.2435596013
 40
0.3045226967
 40
0.369629057
 40
0.4382440187
 40
0.5095517912
 40
0.5825953496
 40
0.7296191708
 40
0.8016144505
 40
0.871226825
 40
0.9376269186
 40
1.0
 40
1.0
 40
1.0
 40
1.0
 10
19.9721800628
 20
50.7770884946
 30
0.0
 10
19.9721696704
 20
50.8382904098
 30
0.0
 10
19.9558349148
 20
50.9637589316
 30
0.0
 10
19.8838383544
 20
51.144902274
 30
0.0
 10
19.7671173633
 20
51.3166647239
 30
0.0
 10
19.6088438042
 20
51.4755679718
 30
0.0
 10
19.4127532289
 20
51.6188612379
 30
0.0
 10
19.1829985948
 20
51.7438472724
 30
0.0
 10
18.9243690309
 20
51.8480150371
 30
0.0
 10
18.6423372365
 20
51.9293240794
 30
0.0
 10
18.3428040998
 20
51.9860094938
 30
0.0
 10
17.9279899428
 20
52.0272431563
 30
0.0
 10
17.5082432406
 20
52.0156611543
 30
0.0
 10
17.1003592442
 20
51.9510533863
 30
0.0
 10
16.8117072621
 20
51.8777940156
 30
0.0
 10
16.5446907007
 20
51.7809668606
 30
0.0
 10
16.3791163168
 20
51.6993829137
 30
0.0
 10
16.3019065771
 20
51.6548061158
 30
0.0
  0
SPLINE
  5
277
100
AcDbEntity
  8
0
100
AcDbSpline
 62
7
  6
BYLAYER
 70
0
 71
3
 72
13
 73
9
 74
0
 42
0.0000001
 43
0.0000001
 44
0.0000000001
 40
0.0
 40
0.0
 40
0.0
 40
0.0
 40
0.2893488869
 40
0.5483248098
 40
0.6677505165
 40
0.7817645106
 40
0.8919054767
 40
1.0
 40
1.0
 40
1.0
 40
1.0
 10
29.1004860307
 20
59.0440253009
 30
0.0
 10
29.0061326865
 20
58.9895506974
 30
0.0
 10
28.8350133601
 20
58.8717761271
 30
0.0
 10
28.6600064714
 20
58.6876796414
 30
0.0
 10
28.5614592654
 20
58.5299548025
 30
0.0
 10
28.5094327704
 20
58.4109478988
 30
0.0
 10
28.4778495444
 20
58.2893499124
 30
0.0
 10
28.4707774519
 20
58.2070089407
 30
0.0
 10
28.4707843632
 20
58.1663076777
 30
0.0
  0
ENDSEC
  0
SECTION
  2
OBJECTS
  0
DICTIONARY
  5
C
100
AcDbDictionary
280
0
281
1
  3
ACAD_GROUP
350
D
  3
ACAD_MLINESTYLE
350
17
  3
ACAD_LAYOUT
350
1A
  3
ACAD_PLOTSETTINGS
350
19
  3
ACAD_PLOTSTYLENAME
350
E
  0
DICTIONARY
  5
D
102
{ACAD_REACTORS
330
C
102
}
100
AcDbDictionary
280
0
281
1
  0
ACDBDICTIONARYWDFLT
  5
E
102
{ACAD_REACTORS
330
C
102
}
100
AcDbDictionary
281
1
  3
Normal
350
F
100
AcDbDictionaryWithDefault
340
F
  0
DICTIONARY
  5
17
102
{ACAD_REACTORS
330
C
102
}
100
AcDbDictionary
280
0
281
1
  3
Standard
350
18
  0
DICTIONARY
  5
19
102
{ACAD_REACTORS
330
C
102
}
100
AcDbDictionary
281
1
  0
DICTIONARY
  5
1A
102
{ACAD_REACTORS
330
C
102
}
100
AcDbDictionary
281
1
  3
Model
350
278
  3
Layout1
350
279
  0
ACDBPLACEHOLDER
  5
F
102
{ACAD_REACTORS
330
E
102
}
  0
MLINESTYLE
  5
18
102
{ACAD_REACTORS
330
17
102
}
100
AcDbMlineStyle
  2
STANDARD
 70
0
  3

 62
256
 51
90.0
 52
90.0
 71
2
 49
0.5
 62
256
  6
BYLAYER
 49
-0.5
 62
256
  6
BYLAYER
  0
LAYOUT
  5
278
102
{ACAD_REACTORS
330
1A
102
}
100
AcDbPlotSettings
  1

  2
none_device
  4

  6

 40
0.0
 41
0.0
 42
0.0
 43
0.0
 44
210.0
 45
297.0
 46
0.0
 47
0.0
 48
0.0
 49
0.0
140
0.0
141
0.0
142
1.0
143
1.0
 70
1024
 72
1
 73
0
 74
0
  7

 75
0
147
1.0
148
0.0
149
0.0
100
AcDbLayout
  1
Model
 70
0
 71
0
 10
0.0
 20
0.0
 11
210.0
 21
297.0
 12
0.0
 22
0.0
 32
0.0
 14
0.0
 24
0.0
 34
0.0
 15
0.0
 25
0.0
 35
0.0
146
0.0
 13
0.0
 23
0.0
 33
0.0
 16
1.0
 26
0.0
 36
0.0
 17
0.0
 27
1.0
 37
0.0
 76
0
330
210
345
0
346
0
  0
LAYOUT
  5
279
102
{ACAD_REACTORS
330
1A
102
}
100
AcDbPlotSettings
  1

  2
none_device
  4

  6

 40
0.0
 41
0.0
 42
0.0
 43
0.0
 44
210.0
 45
297.0
 46
0.0
 47
0.0
 48
0.0
 49
0.0
140
0.0
141
0.0
142
1.0
143
1.0
 70
0
 72
1
 73
0
 74
0
  7

 75
0
147
1.0
148
0.0
149
0.0
100
AcDbLayout
  1
Layout1
 70
0
 71
1
 10
0.0
 20
0.0
 11
210.0
 21
297.0
 12
0.0
 22
0.0
 32
0.0
 14
0.0
 24
0.0
 34
0.0
 15
0.0
 25
0.0
 35
0.0
146
0.0
 13
0.0
 23
0.0
 33
0.0
 16
1.0
 26
0.0
 36
0.0
 17
0.0
 27
1.0
 37
0.0
 76
0
330
211
345
0
346
0
  0
ENDSEC
  0
EOF
