999
DXF file: C:\Users\sesa63760\Dev\_Creo\CAD\MCADID0004900_3D-CAD\drw0001_1.dxf
999
Pro/ENGINEER 2019471 by Parametric Technology Corporation
  0
SECTION
  2
HEADER
  9
$ACADVER
  1
AC1024
  9
$DWGCODEPAGE
  3
ANSI_1252
  9
$EXTMAX
 10
459.8349020477
 20
650.337932896
 30
0.0
  9
$EXTMIN
 10
0.0
 20
0.0
 30
0.0
  9
$LIMMIN
 10
0.0
 20
0.0
  9
$LIMMAX
 10
459.8349020477
 20
650.337932896
  9
$VIEWCTR
 10
229.9174510238
 20
325.168966448
  9
$VIEWSIZE
 40
650.337932896
  9
$CLAYER
  8
0
  9
$LTSCALE
 40
42.3923985888
  9
$CELTYPE
  6
BYLAYER
  9
$DIMSCALE
 40
1.0
  9
$DIMASZ
 40
5.4742250244
  9
$DIMEXO
 40
1.0
  9
$DIMDLI
 40
29.2892935704
  9
$DIMEXE
 40
1.0
  9
$DIMCEN
 40
6.9369379509
  9
$DIMLFAC
 40
1.0
  9
$DIMBLK
  1
_FILLED
  9
$DIMALT
 70
0
  9
$DIMALTF
 40
0.0393700787
  9
$DIMTXT
 40
7.6639150341
  9
$DIMTOL
 70
1
  9
$DIMLIM
 70
0
  9
$DIMTFAC
 40
1.0
  9
$DIMTP
 40
0.01
  9
$DIMTM
 40
0.01
  9
$DIMGAP
 40
0.625
  9
$DIMDSEP
 70
46
  9
$AUNITS
 70
0
  9
$PDMODE
 70
3
  9
$PDSIZE
 40
0.3125
  9
$HANDSEED
  5
63E
  9
$TILEMODE
 70
1
  9
$MEASUREMENT
 70
1
  9
$INSUNITS
 70
4
  0
ENDSEC
  0
SECTION
  2
CLASSES
  0
CLASS
  1
ACDBDICTIONARYWDFLT
  2
AcDbDictionaryWithDefault
  3
AutoCAD 2000
 90
0
 91
1
280
0
281
0
  0
CLASS
  1
ACDBPLACEHOLDER
  2
AcDbPlaceHolder
  3
AutoCAD 2000
 90
0
 91
1
280
0
281
0
  0
CLASS
  1
LAYOUT
  2
AcDbLayout
  3
AutoCAD 2000
 90
0
 91
0
280
0
281
0
  0
ENDSEC
  0
SECTION
  2
TABLES
  0
TABLE
  2
VPORT
  5
8
100
AcDbSymbolTable
 70
2
  0
VPORT
  5
1F4
100
AcDbSymbolTableRecord
100
AcDbViewportTableRecord
  2
*ACTIVE
 70
0
 10
0.0
 20
0.0
 11
1.0
 21
1.0
 12
229.9174510238
 22
325.168966448
 13
0.0
 23
0.0
 14
1.0
 24
1.0
 15
0.0
 25
0.0
 16
0.0
 26
0.0
 36
1.0
 17
0.0
 27
0.0
 37
0.0
 40
650.337932896
 41
0.7070707071
 42
50.0
 43
0.0
 44
0.0
 50
0.0
 51
0.0
 71
0
 72
100
 73
1
 74
1
 75
0
 76
0
 77
0
 78
0
  0
ENDTAB
  0
TABLE
  2
LTYPE
  5
5
100
AcDbSymbolTable
 70
6
  0
LTYPE
  5
14
100
AcDbSymbolTableRecord
100
AcDbLinetypeTableRecord
  2
BYBLOCK
 70
0
  3

 72
65
 73
0
 40
0.0
  0
LTYPE
  5
15
100
AcDbSymbolTableRecord
100
AcDbLinetypeTableRecord
  2
BYLAYER
 70
0
  3

 72
65
 73
0
 40
0.0
  0
LTYPE
  5
16
100
AcDbSymbolTableRecord
100
AcDbLinetypeTableRecord
  2
CONTINUOUS
 70
64
  3
Solid line
 72
65
 73
0
 40
0.0
  0
LTYPE
  5
1F5
100
AcDbSymbolTableRecord
100
AcDbLinetypeTableRecord
  2
CENTER
 70
64
  3
____ _ ____ _ ____ _ ____ _ ____ _ ____ _ ____
 72
65
 73
4
 40
0.6
 49
0.375
 74
0
 49
-0.075
 74
0
 49
0.075
 74
0
 49
-0.075
 74
0
  0
LTYPE
  5
1F6
100
AcDbSymbolTableRecord
100
AcDbLinetypeTableRecord
  2
HIDDEN
 70
64
  3
- - - - - - - - - - - - - - - - - - - -
 72
65
 73
2
 40
0.2
 49
0.1
 74
0
 49
-0.1
 74
0
  0
LTYPE
  5
1F7
100
AcDbSymbolTableRecord
100
AcDbLinetypeTableRecord
  2
PHANTOM
 70
64
  3
_____ _ _ _____ _ _ _____ _ _ _____
 72
65
 73
6
 40
0.8
 49
0.45
 74
0
 49
-0.05
 74
0
 49
0.1
 74
0
 49
-0.05
 74
0
 49
0.1
 74
0
 49
-0.05
 74
0
  0
LTYPE
  5
1F8
100
AcDbSymbolTableRecord
100
AcDbLinetypeTableRecord
  2
DOT
 70
64
  3
. . . . . . . . . . . . . . . . . . . .
 72
65
 73
2
 40
0.2
 49
0.1
 74
0
 49
-0.1
 74
0
  0
LTYPE
  5
1F9
100
AcDbSymbolTableRecord
100
AcDbLinetypeTableRecord
  2
DASHED
 70
64
  3
- - - - - - - - - - - - - - - - - - - -
 72
65
 73
2
 40
0.2
 49
0.1
 74
0
 49
-0.1
 74
0
  0
ENDTAB
  0
TABLE
  2
LAYER
  5
2
100
AcDbSymbolTable
 70
36
  0
LAYER
  5
10
100
AcDbSymbolTableRecord
100
AcDbLayerTableRecord
  2
0
 70
0
 62
7
  6
CONTINUOUS
370
-3
390
F
  0
LAYER
  5
1FA
100
AcDbSymbolTableRecord
100
AcDbLayerTableRecord
  2
DEFAULT_1
 70
0
 62
7
  6
CENTER
370
-3
390
F
  0
LAYER
  5
1FB
100
AcDbSymbolTableRecord
100
AcDbLayerTableRecord
  2
DEFAULT_2
 70
0
 62
7
  6
HIDDEN
370
-3
390
F
  0
LAYER
  5
1FC
100
AcDbSymbolTableRecord
100
AcDbLayerTableRecord
  2
DEFAULT_3
 70
0
 62
7
  6
PHANTOM
370
-3
390
F
  0
LAYER
  5
1FD
100
AcDbSymbolTableRecord
100
AcDbLayerTableRecord
  2
00_COMPONENTS
 70
0
 62
7
  6
CONTINUOUS
370
-3
390
F
  0
LAYER
  5
1FE
100
AcDbSymbolTableRecord
100
AcDbLayerTableRecord
  2
01_1_DEFAULT_DATUMS
 70
0
 62
7
  6
CONTINUOUS
370
-3
390
F
  0
LAYER
  5
1FF
100
AcDbSymbolTableRecord
100
AcDbLayerTableRecord
  2
01_PLANES
 70
0
 62
7
  6
CONTINUOUS
370
-3
390
F
  0
LAYER
  5
200
100
AcDbSymbolTableRecord
100
AcDbLayerTableRecord
  2
02_COORD_SYS
 70
0
 62
7
  6
CONTINUOUS
370
-3
390
F
  0
LAYER
  5
201
100
AcDbSymbolTableRecord
100
AcDbLayerTableRecord
  2
03_AXES
 70
0
 62
7
  6
CONTINUOUS
370
-3
390
F
  0
LAYER
  5
202
100
AcDbSymbolTableRecord
100
AcDbLayerTableRecord
  2
04_POINTS
 70
0
 62
7
  6
CONTINUOUS
370
-3
390
F
  0
LAYER
  5
203
100
AcDbSymbolTableRecord
100
AcDbLayerTableRecord
  2
05_CURVES
 70
0
 62
7
  6
CONTINUOUS
370
-3
390
F
  0
LAYER
  5
204
100
AcDbSymbolTableRecord
100
AcDbLayerTableRecord
  2
06_SURFS
 70
0
 62
7
  6
CONTINUOUS
370
-3
390
F
  0
LAYER
  5
205
100
AcDbSymbolTableRecord
100
AcDbLayerTableRecord
  2
07_COSMETICS
 70
0
 62
7
  6
CONTINUOUS
370
-3
390
F
  0
LAYER
  5
206
100
AcDbSymbolTableRecord
100
AcDbLayerTableRecord
  2
10_NOTES
 70
0
 62
7
  6
CONTINUOUS
370
-3
390
F
  0
LAYER
  5
207
100
AcDbSymbolTableRecord
100
AcDbLayerTableRecord
  2
11_NOTES_PUB
 70
0
 62
7
  6
CONTINUOUS
370
-3
390
F
  0
LAYER
  5
208
100
AcDbSymbolTableRecord
100
AcDbLayerTableRecord
  2
13_REF_GTOL
 70
0
 62
7
  6
CONTINUOUS
370
-3
390
F
  0
LAYER
  5
209
100
AcDbSymbolTableRecord
100
AcDbLayerTableRecord
  2
16_MISC
 70
0
 62
7
  6
CONTINUOUS
370
-3
390
F
  0
LAYER
  5
20A
100
AcDbSymbolTableRecord
100
AcDbLayerTableRecord
  2
17_NO_PRINT
 70
0
 62
7
  6
CONTINUOUS
370
-3
390
F
  0
LAYER
  5
20B
100
AcDbSymbolTableRecord
100
AcDbLayerTableRecord
  2
18_DATUM_CAMS_JOINTS
 70
0
 62
7
  6
CONTINUOUS
370
-3
390
F
  0
LAYER
  5
20C
100
AcDbSymbolTableRecord
100
AcDbLayerTableRecord
  2
19_DATUM_FUNCTIONAL
 70
0
 62
7
  6
CONTINUOUS
370
-3
390
F
  0
LAYER
  5
20D
100
AcDbSymbolTableRecord
100
AcDbLayerTableRecord
  2
20_DATUM_KINEMATIC_SCHEME
 70
0
 62
7
  6
CONTINUOUS
370
-3
390
F
  0
ENDTAB
  0
TABLE
  2
STYLE
  5
3
100
AcDbSymbolTable
 70
1
  0
STYLE
  5
11
100
AcDbSymbolTableRecord
100
AcDbTextStyleTableRecord
  2
STANDARD
 70
0
 40
0.0
 41
1.0
 50
0.0
 71
0
 42
0.2
  3
ARIAL.TTF
  4

  0
STYLE
  5
20E
100
AcDbSymbolTableRecord
100
AcDbTextStyleTableRecord
  2
TEXTSTYLE_1
 70
0
 40
0.0
 41
0.8
 50
0.0
 71
0
 42
0.2
  3
gdt
  4

  0
ENDTAB
  0
TABLE
  2
VIEW
  5
6
100
AcDbSymbolTable
 70
0
  0
ENDTAB
  0
TABLE
  2
UCS
  5
7
100
AcDbSymbolTable
 70
0
  0
ENDTAB
  0
TABLE
  2
APPID
  5
9
100
AcDbSymbolTable
 70
1
  0
APPID
  5
20F
100
AcDbSymbolTableRecord
100
AcDbRegAppTableRecord
  2
ACAD
 70
0
  0
ENDTAB
  0
TABLE
  2
BLOCK_RECORD
  5
1
100
AcDbSymbolTable
 70
0
  0
BLOCK_RECORD
  5
210
100
AcDbSymbolTableRecord
100
AcDbBlockTableRecord
  2
*Model_Space
  0
BLOCK_RECORD
  5
211
100
AcDbSymbolTableRecord
100
AcDbBlockTableRecord
  2
*Paper_Space
  0
BLOCK_RECORD
  5
212
100
AcDbSymbolTableRecord
100
AcDbBlockTableRecord
  2
_FILLED
  0
ENDTAB
  0
TABLE
  2
DIMSTYLE
  5
A
100
AcDbSymbolTable
 70
1
100
AcDbDimStyleTable
 71
0
  0
DIMSTYLE
105
213
100
AcDbSymbolTableRecord
100
AcDbDimStyleTableRecord
  2
STANDARD
 70
0
  3

  4

 40
1.0
 41
5.4742250244
 42
1.0
 43
0.38
 44
1.0
 45
0.0
 46
0.0
 47
0.01
 48
0.01
140
7.6639150341
141
0.09
142
0.0
143
25.4
144
1.0
145
0.0
146
1.0
147
0.625
 71
1
 72
0
 73
0
 74
0
 75
0
 76
0
 77
1
 78
8
 79
2
170
0
171
1
172
0
173
0
174
0
175
0
176
0
177
0
178
0
270
2
179
2
271
2
272
2
273
2
274
2
275
0
280
0
281
0
282
0
283
1
284
8
285
0
286
0
287
3
288
0
340
11
278
46
341
212
342
212
343
212
344
212
  0
ENDTAB
  0
ENDSEC
  0
SECTION
  2
BLOCKS
  0
BLOCK
  5
20
100
AcDbEntity
  8
0
100
AcDbBlockBegin
  2
*Model_Space
 70
0
 10
0.0
 20
0.0
 30
0.0
  3
*Model_Space
  1

  0
ENDBLK
  5
21
100
AcDbEntity
  8
0
100
AcDbBlockEnd
  0
BLOCK
  5
1C
100
AcDbEntity
  8
0
100
AcDbBlockBegin
  2
*Paper_Space
 70
0
 10
0.0
 20
0.0
 30
0.0
  3
*Paper_Space
  1

  0
ENDBLK
  5
1D
100
AcDbEntity
  8
0
100
AcDbBlockEnd
  0
BLOCK
  5
214
100
AcDbEntity
  8
0
100
AcDbBlockBegin
  2
_FILLED
 70
64
 10
0.0
 20
0.0
  3
_FILLED
  1

  0
SOLID
  5
215
100
AcDbEntity
  8
0
  6
BYBLOCK
 62
0
100
AcDbTrace
 10
0.0
 20
0.0
 11
-1.0
 21
0.25
 12
-1.0
 22
-0.25
 13
-1.0
 23
-0.25
  0
ENDBLK
  5
216
100
AcDbEntity
  8
0
  6
BYBLOCK
 62
0
100
AcDbBlockEnd
  0
ENDSEC
  0
SECTION
  2
ENTITIES
  0
LINE
  5
217
100
AcDbEntity
  8
0
100
AcDbLine
 62
7
  6
BYLAYER
 10
58.6385768438
 20
551.6964904724
 11
53.8753378483
 21
548.5243047122
  0
LINE
  5
218
100
AcDbEntity
  8
0
100
AcDbLine
 62
7
  6
BYLAYER
 10
55.3260463941
 20
548.4172162544
 11
60.1929074287
 21
551.5817528389
  0
LINE
  5
219
100
AcDbEntity
  8
0
100
AcDbLine
 62
7
  6
BYLAYER
 10
77.2893969732
 20
549.7412800405
 11
80.7948554434
 21
551.7998559796
  0
LINE
  5
21A
100
AcDbEntity
  8
0
100
AcDbLine
 62
7
  6
BYLAYER
 10
78.3034520784
 20
552.0423100728
 11
74.7766853941
 21
549.9858077694
  0
LINE
  5
21B
100
AcDbEntity
  8
0
100
AcDbLine
 62
7
  6
BYLAYER
 10
55.6578221928
 20
545.556375957
 11
56.1579045346
 21
545.8450969082
  0
LINE
  5
21C
100
AcDbEntity
  8
0
100
AcDbLine
 62
7
  6
BYLAYER
 10
56.4467010845
 20
545.3347548826
 11
56.86555924
 21
545.5765813078
  0
LINE
  5
21D
100
AcDbEntity
  8
0
100
AcDbLine
 62
7
  6
BYLAYER
 10
70.1224640557
 20
545.8490503381
 11
77.0032024665
 21
549.5001495494
  0
LINE
  5
21E
100
AcDbEntity
  8
0
100
AcDbLine
 62
7
  6
BYLAYER
 10
74.5162573457
 20
549.7905082283
 11
68.601777767
 21
546.7269991143
  0
LINE
  5
21F
100
AcDbEntity
  8
0
100
AcDbLine
 62
7
  6
BYLAYER
 10
53.3461391641
 20
547.2740835985
 11
53.8754646015
 21
548.5240964569
  0
LINE
  5
220
100
AcDbEntity
  8
0
100
AcDbLine
 62
7
  6
BYLAYER
 10
55.445714555
 20
545.4338661378
 11
55.0310494174
 21
544.517404641
  0
LINE
  5
221
100
AcDbEntity
  8
0
100
AcDbLine
 62
7
  6
BYLAYER
 10
89.2054438179
 20
509.1430087198
 11
89.1216024722
 21
509.0723073532
  0
LINE
  5
222
100
AcDbEntity
  8
0
100
AcDbLine
 62
7
  6
BYLAYER
 10
92.6774451348
 20
506.5666225119
 11
92.8473351164
 21
506.7083863121
  0
LINE
  5
223
100
AcDbEntity
  8
0
100
AcDbLine
 62
7
  6
BYLAYER
 10
81.8305097669
 20
521.1266656395
 11
82.042640918
 21
521.2491388857
  0
LINE
  5
224
100
AcDbEntity
  8
0
100
AcDbLine
 62
7
  6
BYLAYER
 10
82.8486024836
 20
516.5367706116
 11
82.7778920999
 21
516.4959461962
  0
LINE
  5
225
100
AcDbEntity
  8
0
100
AcDbLine
 62
7
  6
BYLAYER
 10
83.1894868587
 20
516.4024555282
 11
83.2601972424
 21
516.4432799435
  0
LINE
  5
226
100
AcDbEntity
  8
0
100
AcDbLine
 62
7
  6
BYLAYER
 10
83.5145910146
 20
516.2964089533
 11
83.4438806309
 21
516.2555845379
  0
LINE
  5
227
100
AcDbEntity
  8
0
100
AcDbLine
 62
7
  6
BYLAYER
 10
84.0429903934
 20
515.284880463
 11
84.1137007771
 21
515.3257048784
  0
LINE
  5
228
100
AcDbEntity
  8
0
100
AcDbLine
 62
7
  6
BYLAYER
 10
85.4778908881
 20
515.0451576815
 11
85.4071805043
 21
515.0043332661
  0
LINE
  5
229
100
AcDbEntity
  8
0
100
AcDbLine
 62
7
  6
BYLAYER
 10
85.8345191743
 20
514.8753799553
 11
85.905229558
 21
514.9162043707
  0
LINE
  5
22A
100
AcDbEntity
  8
0
100
AcDbLine
 62
7
  6
BYLAYER
 10
86.1604519745
 20
514.7688549733
 11
86.0897415907
 21
514.7280305579
  0
LINE
  5
22B
100
AcDbEntity
  8
0
100
AcDbLine
 62
7
  6
BYLAYER
 10
86.6035010004
 20
513.9089841655
 11
86.6742113841
 21
513.9498085809
  0
LINE
  5
22C
100
AcDbEntity
  8
0
100
AcDbLine
 62
7
  6
BYLAYER
 10
83.4922176205
 20
512.0734007106
 11
83.4215072368
 21
512.0325762952
  0
LINE
  5
22D
100
AcDbEntity
  8
0
100
AcDbLine
 62
7
  6
BYLAYER
 10
83.3014511094
 20
511.6734908039
 11
83.3721614932
 21
511.7143152193
  0
LINE
  5
22E
100
AcDbEntity
  8
0
100
AcDbLine
 62
7
  6
BYLAYER
 10
85.2713167384
 20
511.2969523507
 11
85.2006063547
 21
511.2561279353
  0
LINE
  5
22F
100
AcDbEntity
  8
0
100
AcDbLine
 62
7
  6
BYLAYER
 10
84.9753694267
 20
510.740871741
 11
85.0460798104
 21
510.7816961564
  0
LINE
  5
230
100
AcDbEntity
  8
0
100
AcDbLine
 62
7
  6
BYLAYER
 10
87.7083190182
 20
512.2398508754
 11
87.6376086345
 21
512.19902646
  0
LINE
  5
231
100
AcDbEntity
  8
0
100
AcDbLine
 62
7
  6
BYLAYER
 10
88.752175434
 20
511.9661548097
 11
88.8228858178
 21
512.006979225
  0
LINE
  5
232
100
AcDbEntity
  8
0
100
AcDbLine
 62
7
  6
BYLAYER
 10
87.9165666966
 20
511.2105302876
 11
87.9872770803
 21
511.251354703
  0
LINE
  5
233
100
AcDbEntity
  8
0
100
AcDbLine
 62
7
  6
BYLAYER
 10
87.5920483845
 20
510.7791448201
 11
87.5213380008
 21
510.7383204047
  0
LINE
  5
234
100
AcDbEntity
  8
0
100
AcDbLine
 62
7
  6
BYLAYER
 10
86.6742113842
 20
510.2334467987
 11
86.6035010005
 21
510.1926223833
  0
LINE
  5
235
100
AcDbEntity
  8
0
100
AcDbLine
 62
7
  6
BYLAYER
 10
88.0138534444
 20
510.7437823666
 11
88.0845638281
 21
510.784606782
  0
LINE
  5
236
100
AcDbEntity
  8
0
100
AcDbLine
 62
7
  6
BYLAYER
 10
86.4849903643
 20
509.836614253
 11
86.555700748
 21
509.8774386684
  0
LINE
  5
237
100
AcDbEntity
  8
0
100
AcDbLine
 62
7
  6
BYLAYER
 10
88.0353981931
 20
509.88454147
 11
88.1061085768
 21
509.9253658854
  0
LINE
  5
238
100
AcDbEntity
  8
0
100
AcDbLine
 62
7
  6
BYLAYER
 10
88.5085540373
 20
509.1673978059
 11
88.579264421
 21
509.2082222212
  0
LINE
  5
239
100
AcDbEntity
  8
0
100
AcDbLine
 62
7
  6
BYLAYER
 10
90.0564614201
 20
509.8668698313
 11
90.1271718038
 21
509.9076942466
  0
LINE
  5
23A
100
AcDbEntity
  8
0
100
AcDbLine
 62
7
  6
BYLAYER
 10
91.1038400395
 20
510.2954047358
 11
91.0331296557
 21
510.2545803204
  0
LINE
  5
23B
100
AcDbEntity
  8
0
100
AcDbLine
 62
7
  6
BYLAYER
 10
91.8885937664
 20
510.1553838071
 11
91.9593041501
 21
510.1962082225
  0
LINE
  5
23C
100
AcDbEntity
  8
0
100
AcDbLine
 62
7
  6
BYLAYER
 10
90.1213712946
 20
508.9140170976
 11
90.0506609109
 21
508.8731926822
  0
LINE
  5
23D
100
AcDbEntity
  8
0
100
AcDbLine
 62
7
  6
BYLAYER
 10
91.3764916452
 20
508.6961971117
 11
91.4472020289
 21
508.7370215271
  0
LINE
  5
23E
100
AcDbEntity
  8
0
100
AcDbLine
 62
7
  6
BYLAYER
 10
90.1931877145
 20
507.9364496341
 11
90.2638980982
 21
507.9772740495
  0
LINE
  5
23F
100
AcDbEntity
  8
0
100
AcDbLine
 62
7
  6
BYLAYER
 10
90.1062709342
 20
507.7676396809
 11
90.1769813179
 21
507.8084640963
  0
LINE
  5
240
100
AcDbEntity
  8
0
100
AcDbLine
 62
7
  6
BYLAYER
 10
93.0753870344
 20
509.4502164136
 11
93.0046766507
 21
509.4093919982
  0
LINE
  5
241
100
AcDbEntity
  8
0
100
AcDbLine
 62
7
  6
BYLAYER
 10
93.2384551831
 20
509.3827564561
 11
93.3091655668
 21
509.4235808715
  0
LINE
  5
242
100
AcDbEntity
  8
0
100
AcDbLine
 62
7
  6
BYLAYER
 10
85.4071378104
 20
515.0044107977
 11
85.2320948352
 21
514.5983662308
  0
LINE
  5
243
100
AcDbEntity
  8
0
100
AcDbLine
 62
7
  6
BYLAYER
 10
80.3305861656
 20
521.2751177836
 11
79.7091805914
 21
519.9018806517
  0
LINE
  5
244
100
AcDbEntity
  8
0
100
AcDbLine
 62
7
  6
BYLAYER
 10
87.638383969
 20
512.1976687118
 11
87.4255160559
 21
511.7781163782
  0
LINE
  5
245
100
AcDbEntity
  8
0
100
AcDbLine
 62
7
  6
BYLAYER
 10
90.8907888175
 20
507.0946886002
 11
90.8200784338
 21
507.0538641848
  0
LINE
  5
246
100
AcDbEntity
  8
0
100
AcDbLine
 62
7
  6
BYLAYER
 10
91.0425480289
 20
507.0308142961
 11
91.1132584126
 21
507.0716387115
  0
LINE
  5
247
100
AcDbEntity
  8
0
100
AcDbLine
 62
7
  6
BYLAYER
 10
93.6038872794
 20
508.504862288
 11
93.6745976631
 21
508.5456867033
  0
LINE
  5
248
100
AcDbEntity
  8
0
100
AcDbLine
 62
7
  6
BYLAYER
 10
92.1114990587
 20
507.2097589489
 11
92.1822094424
 21
507.2505833643
  0
LINE
  5
249
100
AcDbEntity
  8
0
100
AcDbLine
 62
7
  6
BYLAYER
 10
91.3276016375
 20
506.6566945501
 11
91.3983120212
 21
506.6975189655
  0
LINE
  5
24A
100
AcDbEntity
  8
0
100
AcDbLine
 62
7
  6
BYLAYER
 10
94.7793248997
 20
508.1288477228
 11
94.708614516
 21
508.0880233074
  0
LINE
  5
24B
100
AcDbEntity
  8
0
100
AcDbLine
 62
7
  6
BYLAYER
 10
92.676018745
 20
506.569157363
 11
92.7467291287
 21
506.6099817783
  0
LINE
  5
24C
100
AcDbEntity
  8
0
100
AcDbLine
 62
7
  6
BYLAYER
 10
95.7517330695
 20
507.9250497474
 11
95.8224434532
 21
507.9658741628
  0
LINE
  5
24D
100
AcDbEntity
  8
0
100
AcDbLine
 62
7
  6
BYLAYER
 10
92.0568085416
 20
505.7716294685
 11
92.1275189253
 21
505.8124538839
  0
LINE
  5
24E
100
AcDbEntity
  8
0
100
AcDbLine
 62
7
  6
BYLAYER
 10
95.0357844721
 20
506.8686891602
 11
95.1064948558
 21
506.9095135755
  0
LINE
  5
24F
100
AcDbEntity
  8
0
100
AcDbLine
 62
7
  6
BYLAYER
 10
93.6745976631
 20
505.9899703493
 11
93.6038872794
 21
505.9491459339
  0
LINE
  5
250
100
AcDbEntity
  8
0
100
AcDbLine
 62
7
  6
BYLAYER
 10
98.0383132189
 20
507.9248340824
 11
97.9676028352
 21
507.8840096671
  0
LINE
  5
251
100
AcDbEntity
  8
0
100
AcDbLine
 62
7
  6
BYLAYER
 10
98.2136350149
 20
507.8509311408
 11
98.2843453986
 21
507.8917555562
  0
LINE
  5
252
100
AcDbEntity
  8
0
100
AcDbLine
 62
7
  6
BYLAYER
 10
93.261968078
 20
504.866883789
 11
93.3326460391
 21
504.9076894872
  0
LINE
  5
253
100
AcDbEntity
  8
0
100
AcDbLine
 62
7
  6
BYLAYER
 10
98.5890108417
 20
507.0974261582
 11
98.6597212254
 21
507.1382505736
  0
LINE
  5
254
100
AcDbEntity
  8
0
100
AcDbLine
 62
7
  6
BYLAYER
 10
95.7857074814
 20
504.9660263537
 11
95.8564178651
 21
505.0068507691
  0
LINE
  5
255
100
AcDbEntity
  8
0
100
AcDbLine
 62
7
  6
BYLAYER
 10
97.1587709374
 20
505.6678878904
 11
97.2294813211
 21
505.7087123057
  0
LINE
  5
256
100
AcDbEntity
  8
0
100
AcDbLine
 62
7
  6
BYLAYER
 10
99.5595842634
 20
506.9635913103
 11
99.4888738797
 21
506.9227668949
  0
LINE
  5
257
100
AcDbEntity
  8
0
100
AcDbLine
 62
7
  6
BYLAYER
 10
97.0606843096
 20
505.3612951307
 11
97.1313946933
 21
505.4021195461
  0
LINE
  5
258
100
AcDbEntity
  8
0
100
AcDbLine
 62
7
  6
BYLAYER
 10
99.7598851099
 20
506.8969857467
 11
99.8305954936
 21
506.9378101621
  0
LINE
  5
259
100
AcDbEntity
  8
0
100
AcDbLine
 62
7
  6
BYLAYER
 10
96.6831291606
 20
505.009575785
 11
96.7538395443
 21
505.0504002004
  0
LINE
  5
25A
100
AcDbEntity
  8
0
100
AcDbLine
 62
7
  6
BYLAYER
 10
96.8513439351
 20
504.9698694629
 11
96.9220543188
 21
505.0106938783
  0
LINE
  5
25B
100
AcDbEntity
  8
0
100
AcDbLine
 62
7
  6
BYLAYER
 10
97.1140241494
 20
504.5292490928
 11
97.1847345331
 21
504.5700735082
  0
LINE
  5
25C
100
AcDbEntity
  8
0
100
AcDbLine
 62
7
  6
BYLAYER
 10
100.1269744931
 20
506.2583012948
 11
100.1976848769
 21
506.2991257102
  0
LINE
  5
25D
100
AcDbEntity
  8
0
100
AcDbLine
 62
7
  6
BYLAYER
 10
100.0288723861
 20
506.0107320237
 11
100.0995827698
 21
506.0515564391
  0
LINE
  5
25E
100
AcDbEntity
  8
0
100
AcDbLine
 62
7
  6
BYLAYER
 10
96.8950313759
 20
504.1690671339
 11
96.9657417597
 21
504.2098915493
  0
LINE
  5
25F
100
AcDbEntity
  8
0
100
AcDbLine
 62
7
  6
BYLAYER
 10
99.5727159686
 20
505.6887483253
 11
99.5020055849
 21
505.6479239099
  0
LINE
  5
260
100
AcDbEntity
  8
0
100
AcDbLine
 62
7
  6
BYLAYER
 10
99.7515986671
 20
505.6157785115
 11
99.8223090508
 21
505.6566029269
  0
LINE
  5
261
100
AcDbEntity
  8
0
100
AcDbLine
 62
7
  6
BYLAYER
 10
104.6701521227
 20
508.1854347411
 11
104.4580209716
 21
508.0629614949
  0
LINE
  5
262
100
AcDbEntity
  8
0
100
AcDbLine
 62
7
  6
BYLAYER
 10
100.1269744946
 20
504.9034175955
 11
100.1976848783
 21
504.9442420109
  0
LINE
  5
263
100
AcDbEntity
  8
0
100
AcDbLine
 62
7
  6
BYLAYER
 10
98.6597212254
 20
503.3128091708
 11
98.5890108416
 21
503.2719847554
  0
LINE
  5
264
100
AcDbEntity
  8
0
100
AcDbLine
 62
7
  6
BYLAYER
 10
101.0656973821
 20
504.5629622608
 11
100.9949869984
 21
504.5221378454
  0
LINE
  5
265
100
AcDbEntity
  8
0
100
AcDbLine
 62
7
  6
BYLAYER
 10
98.468339472
 20
502.9198507196
 11
98.5390498557
 21
502.9606751349
  0
LINE
  5
266
100
AcDbEntity
  8
0
100
AcDbLine
 62
7
  6
BYLAYER
 10
101.9557922635
 20
504.3432155345
 11
102.0265026472
 21
504.3840399499
  0
LINE
  5
267
100
AcDbEntity
  8
0
100
AcDbLine
 62
7
  6
BYLAYER
 10
101.5058384579
 20
503.7054758412
 11
101.5765488416
 21
503.7463002566
  0
LINE
  5
268
100
AcDbEntity
  8
0
100
AcDbLine
 62
7
  6
BYLAYER
 10
100.1976848782
 20
502.419144496
 11
100.1269744945
 21
502.3783200806
  0
LINE
  5
269
100
AcDbEntity
  8
0
100
AcDbLine
 62
7
  6
BYLAYER
 10
100.8908246163
 20
502.6983690182
 11
100.8201142325
 21
502.6575446028
  0
LINE
  5
26A
100
AcDbEntity
  8
0
100
AcDbLine
 62
7
  6
BYLAYER
 10
100.0063601477
 20
502.0331537909
 11
100.0770705314
 21
502.0739782063
  0
LINE
  5
26B
100
AcDbEntity
  8
0
100
AcDbLine
 62
7
  6
BYLAYER
 10
101.0616851618
 20
502.6280688188
 11
101.1323955455
 21
502.6688932342
  0
LINE
  5
26C
100
AcDbEntity
  8
0
100
AcDbLine
 62
7
  6
BYLAYER
 10
101.3848564041
 20
502.1898414412
 11
101.4555667878
 21
502.2306658566
  0
LINE
  5
26D
100
AcDbEntity
  8
0
100
AcDbLine
 62
7
  6
BYLAYER
 10
102.3311680902
 20
502.7256851425
 11
102.4018784739
 21
502.7665095579
  0
LINE
  5
26E
100
AcDbEntity
  8
0
100
AcDbLine
 62
7
  6
BYLAYER
 10
103.213674173
 20
502.8142057759
 11
103.2843845567
 21
502.8550301912
  0
LINE
  5
26F
100
AcDbEntity
  8
0
100
AcDbLine
 62
7
  6
BYLAYER
 10
103.1308100809
 20
502.6210477673
 11
103.2015204646
 21
502.6618721827
  0
LINE
  5
270
100
AcDbEntity
  8
0
100
AcDbLine
 62
7
  6
BYLAYER
 10
106.579350147
 20
504.3887319799
 11
106.7914812982
 21
504.5112052261
  0
LINE
  5
271
100
AcDbEntity
  8
0
100
AcDbLine
 62
7
  6
BYLAYER
 10
102.1032909327
 20
501.3186503613
 11
102.1740013164
 21
501.3594747767
  0
LINE
  5
272
100
AcDbEntity
  8
0
100
AcDbLine
 62
7
  6
BYLAYER
 10
103.3620014864
 20
501.1583984771
 11
103.4327118701
 21
501.1992228925
  0
LINE
  5
273
100
AcDbEntity
  8
0
100
AcDbLine
 62
7
  6
BYLAYER
 10
103.0960393787
 20
500.518721576
 11
103.1667497625
 21
500.5595459914
  0
LINE
  5
274
100
AcDbEntity
  8
0
100
AcDbLine
 62
7
  6
BYLAYER
 10
106.7914812982
 20
497.1626834719
 11
106.579350147
 21
497.0402102258
  0
LINE
  5
275
100
AcDbEntity
  8
0
100
AcDbLine
 62
7
  6
BYLAYER
 10
85.2320948352
 20
514.5983662308
 11
84.6412715131
 21
512.3799268032
  0
LINE
  5
276
100
AcDbEntity
  8
0
100
AcDbLine
 62
7
  6
BYLAYER
 10
94.7090355722
 20
508.0872844587
 11
94.2933192614
 21
506.9940240627
  0
LINE
  5
277
100
AcDbEntity
  8
0
100
AcDbLine
 62
7
  6
BYLAYER
 10
101.5058384579
 20
503.7054758412
 11
101.5755937227
 21
503.8551026543
  0
LINE
  5
278
100
AcDbEntity
  8
0
100
AcDbLine
 62
7
  6
BYLAYER
 10
100.9978967073
 20
504.5171225281
 11
100.7633732472
 21
504.038444756
  0
LINE
  5
279
100
AcDbEntity
  8
0
100
AcDbLine
 62
7
  6
BYLAYER
 10
102.6195362757
 20
501.3985540313
 11
102.5395868574
 21
501.2418337302
  0
LINE
  5
27A
100
AcDbEntity
  8
0
100
AcDbLine
 62
7
  6
BYLAYER
 10
97.1847345331
 20
504.5700735082
 11
96.9658276199
 21
504.2097432954
  0
LINE
  5
27B
100
AcDbEntity
  8
0
100
AcDbLine
 62
7
  6
BYLAYER
 10
394.3764835122
 20
102.8350853795
 11
395.4239975007
 21
102.7313672737
  0
LINE
  5
27C
100
AcDbEntity
  8
0
100
AcDbLine
 62
7
  6
BYLAYER
 10
397.3343732189
 20
99.7929955907
 11
395.9872022635
 21
99.9595806968
  0
LINE
  5
27D
100
AcDbEntity
  8
0
100
AcDbLine
 62
7
  6
BYLAYER
 10
53.3461391637
 20
300.0652222068
 11
53.3461391637
 21
547.2740835987
  0
LINE
  5
27E
100
AcDbEntity
  8
0
100
AcDbLine
 62
7
  6
BYLAYER
 10
55.0310494174
 20
544.517404641
 11
55.0310494174
 21
300.3479411191
  0
LINE
  5
27F
100
AcDbEntity
  8
0
100
AcDbLine
 62
7
  6
BYLAYER
 10
85.2006063511
 20
511.2561279208
 11
85.8610357889
 21
513.8802680256
  0
LINE
  5
280
100
AcDbEntity
  8
0
100
AcDbLine
 62
7
  6
BYLAYER
 10
85.9317461727
 20
513.9210924418
 11
85.2713167387
 21
511.2969523506
  0
LINE
  5
281
100
AcDbEntity
  8
0
100
AcDbLine
 62
7
  6
BYLAYER
 10
100.0291724995
 20
506.0102143328
 11
100.1269744931
 21
506.2583012948
  0
LINE
  5
282
100
AcDbEntity
  8
0
100
AcDbLine
 62
7
  6
BYLAYER
 10
103.4327118701
 20
501.1992228925
 11
103.1647491346
 21
500.5630016765
  0
LINE
  5
283
100
AcDbEntity
  8
0
100
AcDbLine
 62
7
  6
BYLAYER
 10
105.9579445729
 20
495.6669730938
 11
106.579350147
 21
497.0402102258
  0
LINE
  5
284
100
AcDbEntity
  8
0
100
AcDbLine
 62
7
  6
BYLAYER
 10
106.7914812982
 20
497.1626834719
 11
106.1700695027
 21
495.7894571158
  0
LINE
  5
285
100
AcDbEntity
  8
0
100
AcDbLine
 62
7
  6
BYLAYER
 10
79.7091805914
 20
519.9018806517
 11
79.7091805914
 21
512.5533588975
  0
LINE
  5
286
100
AcDbEntity
  8
0
100
AcDbLine
 62
7
  6
BYLAYER
 10
79.9213117426
 20
313.2859418807
 11
79.9213117426
 21
502.8778031382
  0
LINE
  5
287
100
AcDbEntity
  8
0
100
AcDbLine
 62
7
  6
BYLAYER
 10
79.9920221263
 20
502.9186275537
 11
79.9920221263
 21
313.3267662962
  0
LINE
  5
288
100
AcDbEntity
  8
0
100
AcDbLine
 62
7
  6
BYLAYER
 10
82.6790420259
 20
512.4583585709
 11
82.6790420258
 21
516.1747203539
  0
LINE
  5
289
100
AcDbEntity
  8
0
100
AcDbLine
 62
7
  6
BYLAYER
 10
83.421507237
 20
512.0325762994
 11
83.4215072375
 21
515.2886986286
  0
LINE
  5
28A
100
AcDbEntity
  8
0
100
AcDbLine
 62
7
  6
BYLAYER
 10
83.492217621
 20
515.3295230449
 11
83.4922176203
 21
512.0734007108
  0
LINE
  5
28B
100
AcDbEntity
  8
0
100
AcDbLine
 62
7
  6
BYLAYER
 10
85.861035789
 20
510.6241456919
 11
85.8610357888
 21
513.8802680266
  0
LINE
  5
28C
100
AcDbEntity
  8
0
100
AcDbLine
 62
7
  6
BYLAYER
 10
86.6035010005
 20
510.1926223914
 11
86.6035010004
 21
513.9089841593
  0
LINE
  5
28D
100
AcDbEntity
  8
0
100
AcDbLine
 62
7
  6
BYLAYER
 10
86.6742113834
 20
513.9498085813
 11
86.6742113834
 21
510.2334467991
  0
LINE
  5
28E
100
AcDbEntity
  8
0
100
AcDbLine
 62
7
  6
BYLAYER
 10
89.3081956991
 20
509.8080131837
 11
89.3081956991
 21
509.6922356933
  0
LINE
  5
28F
100
AcDbEntity
  8
0
100
AcDbLine
 62
7
  6
BYLAYER
 10
92.8895959718
 20
509.0875665383
 11
92.8895959718
 21
508.9641343378
  0
LINE
  5
290
100
AcDbEntity
  8
0
100
AcDbLine
 62
7
  6
BYLAYER
 10
93.6038872794
 20
505.9491459339
 11
93.6038872794
 21
508.504862288
  0
LINE
  5
291
100
AcDbEntity
  8
0
100
AcDbLine
 62
7
  6
BYLAYER
 10
93.6745976631
 20
508.5456867033
 11
93.6745976631
 21
505.9899703493
  0
LINE
  5
292
100
AcDbEntity
  8
0
100
AcDbLine
 62
7
  6
BYLAYER
 10
97.8465456302
 20
503.7006375477
 11
97.8465456303
 21
507.5260789504
  0
LINE
  5
293
100
AcDbEntity
  8
0
100
AcDbLine
 62
7
  6
BYLAYER
 10
98.5890108416
 20
503.2719847554
 11
98.5890108417
 21
507.0974261581
  0
LINE
  5
294
100
AcDbEntity
  8
0
100
AcDbLine
 62
7
  6
BYLAYER
 10
98.6597212254
 20
507.1382505736
 11
98.6597212254
 21
503.3128091708
  0
LINE
  5
295
100
AcDbEntity
  8
0
100
AcDbLine
 62
7
  6
BYLAYER
 10
99.3845092824
 20
505.3062357422
 11
99.3845092825
 21
502.8069728731
  0
LINE
  5
296
100
AcDbEntity
  8
0
100
AcDbLine
 62
7
  6
BYLAYER
 10
100.1269744938
 20
502.3783200741
 11
100.1269744939
 21
504.9034175997
  0
LINE
  5
297
100
AcDbEntity
  8
0
100
AcDbLine
 62
7
  6
BYLAYER
 10
100.1976848783
 20
504.9442420109
 11
100.1976848783
 21
502.4191444959
  0
LINE
  5
298
100
AcDbEntity
  8
0
100
AcDbLine
 62
7
  6
BYLAYER
 10
106.579350147
 20
497.0402102258
 11
106.579350147
 21
504.3887319799
  0
LINE
  5
299
100
AcDbEntity
  8
0
100
AcDbLine
 62
7
  6
BYLAYER
 10
106.7914812982
 20
504.5112052261
 11
106.7914812982
 21
497.1626834719
  0
LINE
  5
29A
100
AcDbEntity
  8
0
100
AcDbLine
 62
7
  6
BYLAYER
 10
231.5562554869
 20
206.283433153
 11
231.8329958985
 21
206.2296045703
  0
LINE
  5
29B
100
AcDbEntity
  8
0
100
AcDbLine
 62
7
  6
BYLAYER
 10
395.9872022639
 20
99.9595806961
 11
55.3260463941
 21
296.6359413262
  0
LINE
  5
29C
100
AcDbEntity
  8
0
100
AcDbLine
 62
7
  6
BYLAYER
 10
231.4810814966
 20
206.3172608691
 11
231.5562554869
 21
206.283433153
  0
LINE
  5
29D
100
AcDbEntity
  8
0
100
AcDbLine
 62
7
  6
BYLAYER
 10
247.1527635062
 20
187.5878723977
 11
203.3119605471
 21
212.898799178
  0
LINE
  5
29E
100
AcDbEntity
  8
0
100
AcDbLine
 62
7
  6
BYLAYER
 10
394.3764835126
 20
102.8350853793
 11
247.3648946574
 21
187.7103456439
  0
LINE
  5
29F
100
AcDbEntity
  8
0
100
AcDbLine
 62
7
  6
BYLAYER
 10
203.3119605471
 20
213.1437436307
 11
56.4133173108
 21
297.953796187
  0
LINE
  5
2A0
100
AcDbEntity
  8
0
100
AcDbLine
 62
7
  6
BYLAYER
 10
225.6244216018
 20
209.7316968322
 11
225.9189608579
 21
209.5616483604
  0
LINE
  5
2A1
100
AcDbEntity
  8
0
100
AcDbLine
 62
7
  6
BYLAYER
 10
232.5891606866
 20
205.710693814
 11
232.8834590098
 21
205.5407844418
  0
LINE
  5
2A2
100
AcDbEntity
  8
0
100
AcDbLine
 62
7
  6
BYLAYER
 10
234.4577080871
 20
204.6319118739
 11
234.7522473425
 21
204.4618634024
  0
LINE
  5
2A3
100
AcDbEntity
  8
0
100
AcDbLine
 62
7
  6
BYLAYER
 10
223.5551779243
 20
210.9280174293
 11
224.8678954161
 21
210.1701367781
  0
LINE
  5
2A4
100
AcDbEntity
  8
0
100
AcDbLine
 62
7
  6
BYLAYER
 10
220.1488826314
 20
213.0530362104
 11
219.3668176629
 21
213.5045514159
  0
LINE
  5
2A5
100
AcDbEntity
  8
0
100
AcDbLine
 62
7
  6
BYLAYER
 10
220.2195930151
 20
213.0938606258
 11
219.4375280465
 21
213.5453758313
  0
LINE
  5
2A6
100
AcDbEntity
  8
0
100
AcDbLine
 62
7
  6
BYLAYER
 10
224.8678954161
 20
210.5081558924
 11
223.8775448148
 21
211.0799221439
  0
LINE
  5
2A7
100
AcDbEntity
  8
0
100
AcDbLine
 62
7
  6
BYLAYER
 10
223.9482551986
 20
211.1207465591
 11
224.9386057998
 21
210.5489803071
  0
LINE
  5
2A8
100
AcDbEntity
  8
0
100
AcDbLine
 62
7
  6
BYLAYER
 10
219.5024623265
 20
214.0206237551
 11
220.0049258173
 21
213.7305328862
  0
LINE
  5
2A9
100
AcDbEntity
  8
0
100
AcDbLine
 62
7
  6
BYLAYER
 10
222.2186081734
 20
212.4709923302
 11
221.589414499
 21
212.8342492496
  0
LINE
  5
2AA
100
AcDbEntity
  8
0
100
AcDbLine
 62
7
  6
BYLAYER
 10
226.9696649018
 20
209.7680920278
 11
228.0190438204
 21
209.1622465327
  0
LINE
  5
2AB
100
AcDbEntity
  8
0
100
AcDbLine
 62
7
  6
BYLAYER
 10
221.6601248827
 20
212.875073665
 11
222.2893185571
 21
212.5118167456
  0
LINE
  5
2AC
100
AcDbEntity
  8
0
100
AcDbLine
 62
7
  6
BYLAYER
 10
227.7252273607
 20
209.5590321164
 11
226.9750858691
 21
209.9921167108
  0
LINE
  5
2AD
100
AcDbEntity
  8
0
100
AcDbLine
 62
7
  6
BYLAYER
 10
219.5718507158
 20
214.3277631371
 11
218.8897724888
 21
214.7215522763
  0
LINE
  5
2AE
100
AcDbEntity
  8
0
100
AcDbLine
 62
7
  6
BYLAYER
 10
227.7959377444
 20
209.5998565317
 11
227.0457962528
 21
210.0329411261
  0
LINE
  5
2AF
100
AcDbEntity
  8
0
100
AcDbLine
 62
7
  6
BYLAYER
 10
221.6853053982
 20
213.1530736347
 11
222.4208705089
 21
212.7284045273
  0
LINE
  5
2B0
100
AcDbEntity
  8
0
100
AcDbLine
 62
7
  6
BYLAYER
 10
223.8775448151
 20
211.893810965
 11
224.8052531204
 21
211.3582104421
  0
LINE
  5
2B1
100
AcDbEntity
  8
0
100
AcDbLine
 62
7
  6
BYLAYER
 10
218.9604828726
 20
214.7623766917
 11
219.6425610995
 21
214.3685875524
  0
LINE
  5
2B2
100
AcDbEntity
  8
0
100
AcDbLine
 62
7
  6
BYLAYER
 10
230.6972338842
 20
208.2236275489
 11
230.9908184197
 21
208.0541302729
  0
LINE
  5
2B3
100
AcDbEntity
  8
0
100
AcDbLine
 62
7
  6
BYLAYER
 10
231.2842734816
 20
207.8847077474
 11
231.756981882
 21
207.6117955995
  0
LINE
  5
2B4
100
AcDbEntity
  8
0
100
AcDbLine
 62
7
  6
BYLAYER
 10
218.9889159672
 20
215.0393334405
 11
219.6829203243
 21
214.6386589026
  0
LINE
  5
2B5
100
AcDbEntity
  8
0
100
AcDbLine
 62
7
  6
BYLAYER
 10
224.8052531203
 20
211.6967859664
 11
223.8775448152
 21
212.2323864893
  0
LINE
  5
2B6
100
AcDbEntity
  8
0
100
AcDbLine
 62
7
  6
BYLAYER
 10
222.5632612659
 20
213.0018821784
 11
221.7591510278
 21
213.4661249383
  0
LINE
  5
2B7
100
AcDbEntity
  8
0
100
AcDbLine
 62
7
  6
BYLAYER
 10
223.9482551986
 20
212.2732109048
 11
224.875963504
 21
211.7376103819
  0
LINE
  5
2B8
100
AcDbEntity
  8
0
100
AcDbLine
 62
7
  6
BYLAYER
 10
221.8298614115
 20
213.5069493537
 11
222.6339716497
 21
213.0427065938
  0
LINE
  5
2B9
100
AcDbEntity
  8
0
100
AcDbLine
 62
7
  6
BYLAYER
 10
234.752247343
 20
206.1889602431
 11
234.4577080871
 21
206.3590087149
  0
LINE
  5
2BA
100
AcDbEntity
  8
0
100
AcDbLine
 62
7
  6
BYLAYER
 10
232.8834590107
 20
207.2678812814
 11
232.5891606869
 21
207.437790654
  0
LINE
  5
2BB
100
AcDbEntity
  8
0
100
AcDbLine
 62
7
  6
BYLAYER
 10
231.7569818821
 20
207.9182384418
 11
231.2842734814
 21
208.1911505901
  0
LINE
  5
2BC
100
AcDbEntity
  8
0
100
AcDbLine
 62
7
  6
BYLAYER
 10
231.3549838654
 20
208.2319750053
 11
231.8276922659
 21
207.9590628572
  0
LINE
  5
2BD
100
AcDbEntity
  8
0
100
AcDbLine
 62
7
  6
BYLAYER
 10
232.6598710706
 20
207.4786150694
 11
232.9541693944
 21
207.3087056968
  0
LINE
  5
2BE
100
AcDbEntity
  8
0
100
AcDbLine
 62
7
  6
BYLAYER
 10
234.5284184708
 20
206.3998331302
 11
234.8229577268
 21
206.2297846585
  0
LINE
  5
2BF
100
AcDbEntity
  8
0
100
AcDbLine
 62
7
  6
BYLAYER
 10
219.7226740887
 20
214.9702798883
 11
219.1374504878
 21
215.3081512482
  0
LINE
  5
2C0
100
AcDbEntity
  8
0
100
AcDbLine
 62
7
  6
BYLAYER
 10
221.8485367654
 20
213.7887049944
 11
222.6620433467
 21
213.3190373761
  0
LINE
  5
2C1
100
AcDbEntity
  8
0
100
AcDbLine
 62
7
  6
BYLAYER
 10
219.2081608715
 20
215.3489756636
 11
219.7933844725
 21
215.0111043037
  0
LINE
  5
2C2
100
AcDbEntity
  8
0
100
AcDbLine
 62
7
  6
BYLAYER
 10
219.3466998491
 20
215.5623641894
 11
219.8365144149
 21
215.2795760155
  0
LINE
  5
2C3
100
AcDbEntity
  8
0
100
AcDbLine
 62
7
  6
BYLAYER
 10
222.0623638318
 20
213.9960404563
 11
221.5786930298
 21
214.2752816068
  0
LINE
  5
2C4
100
AcDbEntity
  8
0
100
AcDbLine
 62
7
  6
BYLAYER
 10
223.8775448155
 20
213.021375961
 11
224.8391040533
 21
212.4662320348
  0
LINE
  5
2C5
100
AcDbEntity
  8
0
100
AcDbLine
 62
7
  6
BYLAYER
 10
222.1330742155
 20
214.0368648717
 11
221.6494034135
 21
214.3161060222
  0
LINE
  5
2C6
100
AcDbEntity
  8
0
100
AcDbLine
 62
7
  6
BYLAYER
 10
224.8391040534
 20
212.8039729442
 11
223.555177924
 21
213.5452312714
  0
LINE
  5
2C7
100
AcDbEntity
  8
0
100
AcDbLine
 62
7
  6
BYLAYER
 10
225.9189608579
 20
212.1812269448
 11
225.6244216022
 21
212.3512754164
  0
LINE
  5
2C8
100
AcDbEntity
  8
0
100
AcDbLine
 62
7
  6
BYLAYER
 10
223.6258883077
 20
213.5860556867
 11
224.9098144371
 21
212.8447973597
  0
LINE
  5
2C9
100
AcDbEntity
  8
0
100
AcDbLine
 62
7
  6
BYLAYER
 10
225.6951319859
 20
212.3920998317
 11
225.9896712416
 21
212.2220513602
  0
LINE
  5
2CA
100
AcDbEntity
  8
0
100
AcDbLine
 62
7
  6
BYLAYER
 10
221.3640227015
 20
214.9458916626
 11
222.1647598922
 21
214.4835962885
  0
LINE
  5
2CB
100
AcDbEntity
  8
0
100
AcDbLine
 62
7
  6
BYLAYER
 10
227.7779914477
 20
211.6355552575
 11
228.6048697505
 21
211.1581676466
  0
LINE
  5
2CC
100
AcDbEntity
  8
0
100
AcDbLine
 62
7
  6
BYLAYER
 10
230.9058899231
 20
209.8306768028
 11
231.7328886914
 21
209.3532196428
  0
LINE
  5
2CD
100
AcDbEntity
  8
0
100
AcDbLine
 62
7
  6
BYLAYER
 10
236.0678560176
 20
206.8536810674
 11
235.2398935208
 21
207.3316946238
  0
LINE
  5
2CE
100
AcDbEntity
  8
0
100
AcDbLine
 62
7
  6
BYLAYER
 10
224.3820562267
 20
213.6040838602
 11
223.5544551283
 21
214.0818887677
  0
LINE
  5
2CF
100
AcDbEntity
  8
0
100
AcDbLine
 62
7
  6
BYLAYER
 10
218.7094349563
 20
216.8800729053
 11
219.5370360547
 21
216.4022679978
  0
LINE
  5
2D0
100
AcDbEntity
  8
0
100
AcDbLine
 62
7
  6
BYLAYER
 10
225.5668388762
 20
214.2710283901
 11
227.4579134094
 21
213.1792406988
  0
LINE
  5
2D1
100
AcDbEntity
  8
0
100
AcDbLine
 62
7
  6
BYLAYER
 10
232.9395961442
 20
210.0144612931
 11
234.8299478823
 21
208.9230908983
  0
LINE
  5
2D2
100
AcDbEntity
  8
0
100
AcDbLine
 62
7
  6
BYLAYER
 10
234.1011288653
 20
209.8479727534
 11
232.9568227758
 21
210.5086232363
  0
LINE
  5
2D3
100
AcDbEntity
  8
0
100
AcDbLine
 62
7
  6
BYLAYER
 10
226.7274078699
 20
214.105096246
 11
225.5845473724
 21
214.7649121349
  0
LINE
  5
2D4
100
AcDbEntity
  8
0
100
AcDbLine
 62
7
  6
BYLAYER
 10
234.1718392489
 20
209.8887971689
 11
233.0275331597
 21
210.5494476516
  0
LINE
  5
2D5
100
AcDbEntity
  8
0
100
AcDbLine
 62
7
  6
BYLAYER
 10
226.7981182537
 20
214.1459206614
 11
225.6552577561
 21
214.8057365503
  0
LINE
  5
2D6
100
AcDbEntity
  8
0
100
AcDbLine
 62
7
  6
BYLAYER
 10
228.6048697505
 20
214.2020089041
 11
227.7779914477
 21
214.6793965151
  0
LINE
  5
2D7
100
AcDbEntity
  8
0
100
AcDbLine
 62
7
  6
BYLAYER
 10
222.5643454596
 20
217.6894283352
 11
221.7368648263
 21
218.1671636939
  0
LINE
  5
2D8
100
AcDbEntity
  8
0
100
AcDbLine
 62
7
  6
BYLAYER
 10
236.0678560178
 20
209.8965486081
 11
235.2398935213
 21
210.3745621643
  0
LINE
  5
2D9
100
AcDbEntity
  8
0
100
AcDbLine
 62
7
  6
BYLAYER
 10
221.80757521
 20
218.2079881092
 11
222.6350558426
 21
217.7302527511
  0
LINE
  5
2DA
100
AcDbEntity
  8
0
100
AcDbLine
 62
7
  6
BYLAYER
 10
227.8487018314
 20
214.720220932
 11
228.6755801343
 21
214.2428333212
  0
LINE
  5
2DB
100
AcDbEntity
  8
0
100
AcDbLine
 62
7
  6
BYLAYER
 10
235.3106039049
 20
210.4153865797
 11
236.1385664015
 21
209.9373730235
  0
LINE
  5
2DC
100
AcDbEntity
  8
0
100
AcDbLine
 62
7
  6
BYLAYER
 10
231.7328886914
 20
213.8484565537
 11
230.9058899231
 21
214.3259137138
  0
LINE
  5
2DD
100
AcDbEntity
  8
0
100
AcDbLine
 62
7
  6
BYLAYER
 10
219.5370360547
 20
220.8895760659
 11
218.7094349566
 21
221.3673809734
  0
LINE
  5
2DE
100
AcDbEntity
  8
0
100
AcDbLine
 62
7
  6
BYLAYER
 10
218.7801453405
 20
221.4082053887
 11
219.6077464386
 21
220.9304004813
  0
LINE
  5
2DF
100
AcDbEntity
  8
0
100
AcDbLine
 62
7
  6
BYLAYER
 10
230.9766003069
 20
214.36673813
 11
231.8035990751
 21
213.88928097
  0
LINE
  5
2E0
100
AcDbEntity
  8
0
100
AcDbLine
 62
7
  6
BYLAYER
 10
244.3244774863
 20
209.6333075804
 11
206.1402402485
 21
231.6784884998
  0
LINE
  5
2E1
100
AcDbEntity
  8
0
100
AcDbLine
 62
7
  6
BYLAYER
 10
206.3525305989
 20
231.8008698343
 11
244.5364557568
 21
209.7558690902
  0
LINE
  5
2E2
100
AcDbEntity
  8
0
100
AcDbLine
 62
7
  6
BYLAYER
 10
231.3264917794
 20
206.4258916621
 11
231.4810814966
 21
206.3172608691
  0
LINE
  5
2E3
100
AcDbEntity
  8
0
100
AcDbLine
 62
7
  6
BYLAYER
 10
84.6412715131
 20
512.3799268032
 11
84.0429904055
 21
515.2848804066
  0
LINE
  5
2E4
100
AcDbEntity
  8
0
100
AcDbLine
 62
7
  6
BYLAYER
 10
84.1137007771
 20
515.3257048784
 11
84.7119818968
 21
512.4207512171
  0
LINE
  5
2E5
100
AcDbEntity
  8
0
100
AcDbLine
 62
7
  6
BYLAYER
 10
83.4215072375
 20
515.2886986286
 11
84.0819366693
 21
511.9019775826
  0
LINE
  5
2E6
100
AcDbEntity
  8
0
100
AcDbLine
 62
7
  6
BYLAYER
 10
370.9676746131
 20
145.2540473201
 11
79.9213117426
 21
313.2859418807
  0
LINE
  5
2E7
100
AcDbEntity
  8
0
100
AcDbLine
 62
7
  6
BYLAYER
 10
79.9920221263
 20
313.3267662962
 11
371.0383849968
 21
145.2948717353
  0
LINE
  5
2E8
100
AcDbEntity
  8
0
100
AcDbLine
 62
7
  6
BYLAYER
 10
231.2058903013
 20
206.5482147652
 11
231.3264917794
 21
206.4258916621
  0
LINE
  5
2E9
100
AcDbEntity
  8
0
100
AcDbLine
 62
7
  6
BYLAYER
 10
79.9920221263
 20
313.3267662965
 11
79.9213117426
 21
313.2859418811
  0
LINE
  5
2EA
100
AcDbEntity
  8
0
100
AcDbLine
 62
7
  6
BYLAYER
 10
231.1119318776
 20
206.6852328957
 11
231.2058903013
 21
206.5482147652
  0
LINE
  5
2EB
100
AcDbEntity
  8
0
100
AcDbLine
 62
7
  6
BYLAYER
 10
231.0211476057
 20
206.9091550896
 11
231.1119318776
 21
206.6852328957
  0
LINE
  5
2EC
100
AcDbEntity
  8
0
100
AcDbLine
 62
7
  6
BYLAYER
 10
203.3119605471
 20
230.0455264697
 11
203.3119605471
 21
212.898799178
  0
LINE
  5
2ED
100
AcDbEntity
  8
0
100
AcDbLine
 62
7
  6
BYLAYER
 10
212.8563556881
 20
220.6294251435
 11
212.856355688
 21
221.597300451
  0
LINE
  5
2EE
100
AcDbEntity
  8
0
100
AcDbLine
 62
7
  6
BYLAYER
 10
215.584909528
 20
222.0015727037
 11
215.5849095281
 21
222.8779185547
  0
LINE
  5
2EF
100
AcDbEntity
  8
0
100
AcDbLine
 62
7
  6
BYLAYER
 10
215.6556199118
 20
222.91874297
 11
215.6556199118
 21
222.042397119
  0
LINE
  5
2F0
100
AcDbEntity
  8
0
100
AcDbLine
 62
7
  6
BYLAYER
 10
230.9908184197
 20
207.1425914846
 11
231.0211476057
 21
206.9091550896
  0
LINE
  5
2F1
100
AcDbEntity
  8
0
100
AcDbLine
 62
7
  6
BYLAYER
 10
218.3274374187
 20
219.2836891853
 11
218.3274374187
 21
219.9954767604
  0
LINE
  5
2F2
100
AcDbEntity
  8
0
100
AcDbLine
 62
7
  6
BYLAYER
 10
218.3676730471
 20
217.2180174147
 11
218.367673047
 21
217.906018461
  0
LINE
  5
2F3
100
AcDbEntity
  8
0
100
AcDbLine
 62
7
  6
BYLAYER
 10
218.3981478024
 20
220.0363011758
 11
218.3981478025
 21
219.3245136007
  0
LINE
  5
2F4
100
AcDbEntity
  8
0
100
AcDbLine
 62
7
  6
BYLAYER
 10
218.4383834307
 20
217.9468428764
 11
218.4383834308
 21
217.2588418301
  0
LINE
  5
2F5
100
AcDbEntity
  8
0
100
AcDbLine
 62
7
  6
BYLAYER
 10
218.7094349563
 20
216.8800729053
 11
218.7094349566
 21
221.3673809734
  0
LINE
  5
2F6
100
AcDbEntity
  8
0
100
AcDbLine
 62
7
  6
BYLAYER
 10
219.5370360547
 20
216.4022679978
 11
219.5370360547
 21
218.330646179
  0
LINE
  5
2F7
100
AcDbEntity
  8
0
100
AcDbLine
 62
7
  6
BYLAYER
 10
219.5370360547
 20
218.9703788451
 11
219.5370360547
 21
220.8895760659
  0
LINE
  5
2F8
100
AcDbEntity
  8
0
100
AcDbLine
 62
7
  6
BYLAYER
 10
219.6077464386
 20
220.9304004813
 11
219.6077464391
 21
219.0132575535
  0
LINE
  5
2F9
100
AcDbEntity
  8
0
100
AcDbLine
 62
7
  6
BYLAYER
 10
219.6077464383
 20
218.3714705943
 11
219.6077464382
 21
216.4430924132
  0
LINE
  5
2FA
100
AcDbEntity
  8
0
100
AcDbLine
 62
7
  6
BYLAYER
 10
220.5184721756
 20
216.4904039513
 11
220.5184721755
 21
217.5598240955
  0
LINE
  5
2FB
100
AcDbEntity
  8
0
100
AcDbLine
 62
7
  6
BYLAYER
 10
221.3460732741
 20
216.3162598354
 11
221.3460732744
 21
217.2862216819
  0
LINE
  5
2FC
100
AcDbEntity
  8
0
100
AcDbLine
 62
7
  6
BYLAYER
 10
221.4167836582
 20
217.3270460965
 11
221.4167836579
 21
216.3570842507
  0
LINE
  5
2FD
100
AcDbEntity
  8
0
100
AcDbLine
 62
7
  6
BYLAYER
 10
221.7368648263
 20
218.1671636939
 11
221.7368648262
 21
216.0985701752
  0
LINE
  5
2FE
100
AcDbEntity
  8
0
100
AcDbLine
 62
7
  6
BYLAYER
 10
222.5643454589
 20
215.1853048401
 11
222.5643454593
 21
216.6067934522
  0
LINE
  5
2FF
100
AcDbEntity
  8
0
100
AcDbLine
 62
7
  6
BYLAYER
 10
222.5643454595
 20
217.2538983578
 11
222.5643454596
 21
217.6894283352
  0
LINE
  5
300
100
AcDbEntity
  8
0
100
AcDbLine
 62
7
  6
BYLAYER
 10
222.6350558426
 20
217.7302527511
 11
222.6350558429
 21
217.294722773
  0
LINE
  5
301
100
AcDbEntity
  8
0
100
AcDbLine
 62
7
  6
BYLAYER
 10
222.6350558431
 20
216.6476178677
 11
222.6350558429
 21
215.2261292552
  0
LINE
  5
302
100
AcDbEntity
  8
0
100
AcDbLine
 62
7
  6
BYLAYER
 10
223.5544551283
 20
215.9298656957
 11
223.5544551283
 21
214.0818887677
  0
LINE
  5
303
100
AcDbEntity
  8
0
100
AcDbLine
 62
7
  6
BYLAYER
 10
223.555177924
 20
213.5452312714
 11
223.5551779243
 21
210.9280174293
  0
LINE
  5
304
100
AcDbEntity
  8
0
100
AcDbLine
 62
7
  6
BYLAYER
 10
223.8775448148
 20
211.0799221439
 11
223.8775448151
 21
211.893810965
  0
LINE
  5
305
100
AcDbEntity
  8
0
100
AcDbLine
 62
7
  6
BYLAYER
 10
223.8775448152
 20
212.2323864893
 11
223.8775448155
 21
213.021375961
  0
LINE
  5
306
100
AcDbEntity
  8
0
100
AcDbLine
 62
7
  6
BYLAYER
 10
223.9482551988
 20
213.0622003764
 11
223.9482551986
 21
212.2732109048
  0
LINE
  5
307
100
AcDbEntity
  8
0
100
AcDbLine
 62
7
  6
BYLAYER
 10
223.9482551988
 20
211.9346353804
 11
223.9482551986
 21
211.1207465591
  0
LINE
  5
308
100
AcDbEntity
  8
0
100
AcDbLine
 62
7
  6
BYLAYER
 10
224.3820562267
 20
213.6040838603
 11
224.3820562265
 21
215.5310710168
  0
LINE
  5
309
100
AcDbEntity
  8
0
100
AcDbLine
 62
7
  6
BYLAYER
 10
224.4527666101
 20
215.5718954332
 11
224.4527666102
 21
213.6449082758
  0
LINE
  5
30A
100
AcDbEntity
  8
0
100
AcDbLine
 62
7
  6
BYLAYER
 10
224.8052531204
 20
211.3582104421
 11
224.8052531203
 21
211.6967859664
  0
LINE
  5
30B
100
AcDbEntity
  8
0
100
AcDbLine
 62
7
  6
BYLAYER
 10
224.8391040533
 20
212.4662320348
 11
224.8391040534
 21
212.8039729442
  0
LINE
  5
30C
100
AcDbEntity
  8
0
100
AcDbLine
 62
7
  6
BYLAYER
 10
224.8678954161
 20
210.1701367781
 11
224.8678954161
 21
210.5081558924
  0
LINE
  5
30D
100
AcDbEntity
  8
0
100
AcDbLine
 62
7
  6
BYLAYER
 10
224.875963504
 20
211.7376103819
 11
224.8759635042
 21
211.3990348575
  0
LINE
  5
30E
100
AcDbEntity
  8
0
100
AcDbLine
 62
7
  6
BYLAYER
 10
224.9098144371
 20
212.8447973597
 11
224.909814437
 21
212.5070564504
  0
LINE
  5
30F
100
AcDbEntity
  8
0
100
AcDbLine
 62
7
  6
BYLAYER
 10
224.9386057998
 20
210.5489803071
 11
224.9386057998
 21
210.2109611941
  0
LINE
  5
310
100
AcDbEntity
  8
0
100
AcDbLine
 62
7
  6
BYLAYER
 10
225.6244216022
 20
212.3512754164
 11
225.6244216018
 21
209.7316968322
  0
LINE
  5
311
100
AcDbEntity
  8
0
100
AcDbLine
 62
7
  6
BYLAYER
 10
225.9189608579
 20
209.5616483604
 11
225.9189608579
 21
212.1812269448
  0
LINE
  5
312
100
AcDbEntity
  8
0
100
AcDbLine
 62
7
  6
BYLAYER
 10
225.9896712416
 20
212.2220513602
 11
225.9896712416
 21
209.602472775
  0
LINE
  5
313
100
AcDbEntity
  8
0
100
AcDbLine
 62
7
  6
BYLAYER
 10
227.4115340182
 20
212.1959938773
 11
227.4115340182
 21
212.7902398262
  0
LINE
  5
314
100
AcDbEntity
  8
0
100
AcDbLine
 62
7
  6
BYLAYER
 10
227.4822444019
 20
212.8310642416
 11
227.4822444019
 21
212.2368182927
  0
LINE
  5
315
100
AcDbEntity
  8
0
100
AcDbLine
 62
7
  6
BYLAYER
 10
227.7779914477
 20
214.6793965151
 11
227.7779914477
 21
211.6355552575
  0
LINE
  5
316
100
AcDbEntity
  8
0
100
AcDbLine
 62
7
  6
BYLAYER
 10
227.9931436404
 20
208.5353806613
 11
227.9931436404
 21
208.8665837518
  0
LINE
  5
317
100
AcDbEntity
  8
0
100
AcDbLine
 62
7
  6
BYLAYER
 10
228.0638540241
 20
208.9074081671
 11
228.0638540241
 21
208.5762050767
  0
LINE
  5
318
100
AcDbEntity
  8
0
100
AcDbLine
 62
7
  6
BYLAYER
 10
228.6048697505
 20
211.1581676466
 11
228.6048697505
 21
214.2020089041
  0
LINE
  5
319
100
AcDbEntity
  8
0
100
AcDbLine
 62
7
  6
BYLAYER
 10
228.6755801343
 20
214.2428333212
 11
228.6755801343
 21
211.198992062
  0
LINE
  5
31A
100
AcDbEntity
  8
0
100
AcDbLine
 62
7
  6
BYLAYER
 10
229.942403229
 20
208.512666218
 11
229.942403229
 21
208.8800359629
  0
LINE
  5
31B
100
AcDbEntity
  8
0
100
AcDbLine
 62
7
  6
BYLAYER
 10
229.9752904342
 20
207.286686677
 11
229.9752904342
 21
207.6220628445
  0
LINE
  5
31C
100
AcDbEntity
  8
0
100
AcDbLine
 62
7
  6
BYLAYER
 10
230.0131136127
 20
208.9208603783
 11
230.0131136127
 21
208.5534906333
  0
LINE
  5
31D
100
AcDbEntity
  8
0
100
AcDbLine
 62
7
  6
BYLAYER
 10
230.0460008179
 20
207.6628872599
 11
230.0460008179
 21
207.3275110924
  0
LINE
  5
31E
100
AcDbEntity
  8
0
100
AcDbLine
 62
7
  6
BYLAYER
 10
230.9058899231
 20
214.3259137138
 11
230.9058899231
 21
212.7398668251
  0
LINE
  5
31F
100
AcDbEntity
  8
0
100
AcDbLine
 62
7
  6
BYLAYER
 10
230.9058899231
 20
212.1147401172
 11
230.9058899231
 21
210.6616752332
  0
LINE
  5
320
100
AcDbEntity
  8
0
100
AcDbLine
 62
7
  6
BYLAYER
 10
230.9058899231
 20
210.0756363331
 11
230.9058899231
 21
209.8306768028
  0
LINE
  5
321
100
AcDbEntity
  8
0
100
AcDbLine
 62
7
  6
BYLAYER
 10
230.9908184197
 20
208.0541302729
 11
230.9908184197
 21
207.1425914846
  0
LINE
  5
322
100
AcDbEntity
  8
0
100
AcDbLine
 62
7
  6
BYLAYER
 10
231.2842734819
 20
206.9987638225
 11
231.2842734816
 21
207.8847077474
  0
LINE
  5
323
100
AcDbEntity
  8
0
100
AcDbLine
 62
7
  6
BYLAYER
 10
231.2842734814
 20
208.1911505901
 11
231.2842734813
 21
208.5478094413
  0
LINE
  5
324
100
AcDbEntity
  8
0
100
AcDbLine
 62
7
  6
BYLAYER
 10
231.3549838654
 20
208.5886338569
 11
231.3549838654
 21
208.2319750053
  0
LINE
  5
325
100
AcDbEntity
  8
0
100
AcDbLine
 62
7
  6
BYLAYER
 10
231.3549838653
 20
207.9255321621
 11
231.3549838656
 21
207.0395882375
  0
LINE
  5
326
100
AcDbEntity
  8
0
100
AcDbLine
 62
7
  6
BYLAYER
 10
231.7328886914
 20
209.3532196428
 11
231.7328886914
 21
213.8484565537
  0
LINE
  5
327
100
AcDbEntity
  8
0
100
AcDbLine
 62
7
  6
BYLAYER
 10
231.756981882
 20
207.6117955995
 11
231.7569818821
 21
207.9182384418
  0
LINE
  5
328
100
AcDbEntity
  8
0
100
AcDbLine
 62
7
  6
BYLAYER
 10
231.8035990751
 20
213.88928097
 11
231.8035990751
 21
209.3940440582
  0
LINE
  5
329
100
AcDbEntity
  8
0
100
AcDbLine
 62
7
  6
BYLAYER
 10
231.8276922659
 20
207.9590628572
 11
231.8276922658
 21
207.6526200139
  0
LINE
  5
32A
100
AcDbEntity
  8
0
100
AcDbLine
 62
7
  6
BYLAYER
 10
231.8329958985
 20
206.2296045703
 11
231.8329958986
 21
206.5487057434
  0
LINE
  5
32B
100
AcDbEntity
  8
0
100
AcDbLine
 62
7
  6
BYLAYER
 10
231.9037062824
 20
206.5895301587
 11
231.9037062823
 21
206.2704289863
  0
LINE
  5
32C
100
AcDbEntity
  8
0
100
AcDbLine
 62
7
  6
BYLAYER
 10
232.5891606866
 20
205.710693814
 11
232.5891606869
 21
207.437790654
  0
LINE
  5
32D
100
AcDbEntity
  8
0
100
AcDbLine
 62
7
  6
BYLAYER
 10
232.8834590098
 20
205.5407844418
 11
232.8834590102
 21
206.4413341303
  0
LINE
  5
32E
100
AcDbEntity
  8
0
100
AcDbLine
 62
7
  6
BYLAYER
 10
232.8834590105
 20
206.858806189
 11
232.8834590107
 21
207.2678812814
  0
LINE
  5
32F
100
AcDbEntity
  8
0
100
AcDbLine
 62
7
  6
BYLAYER
 10
232.9541693941
 20
206.4821585463
 11
232.9541693942
 21
205.5816088567
  0
LINE
  5
330
100
AcDbEntity
  8
0
100
AcDbLine
 62
7
  6
BYLAYER
 10
232.9541693944
 20
207.3087056968
 11
232.9541693942
 21
206.8996344477
  0
LINE
  5
331
100
AcDbEntity
  8
0
100
AcDbLine
 62
7
  6
BYLAYER
 10
234.4577080871
 20
206.3590087149
 11
234.4577080871
 21
204.6319118739
  0
LINE
  5
332
100
AcDbEntity
  8
0
100
AcDbLine
 62
7
  6
BYLAYER
 10
234.7522473425
 20
204.4618634024
 11
234.752247343
 21
206.1889602431
  0
LINE
  5
333
100
AcDbEntity
  8
0
100
AcDbLine
 62
7
  6
BYLAYER
 10
234.7851345479
 20
207.938939934
 11
234.7851345479
 21
208.5331858828
  0
LINE
  5
334
100
AcDbEntity
  8
0
100
AcDbLine
 62
7
  6
BYLAYER
 10
234.8229577268
 20
206.2297846585
 11
234.8229577263
 21
204.5026878178
  0
LINE
  5
335
100
AcDbEntity
  8
0
100
AcDbLine
 62
7
  6
BYLAYER
 10
234.8558449317
 20
208.5740102982
 11
234.8558449317
 21
207.9797643494
  0
LINE
  5
336
100
AcDbEntity
  8
0
100
AcDbLine
 62
7
  6
BYLAYER
 10
235.2398935209
 20
207.3316946236
 11
235.2398935212
 21
210.3745621643
  0
LINE
  5
337
100
AcDbEntity
  8
0
100
AcDbLine
 62
7
  6
BYLAYER
 10
236.0678560169
 20
206.8536810677
 11
236.0678560173
 21
208.1666697177
  0
LINE
  5
338
100
AcDbEntity
  8
0
100
AcDbLine
 62
7
  6
BYLAYER
 10
236.0678560175
 20
208.9945891888
 11
236.0678560178
 21
209.8965486081
  0
LINE
  5
339
100
AcDbEntity
  8
0
100
AcDbLine
 62
7
  6
BYLAYER
 10
236.1385664015
 20
209.9373730235
 11
236.1385664013
 21
209.0360615077
  0
LINE
  5
33A
100
AcDbEntity
  8
0
100
AcDbLine
 62
7
  6
BYLAYER
 10
236.1385664013
 20
208.2074941337
 11
236.1385664013
 21
206.894505482
  0
LINE
  5
33B
100
AcDbEntity
  8
0
100
AcDbLine
 62
7
  6
BYLAYER
 10
236.695122236
 20
204.6140702796
 11
236.695122236
 21
204.9814400245
  0
LINE
  5
33C
100
AcDbEntity
  8
0
100
AcDbLine
 62
7
  6
BYLAYER
 10
236.7287322368
 20
203.3876734427
 11
236.7287322368
 21
203.7230496093
  0
LINE
  5
33D
100
AcDbEntity
  8
0
100
AcDbLine
 62
7
  6
BYLAYER
 10
236.7658326197
 20
205.0222644399
 11
236.7658326198
 21
204.6548946949
  0
LINE
  5
33E
100
AcDbEntity
  8
0
100
AcDbLine
 62
7
  6
BYLAYER
 10
236.7994426205
 20
203.7638740247
 11
236.7994426205
 21
203.4284978581
  0
LINE
  5
33F
100
AcDbEntity
  8
0
100
AcDbLine
 62
7
  6
BYLAYER
 10
247.1527635062
 20
187.5878723977
 11
247.1527635062
 21
204.7346069853
  0
LINE
  5
340
100
AcDbEntity
  8
0
100
AcDbLine
 62
7
  6
BYLAYER
 10
247.3648946574
 20
204.8568964036
 11
247.3648946574
 21
187.7103456439
  0
LINE
  5
341
100
AcDbEntity
  8
0
100
AcDbLine
 62
7
  6
BYLAYER
 10
222.1647598922
 20
214.4835962885
 11
222.0623638318
 21
213.9960404563
  0
LINE
  5
342
100
AcDbEntity
  8
0
100
AcDbLine
 62
7
  6
BYLAYER
 10
220.1603268967
 20
213.7760217048
 11
220.3688534617
 21
214.666211342
  0
LINE
  5
343
100
AcDbEntity
  8
0
100
AcDbLine
 62
7
  6
BYLAYER
 10
220.4395638454
 20
214.7070357574
 11
220.2310372804
 21
213.8168461202
  0
LINE
  5
344
100
AcDbEntity
  8
0
100
AcDbLine
 62
7
  6
BYLAYER
 10
219.3668176629
 20
213.5045514159
 11
219.5024623265
 21
214.0206237551
  0
LINE
  5
345
100
AcDbEntity
  8
0
100
AcDbLine
 62
7
  6
BYLAYER
 10
219.5731727102
 20
214.0614481705
 11
219.4375280466
 21
213.5453758312
  0
LINE
  5
346
100
AcDbEntity
  8
0
100
AcDbLine
 62
7
  6
BYLAYER
 10
221.4776580254
 20
214.2913433462
 11
221.2047667112
 21
213.254124507
  0
LINE
  5
347
100
AcDbEntity
  8
0
100
AcDbLine
 62
7
  6
BYLAYER
 10
221.7591510278
 20
213.4661249383
 11
221.8485367654
 21
213.7887049944
  0
LINE
  5
348
100
AcDbEntity
  8
0
100
AcDbLine
 62
7
  6
BYLAYER
 10
221.9192471491
 20
213.8295294098
 11
221.8298614115
 21
213.5069493537
  0
LINE
  5
349
100
AcDbEntity
  8
0
100
AcDbLine
 62
7
  6
BYLAYER
 10
221.589414499
 20
212.8342492496
 11
221.6853053982
 21
213.1530736347
  0
LINE
  5
34A
100
AcDbEntity
  8
0
100
AcDbLine
 62
7
  6
BYLAYER
 10
221.7560157819
 20
213.1938980501
 11
221.6601248827
 21
212.875073665
  0
LINE
  5
34B
100
AcDbEntity
  8
0
100
AcDbLine
 62
7
  6
BYLAYER
 10
237.2392669463
 20
208.1545851171
 11
237.4669475982
 21
208.8669324682
  0
LINE
  5
34C
100
AcDbEntity
  8
0
100
AcDbLine
 62
7
  6
BYLAYER
 10
237.5376579818
 20
208.9077568838
 11
237.3099773298
 21
208.1954095327
  0
LINE
  5
34D
100
AcDbEntity
  8
0
100
AcDbLine
 62
7
  6
BYLAYER
 10
219.6829203243
 20
214.6386589026
 11
219.5718507158
 21
214.3277631371
  0
LINE
  5
34E
100
AcDbEntity
  8
0
100
AcDbLine
 62
7
  6
BYLAYER
 10
219.8365144149
 20
215.2795760155
 11
219.7226740887
 21
214.9702798883
  0
LINE
  5
34F
100
AcDbEntity
  8
0
100
AcDbLine
 62
7
  6
BYLAYER
 10
406.5721647012
 20
359.6340862526
 11
410.0646013082
 21
361.7001801979
  0
LINE
  5
350
100
AcDbEntity
  8
0
100
AcDbLine
 62
7
  6
BYLAYER
 10
394.8654844799
 20
350.4332851116
 11
394.4495388338
 21
350.1931402143
  0
LINE
  5
351
100
AcDbEntity
  8
0
100
AcDbLine
 62
7
  6
BYLAYER
 10
397.9671094943
 20
348.3115747438
 11
403.1411241257
 21
351.1354796448
  0
LINE
  5
352
100
AcDbEntity
  8
0
100
AcDbLine
 62
7
  6
BYLAYER
 10
399.2495074082
 20
355.8317620263
 11
406.1029097088
 21
359.4986433912
  0
LINE
  5
353
100
AcDbEntity
  8
0
100
AcDbLine
 62
7
  6
BYLAYER
 10
233.5209648351
 20
206.4331365073
 11
233.6769682445
 21
206.6428358569
  0
LINE
  5
354
100
AcDbEntity
  8
0
100
AcDbLine
 62
7
  6
BYLAYER
 10
233.7476786282
 20
206.6836602723
 11
233.5916752188
 21
206.4739609226
  0
LINE
  5
355
100
AcDbEntity
  8
0
100
AcDbLine
 62
7
  6
BYLAYER
 10
236.4498298096
 20
209.4816876046
 11
236.0678560175
 21
208.9945891888
  0
LINE
  5
356
100
AcDbEntity
  8
0
100
AcDbLine
 62
7
  6
BYLAYER
 10
219.5370360547
 20
218.330646179
 11
219.7189353273
 21
218.4844623413
  0
LINE
  5
357
100
AcDbEntity
  8
0
100
AcDbLine
 62
7
  6
BYLAYER
 10
403.1411241254
 20
349.0911540701
 11
409.7435298589
 21
353.1929393247
  0
LINE
  5
358
100
AcDbEntity
  8
0
100
AcDbLine
 62
7
  6
BYLAYER
 10
395.9872022635
 20
351.7408556246
 11
401.0197949499
 21
354.8097091599
  0
LINE
  5
359
100
AcDbEntity
  8
0
100
AcDbLine
 62
7
  6
BYLAYER
 10
395.8579369383
 20
347.7537366819
 11
396.2738826346
 21
347.9938816081
  0
LINE
  5
35A
100
AcDbEntity
  8
0
100
AcDbLine
 62
7
  6
BYLAYER
 10
206.1403994477
 20
231.6783965881
 11
206.3525305989
 21
231.8008698343
  0
LINE
  5
35B
100
AcDbEntity
  8
0
100
AcDbLine
 62
7
  6
BYLAYER
 10
213.1432368066
 20
224.2553344072
 11
213.0725264228
 21
224.2145099918
  0
LINE
  5
35C
100
AcDbEntity
  8
0
100
AcDbLine
 62
7
  6
BYLAYER
 10
410.0954540653
 20
353.5316039406
 11
413.6309732513
 21
355.5230770842
  0
LINE
  5
35D
100
AcDbEntity
  8
0
100
AcDbLine
 62
7
  6
BYLAYER
 10
370.9676746131
 20
334.8459085772
 11
79.9213117426
 21
502.8778031382
  0
LINE
  5
35E
100
AcDbEntity
  8
0
100
AcDbLine
 62
7
  6
BYLAYER
 10
222.6315964707
 20
217.3015067788
 11
222.5643454595
 21
217.2538983578
  0
LINE
  5
35F
100
AcDbEntity
  8
0
100
AcDbLine
 62
7
  6
BYLAYER
 10
219.6820550388
 20
219.0709955926
 11
219.5370360547
 21
218.9703788451
  0
LINE
  5
360
100
AcDbEntity
  8
0
100
AcDbLine
 62
7
  6
BYLAYER
 10
212.856355688
 20
221.597300451
 11
212.9270660718
 21
221.6381248664
  0
LINE
  5
361
100
AcDbEntity
  8
0
100
AcDbLine
 62
7
  6
BYLAYER
 10
215.5849095281
 20
222.8779185546
 11
215.6556199118
 21
222.91874297
  0
LINE
  5
362
100
AcDbEntity
  8
0
100
AcDbLine
 62
7
  6
BYLAYER
 10
215.6556199118
 20
222.0423971181
 11
215.5849095281
 21
222.0015727027
  0
LINE
  5
363
100
AcDbEntity
  8
0
100
AcDbLine
 62
7
  6
BYLAYER
 10
216.4021095744
 20
220.8944766373
 11
216.3313991907
 21
220.853652222
  0
LINE
  5
364
100
AcDbEntity
  8
0
100
AcDbLine
 62
7
  6
BYLAYER
 10
218.7094349566
 20
221.3673809734
 11
218.7801453403
 21
221.4082053888
  0
LINE
  5
365
100
AcDbEntity
  8
0
100
AcDbLine
 62
7
  6
BYLAYER
 10
215.4493877951
 20
219.1656312889
 11
215.5200981788
 21
219.2064557043
  0
LINE
  5
366
100
AcDbEntity
  8
0
100
AcDbLine
 62
7
  6
BYLAYER
 10
219.5370360548
 20
220.8895760658
 11
219.6077464386
 21
220.9304004812
  0
LINE
  5
367
100
AcDbEntity
  8
0
100
AcDbLine
 62
7
  6
BYLAYER
 10
218.3274374187
 20
219.9954767604
 11
218.3981478024
 21
220.0363011758
  0
LINE
  5
368
100
AcDbEntity
  8
0
100
AcDbLine
 62
7
  6
BYLAYER
 10
218.3981478025
 20
219.3245136007
 11
218.3274374187
 21
219.2836891853
  0
LINE
  5
369
100
AcDbEntity
  8
0
100
AcDbLine
 62
7
  6
BYLAYER
 10
219.7535073215
 20
219.1104964164
 11
219.6827969377
 21
219.0696720011
  0
LINE
  5
36A
100
AcDbEntity
  8
0
100
AcDbLine
 62
7
  6
BYLAYER
 10
218.367673047
 20
217.906018461
 11
218.4383834307
 21
217.9468428764
  0
LINE
  5
36B
100
AcDbEntity
  8
0
100
AcDbLine
 62
7
  6
BYLAYER
 10
219.5370360547
 20
218.3306461789
 11
219.6077464384
 21
218.3714705943
  0
LINE
  5
36C
100
AcDbEntity
  8
0
100
AcDbLine
 62
7
  6
BYLAYER
 10
218.4383834308
 20
217.2588418309
 11
218.3676730471
 21
217.2180174155
  0
LINE
  5
36D
100
AcDbEntity
  8
0
100
AcDbLine
 62
7
  6
BYLAYER
 10
221.7368648263
 20
218.1671636938
 11
221.80757521
 21
218.2079881092
  0
LINE
  5
36E
100
AcDbEntity
  8
0
100
AcDbLine
 62
7
  6
BYLAYER
 10
219.5370360547
 20
216.4022679978
 11
219.6077464384
 21
216.4430924131
  0
LINE
  5
36F
100
AcDbEntity
  8
0
100
AcDbLine
 62
7
  6
BYLAYER
 10
221.3460732744
 20
217.2862216812
 11
221.4167836581
 21
217.3270460965
  0
LINE
  5
370
100
AcDbEntity
  8
0
100
AcDbLine
 62
7
  6
BYLAYER
 10
222.5643454596
 20
217.6894283351
 11
222.6350558433
 21
217.7302527505
  0
LINE
  5
371
100
AcDbEntity
  8
0
100
AcDbLine
 62
7
  6
BYLAYER
 10
219.7140005407
 20
215.842035229
 11
219.7847109245
 21
215.8828596444
  0
LINE
  5
372
100
AcDbEntity
  8
0
100
AcDbLine
 62
7
  6
BYLAYER
 10
219.1374504881
 20
215.308151248
 11
219.2081608719
 21
215.3489756634
  0
LINE
  5
373
100
AcDbEntity
  8
0
100
AcDbLine
 62
7
  6
BYLAYER
 10
222.7057257998
 20
217.3365232957
 11
222.6350154161
 21
217.2956988803
  0
LINE
  5
374
100
AcDbEntity
  8
0
100
AcDbLine
 62
7
  6
BYLAYER
 10
221.4167836578
 20
216.3570842508
 11
221.3460732741
 21
216.3162598354
  0
LINE
  5
375
100
AcDbEntity
  8
0
100
AcDbLine
 62
7
  6
BYLAYER
 10
218.8897724888
 20
214.7215522763
 11
218.9604828726
 21
214.7623766917
  0
LINE
  5
376
100
AcDbEntity
  8
0
100
AcDbLine
 62
7
  6
BYLAYER
 10
223.4223039776
 20
217.2509898881
 11
223.4930143613
 21
217.2918143035
  0
LINE
  5
377
100
AcDbEntity
  8
0
100
AcDbLine
 62
7
  6
BYLAYER
 10
222.5643454593
 20
216.6067934524
 11
222.635055843
 21
216.6476178678
  0
LINE
  5
378
100
AcDbEntity
  8
0
100
AcDbLine
 62
7
  6
BYLAYER
 10
220.3688534616
 20
214.6662113419
 11
220.4395638453
 21
214.7070357573
  0
LINE
  5
379
100
AcDbEntity
  8
0
100
AcDbLine
 62
7
  6
BYLAYER
 10
219.3668176628
 20
213.5045514159
 11
219.4375280465
 21
213.5453758313
  0
LINE
  5
37A
100
AcDbEntity
  8
0
100
AcDbLine
 62
7
  6
BYLAYER
 10
222.6350558427
 20
215.2261292554
 11
222.5643454589
 21
215.18530484
  0
LINE
  5
37B
100
AcDbEntity
  8
0
100
AcDbLine
 62
7
  6
BYLAYER
 10
220.2310372808
 20
213.8168461218
 11
220.160326897
 21
213.7760217064
  0
LINE
  5
37C
100
AcDbEntity
  8
0
100
AcDbLine
 62
7
  6
BYLAYER
 10
220.200559394
 20
213.7643344718
 11
220.1298490103
 21
213.7235100564
  0
LINE
  5
37D
100
AcDbEntity
  8
0
100
AcDbLine
 62
7
  6
BYLAYER
 10
222.3982229094
 20
214.8461008972
 11
222.4689332931
 21
214.8869253126
  0
LINE
  5
37E
100
AcDbEntity
  8
0
100
AcDbLine
 62
7
  6
BYLAYER
 10
221.5479411462
 20
214.330543799
 11
221.4772307624
 21
214.2897193837
  0
LINE
  5
37F
100
AcDbEntity
  8
0
100
AcDbLine
 62
7
  6
BYLAYER
 10
221.5786930298
 20
214.2752816068
 11
221.6494034135
 21
214.3161060222
  0
LINE
  5
380
100
AcDbEntity
  8
0
100
AcDbLine
 62
7
  6
BYLAYER
 10
224.3820562265
 20
215.5310710178
 11
224.4527666103
 21
215.5718954332
  0
LINE
  5
381
100
AcDbEntity
  8
0
100
AcDbLine
 62
7
  6
BYLAYER
 10
220.2195930151
 20
213.0938606258
 11
220.1488826314
 21
213.0530362104
  0
LINE
  5
382
100
AcDbEntity
  8
0
100
AcDbLine
 62
7
  6
BYLAYER
 10
225.1662810259
 20
215.8724701035
 11
225.0955706422
 21
215.8316456882
  0
LINE
  5
383
100
AcDbEntity
  8
0
100
AcDbLine
 62
7
  6
BYLAYER
 10
221.7591510277
 20
213.4661249383
 11
221.8298614114
 21
213.5069493537
  0
LINE
  5
384
100
AcDbEntity
  8
0
100
AcDbLine
 62
7
  6
BYLAYER
 10
226.0992983896
 20
215.7047658968
 11
226.1700087733
 21
215.7455903122
  0
LINE
  5
385
100
AcDbEntity
  8
0
100
AcDbLine
 62
7
  6
BYLAYER
 10
221.5894144989
 20
212.8342492496
 11
221.6601248827
 21
212.875073665
  0
LINE
  5
386
100
AcDbEntity
  8
0
100
AcDbLine
 62
7
  6
BYLAYER
 10
222.6620433467
 20
213.3190373761
 11
222.7327537304
 21
213.3598617914
  0
LINE
  5
387
100
AcDbEntity
  8
0
100
AcDbLine
 62
7
  6
BYLAYER
 10
225.5845473724
 20
214.7649121349
 11
225.6552577561
 21
214.8057365503
  0
LINE
  5
388
100
AcDbEntity
  8
0
100
AcDbLine
 62
7
  6
BYLAYER
 10
222.6339716495
 20
213.0427065939
 11
222.5632612658
 21
213.0018821785
  0
LINE
  5
389
100
AcDbEntity
  8
0
100
AcDbLine
 62
7
  6
BYLAYER
 10
223.555177924
 20
213.5452312713
 11
223.6258883077
 21
213.5860556867
  0
LINE
  5
38A
100
AcDbEntity
  8
0
100
AcDbLine
 62
7
  6
BYLAYER
 10
222.4208705087
 20
212.7284045274
 11
222.4915808924
 21
212.7692289428
  0
LINE
  5
38B
100
AcDbEntity
  8
0
100
AcDbLine
 62
7
  6
BYLAYER
 10
227.9708189868
 20
215.9137697725
 11
227.9001086031
 21
215.8729453571
  0
LINE
  5
38C
100
AcDbEntity
  8
0
100
AcDbLine
 62
7
  6
BYLAYER
 10
228.0514491617
 20
215.9224206434
 11
228.1221595454
 21
215.9632450588
  0
LINE
  5
38D
100
AcDbEntity
  8
0
100
AcDbLine
 62
7
  6
BYLAYER
 10
222.2893185571
 20
212.5118167456
 11
222.2186081734
 21
212.4709923302
  0
LINE
  5
38E
100
AcDbEntity
  8
0
100
AcDbLine
 62
7
  6
BYLAYER
 10
221.8139630361
 20
212.1536239576
 11
221.8846734198
 21
212.1944483729
  0
LINE
  5
38F
100
AcDbEntity
  8
0
100
AcDbLine
 62
7
  6
BYLAYER
 10
224.3820562267
 20
213.6040838602
 11
224.4527666104
 21
213.6449082756
  0
LINE
  5
390
100
AcDbEntity
  8
0
100
AcDbLine
 62
7
  6
BYLAYER
 10
228.6435393212
 20
215.4599830831
 11
228.7142497049
 21
215.5008074985
  0
LINE
  5
391
100
AcDbEntity
  8
0
100
AcDbLine
 62
7
  6
BYLAYER
 10
227.7779914477
 20
214.6793965166
 11
227.8487018314
 21
214.720220932
  0
LINE
  5
392
100
AcDbEntity
  8
0
100
AcDbLine
 62
7
  6
BYLAYER
 10
228.4829072292
 20
214.9533821174
 11
228.5536176129
 21
214.9942065328
  0
LINE
  5
393
100
AcDbEntity
  8
0
100
AcDbLine
 62
7
  6
BYLAYER
 10
224.8391040534
 20
212.8039729441
 11
224.9098144371
 21
212.8447973595
  0
LINE
  5
394
100
AcDbEntity
  8
0
100
AcDbLine
 62
7
  6
BYLAYER
 10
223.8775448152
 20
212.2323864892
 11
223.9482551989
 21
212.2732109046
  0
LINE
  5
395
100
AcDbEntity
  8
0
100
AcDbLine
 62
7
  6
BYLAYER
 10
224.8391040533
 20
212.466232035
 11
224.909814437
 21
212.5070564504
  0
LINE
  5
396
100
AcDbEntity
  8
0
100
AcDbLine
 62
7
  6
BYLAYER
 10
228.6048697505
 20
214.2020089042
 11
228.6755801343
 21
214.2428333196
  0
LINE
  5
397
100
AcDbEntity
  8
0
100
AcDbLine
 62
7
  6
BYLAYER
 10
225.6244216022
 20
212.3512754163
 11
225.6951319859
 21
212.3920998317
  0
LINE
  5
398
100
AcDbEntity
  8
0
100
AcDbLine
 62
7
  6
BYLAYER
 10
224.8052531203
 20
211.6967859664
 11
224.875963504
 21
211.7376103817
  0
LINE
  5
399
100
AcDbEntity
  8
0
100
AcDbLine
 62
7
  6
BYLAYER
 10
227.4579134094
 20
213.1792406988
 11
227.5286237931
 21
213.2200651141
  0
LINE
  5
39A
100
AcDbEntity
  8
0
100
AcDbLine
 62
7
  6
BYLAYER
 10
223.8775448148
 20
211.0799221437
 11
223.9482551986
 21
211.1207465591
  0
LINE
  5
39B
100
AcDbEntity
  8
0
100
AcDbLine
 62
7
  6
BYLAYER
 10
225.9189608584
 20
212.1812269445
 11
225.9896712421
 21
212.2220513598
  0
LINE
  5
39C
100
AcDbEntity
  8
0
100
AcDbLine
 62
7
  6
BYLAYER
 10
224.8052531204
 20
211.3582104421
 11
224.8759635042
 21
211.3990348575
  0
LINE
  5
39D
100
AcDbEntity
  8
0
100
AcDbLine
 62
7
  6
BYLAYER
 10
227.4115340182
 20
212.7902398262
 11
227.4822444019
 21
212.8310642416
  0
LINE
  5
39E
100
AcDbEntity
  8
0
100
AcDbLine
 62
7
  6
BYLAYER
 10
229.4031945841
 20
213.4793874626
 11
229.3324842004
 21
213.4385630472
  0
LINE
  5
39F
100
AcDbEntity
  8
0
100
AcDbLine
 62
7
  6
BYLAYER
 10
230.9058899231
 20
214.3259137146
 11
230.9766003069
 21
214.36673813
  0
LINE
  5
3A0
100
AcDbEntity
  8
0
100
AcDbLine
 62
7
  6
BYLAYER
 10
227.4822444019
 20
212.2368182927
 11
227.4115340182
 21
212.1959938773
  0
LINE
  5
3A1
100
AcDbEntity
  8
0
100
AcDbLine
 62
7
  6
BYLAYER
 10
224.8678954158
 20
210.5081558923
 11
224.9386057995
 21
210.5489803077
  0
LINE
  5
3A2
100
AcDbEntity
  8
0
100
AcDbLine
 62
7
  6
BYLAYER
 10
224.8678954161
 20
210.1701367787
 11
224.9386057998
 21
210.2109611941
  0
LINE
  5
3A3
100
AcDbEntity
  8
0
100
AcDbLine
 62
7
  6
BYLAYER
 10
231.7328886914
 20
213.848456553
 11
231.8035990751
 21
213.8892809683
  0
LINE
  5
3A4
100
AcDbEntity
  8
0
100
AcDbLine
 62
7
  6
BYLAYER
 10
226.9566446871
 20
210.584342108
 11
226.8859343034
 21
210.5435176926
  0
LINE
  5
3A5
100
AcDbEntity
  8
0
100
AcDbLine
 62
7
  6
BYLAYER
 10
228.6048697505
 20
211.1581676467
 11
228.6755801343
 21
211.198992062
  0
LINE
  5
3A6
100
AcDbEntity
  8
0
100
AcDbLine
 62
7
  6
BYLAYER
 10
225.9189608579
 20
209.5616483604
 11
225.9896712416
 21
209.6024727758
  0
LINE
  5
3A7
100
AcDbEntity
  8
0
100
AcDbLine
 62
7
  6
BYLAYER
 10
226.9750858691
 20
209.9921167108
 11
227.0457962528
 21
210.0329411261
  0
LINE
  5
3A8
100
AcDbEntity
  8
0
100
AcDbLine
 62
7
  6
BYLAYER
 10
228.0190438204
 20
209.1622465327
 11
228.0897542041
 21
209.2030709481
  0
LINE
  5
3A9
100
AcDbEntity
  8
0
100
AcDbLine
 62
7
  6
BYLAYER
 10
232.5392425707
 20
211.6163839694
 11
232.468532187
 21
211.575559554
  0
LINE
  5
3AA
100
AcDbEntity
  8
0
100
AcDbLine
 62
7
  6
BYLAYER
 10
227.9931436404
 20
208.8665837518
 11
228.0638540241
 21
208.9074081671
  0
LINE
  5
3AB
100
AcDbEntity
  8
0
100
AcDbLine
 62
7
  6
BYLAYER
 10
229.0660016007
 20
209.3600998495
 11
228.995291217
 21
209.3192754341
  0
LINE
  5
3AC
100
AcDbEntity
  8
0
100
AcDbLine
 62
7
  6
BYLAYER
 10
228.0638540241
 20
208.5762050767
 11
227.9931436404
 21
208.5353806613
  0
LINE
  5
3AD
100
AcDbEntity
  8
0
100
AcDbLine
 62
7
  6
BYLAYER
 10
81.8305097669
 20
508.8791293826
 11
104.4580209716
 21
495.8154252379
  0
LINE
  5
3AE
100
AcDbEntity
  8
0
100
AcDbLine
 62
7
  6
BYLAYER
 10
95.0357844721
 20
506.3787877107
 11
96.5298299819
 21
505.5162196473
  0
LINE
  5
3AF
100
AcDbEntity
  8
0
100
AcDbLine
 62
7
  6
BYLAYER
 10
96.4204489463
 20
506.0692708385
 11
95.0357844721
 21
506.8686891602
  0
LINE
  5
3B0
100
AcDbEntity
  8
0
100
AcDbLine
 62
7
  6
BYLAYER
 10
96.49115933
 20
506.1100952539
 11
95.1064948558
 21
506.9095135755
  0
LINE
  5
3B1
100
AcDbEntity
  8
0
100
AcDbLine
 62
7
  6
BYLAYER
 10
86.0897415909
 20
514.7280305578
 11
85.8345191747
 21
514.8753799551
  0
LINE
  5
3B2
100
AcDbEntity
  8
0
100
AcDbLine
 62
7
  6
BYLAYER
 10
83.4438806176
 20
516.2555845459
 11
83.189486867
 21
516.4024555237
  0
LINE
  5
3B3
100
AcDbEntity
  8
0
100
AcDbLine
 62
7
  6
BYLAYER
 10
83.2601972424
 20
516.4432799431
 11
83.5145910146
 21
516.2964089529
  0
LINE
  5
3B4
100
AcDbEntity
  8
0
100
AcDbLine
 62
7
  6
BYLAYER
 10
85.905229558
 20
514.9162043707
 11
86.1604519745
 21
514.7688549733
  0
LINE
  5
3B5
100
AcDbEntity
  8
0
100
AcDbLine
 62
7
  6
BYLAYER
 10
104.4580209716
 20
508.0629614949
 11
81.8305097669
 21
521.1266656395
  0
LINE
  5
3B6
100
AcDbEntity
  8
0
100
AcDbLine
 62
7
  6
BYLAYER
 10
82.042640918
 20
521.2491388857
 11
104.6701521227
 21
508.1854347411
  0
LINE
  5
3B7
100
AcDbEntity
  8
0
100
AcDbLine
 62
7
  6
BYLAYER
 10
233.4709714649
 20
211.4488247446
 11
233.5416818486
 21
211.48964916
  0
LINE
  5
3B8
100
AcDbEntity
  8
0
100
AcDbLine
 62
7
  6
BYLAYER
 10
229.942403229
 20
208.8800359629
 11
230.0131136127
 21
208.9208603783
  0
LINE
  5
3B9
100
AcDbEntity
  8
0
100
AcDbLine
 62
7
  6
BYLAYER
 10
232.956822776
 20
210.5086232362
 11
233.0275331597
 21
210.5494476516
  0
LINE
  5
3BA
100
AcDbEntity
  8
0
100
AcDbLine
 62
7
  6
BYLAYER
 10
230.0131136127
 20
208.5534906334
 11
229.942403229
 21
208.512666218
  0
LINE
  5
3BB
100
AcDbEntity
  8
0
100
AcDbLine
 62
7
  6
BYLAYER
 10
231.7328886914
 20
209.3532196428
 11
231.8035990751
 21
209.3940440582
  0
LINE
  5
3BC
100
AcDbEntity
  8
0
100
AcDbLine
 62
7
  6
BYLAYER
 10
230.6972338841
 20
208.2236275488
 11
230.7679442678
 21
208.2644519642
  0
LINE
  5
3BD
100
AcDbEntity
  8
0
100
AcDbLine
 62
7
  6
BYLAYER
 10
231.2842734817
 20
208.5478094415
 11
231.3549838654
 21
208.5886338569
  0
LINE
  5
3BE
100
AcDbEntity
  8
0
100
AcDbLine
 62
7
  6
BYLAYER
 10
229.9752904342
 20
207.6220628445
 11
230.0460008179
 21
207.6628872599
  0
LINE
  5
3BF
100
AcDbEntity
  8
0
100
AcDbLine
 62
7
  6
BYLAYER
 10
231.2842734814
 20
208.1911505901
 11
231.3549838652
 21
208.2319750055
  0
LINE
  5
3C0
100
AcDbEntity
  8
0
100
AcDbLine
 62
7
  6
BYLAYER
 10
235.2398935212
 20
210.3745621643
 11
235.310603905
 21
210.4153865797
  0
LINE
  5
3C1
100
AcDbEntity
  8
0
100
AcDbLine
 62
7
  6
BYLAYER
 10
230.0460008179
 20
207.3275110925
 11
229.9752904342
 21
207.2866866771
  0
LINE
  5
3C2
100
AcDbEntity
  8
0
100
AcDbLine
 62
7
  6
BYLAYER
 10
231.7569818821
 20
207.9182384418
 11
231.8276922659
 21
207.9590628572
  0
LINE
  5
3C3
100
AcDbEntity
  8
0
100
AcDbLine
 62
7
  6
BYLAYER
 10
231.756981882
 20
207.6117955986
 11
231.8276922657
 21
207.652620014
  0
LINE
  5
3C4
100
AcDbEntity
  8
0
100
AcDbLine
 62
7
  6
BYLAYER
 10
236.0678560178
 20
209.8965486081
 11
236.1385664015
 21
209.9373730235
  0
LINE
  5
3C5
100
AcDbEntity
  8
0
100
AcDbLine
 62
7
  6
BYLAYER
 10
231.3549838656
 20
207.0395882375
 11
231.2842734819
 21
206.9987638221
  0
LINE
  5
3C6
100
AcDbEntity
  8
0
100
AcDbLine
 62
7
  6
BYLAYER
 10
234.8299478822
 20
208.9230908984
 11
234.900658266
 21
208.9639153138
  0
LINE
  5
3C7
100
AcDbEntity
  8
0
100
AcDbLine
 62
7
  6
BYLAYER
 10
232.5891606869
 20
207.437790654
 11
232.6598710706
 21
207.4786150694
  0
LINE
  5
3C8
100
AcDbEntity
  8
0
100
AcDbLine
 62
7
  6
BYLAYER
 10
234.7851345479
 20
208.5331858828
 11
234.8558449317
 21
208.5740102982
  0
LINE
  5
3C9
100
AcDbEntity
  8
0
100
AcDbLine
 62
7
  6
BYLAYER
 10
236.5208508641
 20
209.5219651841
 11
236.4501404804
 21
209.4811407687
  0
LINE
  5
3CA
100
AcDbEntity
  8
0
100
AcDbLine
 62
7
  6
BYLAYER
 10
232.8834590107
 20
207.2678812814
 11
232.9541693944
 21
207.3087056968
  0
LINE
  5
3CB
100
AcDbEntity
  8
0
100
AcDbLine
 62
7
  6
BYLAYER
 10
231.8329958986
 20
206.5487057434
 11
231.9037062824
 21
206.5895301587
  0
LINE
  5
3CC
100
AcDbEntity
  8
0
100
AcDbLine
 62
7
  6
BYLAYER
 10
233.1414620286
 20
207.0908139188
 11
233.0707516449
 21
207.0499895034
  0
LINE
  5
3CD
100
AcDbEntity
  8
0
100
AcDbLine
 62
7
  6
BYLAYER
 10
234.8558449317
 20
207.9797643494
 11
234.7851345479
 21
207.938939934
  0
LINE
  5
3CE
100
AcDbEntity
  8
0
100
AcDbLine
 62
7
  6
BYLAYER
 10
231.8329958985
 20
206.2296045709
 11
231.9037062823
 21
206.2704289863
  0
LINE
  5
3CF
100
AcDbEntity
  8
0
100
AcDbLine
 62
7
  6
BYLAYER
 10
232.8834590103
 20
206.441334131
 11
232.954169394
 21
206.4821585463
  0
LINE
  5
3D0
100
AcDbEntity
  8
0
100
AcDbLine
 62
7
  6
BYLAYER
 10
236.0678560172
 20
208.1666697184
 11
236.1385664009
 21
208.2074941338
  0
LINE
  5
3D1
100
AcDbEntity
  8
0
100
AcDbLine
 62
7
  6
BYLAYER
 10
237.4669475981
 20
208.8669324684
 11
237.5376579818
 21
208.9077568838
  0
LINE
  5
3D2
100
AcDbEntity
  8
0
100
AcDbLine
 62
7
  6
BYLAYER
 10
233.6769682445
 20
206.6428358569
 11
233.7476786282
 21
206.6836602723
  0
LINE
  5
3D3
100
AcDbEntity
  8
0
100
AcDbLine
 62
7
  6
BYLAYER
 10
233.5916752188
 20
206.4739609227
 11
233.5209648351
 21
206.4331365073
  0
LINE
  5
3D4
100
AcDbEntity
  8
0
100
AcDbLine
 62
7
  6
BYLAYER
 10
234.4959814101
 20
206.9473545125
 11
234.6235865738
 21
207.0079907373
  0
LINE
  5
3D5
100
AcDbEntity
  8
0
100
AcDbLine
 62
7
  6
BYLAYER
 10
234.7621255511
 20
206.8036544083
 11
234.8328359348
 21
206.8444788237
  0
LINE
  5
3D6
100
AcDbEntity
  8
0
100
AcDbLine
 62
7
  6
BYLAYER
 10
237.3099773299
 20
208.1954095327
 11
237.2392669462
 21
208.1545851173
  0
LINE
  5
3D7
100
AcDbEntity
  8
0
100
AcDbLine
 62
7
  6
BYLAYER
 10
234.708169234
 20
206.6256544902
 11
234.7788796177
 21
206.6664789056
  0
LINE
  5
3D8
100
AcDbEntity
  8
0
100
AcDbLine
 62
7
  6
BYLAYER
 10
232.8834590098
 20
205.5407844417
 11
232.9541693935
 21
205.5816088571
  0
LINE
  5
3D9
100
AcDbEntity
  8
0
100
AcDbLine
 62
7
  6
BYLAYER
 10
234.4577080871
 20
206.3590087149
 11
234.5284184708
 21
206.3998331302
  0
LINE
  5
3DA
100
AcDbEntity
  8
0
100
AcDbLine
 62
7
  6
BYLAYER
 10
234.7522473431
 20
206.1889602431
 11
234.8229577268
 21
206.2297846585
  0
LINE
  5
3DB
100
AcDbEntity
  8
0
100
AcDbLine
 62
7
  6
BYLAYER
 10
236.0678560168
 20
206.853681067
 11
236.1385664006
 21
206.8945054824
  0
LINE
  5
3DC
100
AcDbEntity
  8
0
100
AcDbLine
 62
7
  6
BYLAYER
 10
235.8169430729
 20
205.4619028583
 11
235.7462326891
 21
205.4210784429
  0
LINE
  5
3DD
100
AcDbEntity
  8
0
100
AcDbLine
 62
7
  6
BYLAYER
 10
234.7522473426
 20
204.4618634024
 11
234.8229577263
 21
204.5026878178
  0
LINE
  5
3DE
100
AcDbEntity
  8
0
100
AcDbLine
 62
7
  6
BYLAYER
 10
244.5364557568
 20
209.7558690902
 11
244.3243246057
 21
209.633395844
  0
LINE
  5
3DF
100
AcDbEntity
  8
0
100
AcDbLine
 62
7
  6
BYLAYER
 10
236.695122236
 20
204.9814400245
 11
236.7658326197
 21
205.0222644399
  0
LINE
  5
3E0
100
AcDbEntity
  8
0
100
AcDbLine
 62
7
  6
BYLAYER
 10
236.7658326197
 20
204.6548946949
 11
236.695122236
 21
204.6140702796
  0
LINE
  5
3E1
100
AcDbEntity
  8
0
100
AcDbLine
 62
7
  6
BYLAYER
 10
236.7287322367
 20
203.7230496093
 11
236.7994426205
 21
203.7638740247
  0
LINE
  5
3E2
100
AcDbEntity
  8
0
100
AcDbLine
 62
7
  6
BYLAYER
 10
236.7994426205
 20
203.4284978573
 11
236.7287322368
 21
203.3876734419
  0
LINE
  5
3E3
100
AcDbEntity
  8
0
100
AcDbLine
 62
7
  6
BYLAYER
 10
247.1527635062
 20
204.7344231574
 11
247.3648946574
 21
204.8568964036
  0
LINE
  5
3E4
100
AcDbEntity
  8
0
100
AcDbLine
 62
7
  6
BYLAYER
 10
231.3549838654
 20
208.5886338569
 11
230.6972338842
 21
208.2236275489
  0
LINE
  5
3E5
100
AcDbEntity
  8
0
100
AcDbLine
 62
7
  6
BYLAYER
 10
234.5667414206
 20
206.9880948808
 11
234.6235865738
 21
207.0079907373
  0
LINE
  5
3E6
100
AcDbEntity
  8
0
100
AcDbLine
 62
7
  6
BYLAYER
 10
234.6521401353
 20
206.6057794534
 11
234.7087124832
 21
206.6247291642
  0
LINE
  5
3E7
100
AcDbEntity
  8
0
100
AcDbLine
 62
7
  6
BYLAYER
 10
234.5528761901
 20
206.967166322
 11
234.4954742513
 21
206.9482179948
  0
LINE
  5
3E8
100
AcDbEntity
  8
0
100
AcDbLine
 62
7
  6
BYLAYER
 10
227.9709181234
 20
215.9135969865
 11
228.1221595454
 21
215.9632450588
  0
LINE
  5
3E9
100
AcDbEntity
  8
0
100
AcDbLine
 62
7
  6
BYLAYER
 10
228.3323757643
 20
214.9036379688
 11
228.4837038572
 21
214.9520139634
  0
LINE
  5
3EA
100
AcDbEntity
  8
0
100
AcDbLine
 62
7
  6
BYLAYER
 10
228.0514491617
 20
215.9224206434
 11
227.8991254224
 21
215.8746219059
  0
LINE
  5
3EB
100
AcDbEntity
  8
0
100
AcDbLine
 62
7
  6
BYLAYER
 10
56.4467010845
 20
545.3347548826
 11
394.4495388338
 21
350.1931402143
  0
LINE
  5
3EC
100
AcDbEntity
  8
0
100
AcDbLine
 62
7
  6
BYLAYER
 10
56.4506765869
 20
545.8161085004
 11
394.8625720711
 21
350.4383295816
  0
LINE
  5
3ED
100
AcDbEntity
  8
0
100
AcDbLine
 62
7
  6
BYLAYER
 10
55.3260463941
 20
548.4172162544
 11
395.9872022635
 21
351.7408556246
  0
LINE
  5
3EE
100
AcDbEntity
  8
0
100
AcDbLine
 62
7
  6
BYLAYER
 10
60.1928663798
 20
551.5817765376
 11
401.0198895429
 21
354.8096545475
  0
LINE
  5
3EF
100
AcDbEntity
  8
0
100
AcDbLine
 62
7
  6
BYLAYER
 10
406.1029097088
 20
359.4986433912
 11
77.0032024665
 21
549.5001495494
  0
LINE
  5
3F0
100
AcDbEntity
  8
0
100
AcDbLine
 62
7
  6
BYLAYER
 10
77.2893969732
 20
549.7412800405
 11
406.5721647012
 21
359.6340862526
  0
LINE
  5
3F1
100
AcDbEntity
  8
0
100
AcDbLine
 62
7
  6
BYLAYER
 10
370.9676746131
 20
334.8459085776
 11
370.9676746131
 21
145.2540473201
  0
LINE
  5
3F2
100
AcDbEntity
  8
0
100
AcDbLine
 62
7
  6
BYLAYER
 10
247.1527635062
 20
187.5878723977
 11
247.3648946574
 21
187.7103456439
  0
LINE
  5
3F3
100
AcDbEntity
  8
0
100
AcDbLine
 62
7
  6
BYLAYER
 10
80.7948554434
 20
551.7998559796
 11
410.0646013082
 21
361.7001801979
  0
LINE
  5
3F4
100
AcDbEntity
  8
0
100
AcDbLine
 62
7
  6
BYLAYER
 10
104.4580209716
 20
495.8154252379
 11
105.9579445729
 21
495.6669730938
  0
LINE
  5
3F5
100
AcDbEntity
  8
0
100
AcDbLine
 62
7
  6
BYLAYER
 10
85.8345191747
 20
514.8753799551
 11
85.4071378104
 21
515.0044107977
  0
LINE
  5
3F6
100
AcDbEntity
  8
0
100
AcDbLine
 62
7
  6
BYLAYER
 10
85.4778494494
 20
515.0452302656
 11
85.905229558
 21
514.9162043707
  0
LINE
  5
3F7
100
AcDbEntity
  8
0
100
AcDbLine
 62
7
  6
BYLAYER
 10
395.8579369383
 20
103.6904273686
 11
395.8579369383
 21
347.7537366834
  0
LINE
  5
3F8
100
AcDbEntity
  8
0
100
AcDbLine
 62
7
  6
BYLAYER
 10
396.2767915214
 20
347.9888432383
 11
396.2767915214
 21
103.3772117754
  0
LINE
  5
3F9
100
AcDbEntity
  8
0
100
AcDbLine
 62
7
  6
BYLAYER
 10
397.9671094943
 20
348.3115747438
 11
397.9671094943
 21
101.1027133519
  0
LINE
  5
3FA
100
AcDbEntity
  8
0
100
AcDbLine
 62
7
  6
BYLAYER
 10
403.1411241254
 20
351.1355845231
 11
403.1411241254
 21
103.7351380275
  0
LINE
  5
3FB
100
AcDbEntity
  8
0
100
AcDbLine
 62
7
  6
BYLAYER
 10
92.610262995
 20
507.1587962409
 11
92.1114990587
 21
507.2097589489
  0
LINE
  5
3FC
100
AcDbEntity
  8
0
100
AcDbLine
 62
7
  6
BYLAYER
 10
93.2384551831
 20
509.3827564561
 11
93.005436165
 21
509.4080851993
  0
LINE
  5
3FD
100
AcDbEntity
  8
0
100
AcDbLine
 62
7
  6
BYLAYER
 10
99.7598851092
 20
506.0396582083
 11
100.0291724995
 21
506.0102143328
  0
LINE
  5
3FE
100
AcDbEntity
  8
0
100
AcDbLine
 62
7
  6
BYLAYER
 10
91.6248950318
 20
509.4144840389
 11
92.1065271941
 21
509.3559482363
  0
LINE
  5
3FF
100
AcDbEntity
  8
0
100
AcDbLine
 62
7
  6
BYLAYER
 10
99.7515986671
 20
502.0639929953
 11
100.0065067146
 21
502.0328987169
  0
LINE
  5
400
100
AcDbEntity
  8
0
100
AcDbLine
 62
7
  6
BYLAYER
 10
98.2136350149
 20
502.951916638
 11
98.4685410368
 21
502.9194992859
  0
LINE
  5
401
100
AcDbEntity
  8
0
100
AcDbLine
 62
7
  6
BYLAYER
 10
98.0386743132
 20
507.9242029756
 11
98.2843453986
 21
507.8917555562
  0
LINE
  5
402
100
AcDbEntity
  8
0
100
AcDbLine
 62
7
  6
BYLAYER
 10
86.2281251737
 20
509.8715974272
 11
86.4848576495
 21
509.8368460901
  0
LINE
  5
403
100
AcDbEntity
  8
0
100
AcDbLine
 62
7
  6
BYLAYER
 10
84.6412715135
 20
510.7877470889
 11
84.9754726036
 21
510.7406950064
  0
LINE
  5
404
100
AcDbEntity
  8
0
100
AcDbLine
 62
7
  6
BYLAYER
 10
95.7517330695
 20
507.9250497474
 11
94.7090355722
 21
508.0872844587
  0
LINE
  5
405
100
AcDbEntity
  8
0
100
AcDbLine
 62
7
  6
BYLAYER
 10
94.7793074148
 20
508.1288779326
 11
95.8224434532
 21
507.9658741628
  0
LINE
  5
406
100
AcDbEntity
  8
0
100
AcDbLine
 62
7
  6
BYLAYER
 10
409.7435298589
 20
119.3686476002
 11
409.7435298589
 21
353.1929393247
  0
LINE
  5
407
100
AcDbEntity
  8
0
100
AcDbLine
 62
7
  6
BYLAYER
 10
410.0954540653
 20
353.5316039406
 11
410.0954540653
 21
119.4110348859
  0
LINE
  5
408
100
AcDbEntity
  8
0
100
AcDbLine
 62
7
  6
BYLAYER
 10
413.6309732513
 20
355.5230770842
 11
413.6309732513
 21
121.4951864961
  0
LINE
  5
409
100
AcDbEntity
  8
0
100
AcDbLine
 62
7
  6
BYLAYER
 10
81.8305097669
 20
521.1266656395
 11
80.3305861656
 21
521.2751177836
  0
LINE
  5
40A
100
AcDbEntity
  8
0
100
AcDbLine
 62
7
  6
BYLAYER
 10
80.5427235381
 20
521.397580254
 11
82.042640918
 21
521.2491388857
  0
LINE
  5
40B
100
AcDbEntity
  8
0
100
AcDbLine
 62
7
  6
BYLAYER
 10
53.8754646015
 20
548.5240964569
 11
55.3260463945
 21
548.4172162538
  0
LINE
  5
40C
100
AcDbEntity
  8
0
100
AcDbLine
 62
7
  6
BYLAYER
 10
58.6386355552
 20
551.6963938887
 11
60.1928663798
 21
551.5817765376
  0
LINE
  5
40D
100
AcDbEntity
  8
0
100
AcDbLine
 62
7
  6
BYLAYER
 10
56.4467010862
 20
545.3347548816
 11
55.445714555
 21
545.4338661378
  0
LINE
  5
40E
100
AcDbEntity
  8
0
100
AcDbLine
 62
7
  6
BYLAYER
 10
397.9671094939
 20
101.1027133521
 11
397.3343732189
 21
99.7929955907
  0
LINE
  5
40F
100
AcDbEntity
  8
0
100
AcDbLine
 62
7
  6
BYLAYER
 10
403.1411241254
 20
103.7351380275
 11
402.4632577839
 21
102.3318585279
  0
LINE
  5
410
100
AcDbEntity
  8
0
100
AcDbLine
 62
7
  6
BYLAYER
 10
403.1411241254
 20
113.4397055283
 11
408.7480252357
 21
117.0536624179
  0
LINE
  5
411
100
AcDbEntity
  8
0
100
AcDbLine
 62
7
  6
BYLAYER
 10
403.1411241254
 20
115.1843421189
 11
409.7435298589
 21
119.3686476002
  0
LINE
  5
412
100
AcDbEntity
  8
0
100
AcDbLine
 62
7
  6
BYLAYER
 10
410.0954540653
 20
119.4110348859
 11
413.6309732513
 21
121.4951864956
  0
LINE
  5
413
100
AcDbEntity
  8
0
100
AcDbLine
 62
7
  6
BYLAYER
 10
409.0774986852
 20
117.1488916023
 11
412.6022082407
 21
119.2090215961
  0
LINE
  5
414
100
AcDbEntity
  8
0
100
AcDbLine
 62
7
  6
BYLAYER
 10
396.2767915214
 20
103.932251731
 11
395.8579369383
 21
103.6904273682
  0
LINE
  5
415
100
AcDbEntity
  8
0
100
AcDbLine
 62
7
  6
BYLAYER
 10
395.6361537431
 20
102.8538025268
 11
396.1827560114
 21
103.1693816098
  0
LINE
  5
416
100
AcDbEntity
  8
0
100
AcDbLine
 62
7
  6
BYLAYER
 10
397.9671094943
 20
101.1027133519
 11
403.1411241257
 21
103.7352472541
  0
LINE
  5
417
100
AcDbEntity
  8
0
100
AcDbLine
 62
7
  6
BYLAYER
 10
397.3344897876
 20
99.7927824386
 11
402.4633172973
 21
102.3317498469
  0
ARC
  5
418
100
AcDbEntity
  8
0
100
AcDbCircle
 62
7
  6
BYLAYER
 10
194.2812951791
 20
195.4953270863
 40
34.2136964419
100
AcDbArc
 50
34.5259065936
 51
34.7229789712
  0
ARC
  5
419
100
AcDbEntity
  8
0
100
AcDbCircle
 62
7
  6
BYLAYER
 10
206.2313263788
 20
189.6266613521
 40
33.8886069623
100
AcDbArc
 50
43.097299056
 51
43.2631937407
  0
ARC
  5
41A
100
AcDbEntity
  8
0
100
AcDbCircle
 62
7
  6
BYLAYER
 10
8.353999075
 20
509.8485101857
 40
81.7024834345
100
AcDbArc
 50
359.3160195218
 51
359.7692338205
  0
ARC
  5
41B
100
AcDbEntity
  8
0
100
AcDbCircle
 62
7
  6
BYLAYER
 10
8.9831665797
 20
509.8890982969
 40
81.1440547347
100
AcDbArc
 50
359.5058099725
 51
0.0124970721
  0
ARC
  5
41C
100
AcDbEntity
  8
0
100
AcDbCircle
 62
7
  6
BYLAYER
 10
10.165298333
 20
509.8743386612
 40
79.9618397797
100
AcDbArc
 50
359.3118755735
 51
359.5090795683
  0
ARC
  5
41D
100
AcDbEntity
  8
0
100
AcDbCircle
 62
7
  6
BYLAYER
 10
10.7745241269
 20
509.8505523314
 40
79.2819871169
100
AcDbArc
 50
359.7607126012
 51
0.0113899467
  0
ARC
  5
41E
100
AcDbEntity
  8
0
100
AcDbCircle
 62
7
  6
BYLAYER
 10
126.2144006362
 20
530.4899146601
 40
36.5462942406
100
AcDbArc
 50
228.5806062572
 51
228.99159198
  0
ARC
  5
41F
100
AcDbEntity
  8
0
100
AcDbCircle
 62
7
  6
BYLAYER
 10
122.5397436833
 20
526.2619170043
 40
30.9445921974
100
AcDbArc
 50
228.9891122466
 51
229.4001891291
  0
ARC
  5
420
100
AcDbEntity
  8
0
100
AcDbCircle
 62
7
  6
BYLAYER
 10
92.2791580201
 20
522.620771212
 40
12.5602457249
100
AcDbArc
 50
254.8227521592
 51
256.3845677453
  0
ARC
  5
421
100
AcDbEntity
  8
0
100
AcDbCircle
 62
7
  6
BYLAYER
 10
91.6671934187
 20
520.0828531589
 40
9.9495906872
100
AcDbArc
 50
256.3691988813
 51
256.7036295763
  0
ARC
  5
422
100
AcDbEntity
  8
0
100
AcDbCircle
 62
7
  6
BYLAYER
 10
74.5822724244
 20
513.4207699237
 40
9.7199230257
100
AcDbArc
 50
11.3021250613
 51
12.1872354999
  0
ARC
  5
423
100
AcDbEntity
  8
0
100
AcDbCircle
 62
7
  6
BYLAYER
 10
85.7467354162
 20
505.5395302872
 40
8.0027995195
100
AcDbArc
 50
25.6598166972
 51
26.4168948478
  0
ARC
  5
424
100
AcDbEntity
  8
0
100
AcDbCircle
 62
7
  6
BYLAYER
 10
75.1365409981
 20
546.0154677753
 40
4.3030762856
100
AcDbArc
 50
59.9810722627
 51
63.5007239111
  0
ARC
  5
425
100
AcDbEntity
  8
0
100
AcDbCircle
 62
7
  6
BYLAYER
 10
89.988557378
 20
507.707212004
 40
3.238544733
100
AcDbArc
 50
29.4512299138
 51
33.2353049026
  0
ARC
  5
426
100
AcDbEntity
  8
0
100
AcDbCircle
 62
7
  6
BYLAYER
 10
98.0290248456
 20
506.5032585416
 40
2.9237267766
100
AcDbArc
 50
181.6394283661
 51
183.316323312
  0
ARC
  5
427
100
AcDbEntity
  8
0
100
AcDbCircle
 62
7
  6
BYLAYER
 10
75.348130446
 20
548.0794670401
 40
1.9062682122
100
AcDbArc
 50
98.3357395372
 51
104.2114911147
  0
ARC
  5
428
100
AcDbEntity
  8
0
100
AcDbCircle
 62
7
  6
BYLAYER
 10
75.6048087128
 20
548.5708166575
 40
1.6395076461
100
AcDbArc
 50
120.3383031088
 51
131.1321814562
  0
ARC
  5
429
100
AcDbEntity
  8
0
100
AcDbCircle
 62
7
  6
BYLAYER
 10
102.0867030073
 20
501.1144692366
 40
1.3569844038
100
AcDbArc
 50
18.1657576191
 51
23.9083544702
  0
ARC
  5
42A
100
AcDbEntity
  8
0
100
AcDbCircle
 62
7
  6
BYLAYER
 10
102.3020947813
 20
501.1865756996
 40
1.1298484637
100
AcDbArc
 50
4.9352902414
 51
18.0967652926
  0
ARC
  5
42B
100
AcDbEntity
  8
0
100
AcDbCircle
 62
7
  6
BYLAYER
 10
92.5142332948
 20
507.4881161384
 40
0.3346584675
100
AcDbArc
 50
290.401390156
 51
300.0258887731
  0
ARC
  5
42C
100
AcDbEntity
  8
0
100
AcDbCircle
 62
7
  6
BYLAYER
 10
89.067779248
 20
509.3285330017
 40
0.2483968214
100
AcDbArc
 50
291.2136495283
 51
300.0362003331
  0
ARC
  5
42D
100
AcDbEntity
  8
0
100
AcDbCircle
 62
7
  6
BYLAYER
 10
217.645353368
 20
224.6793619391
 40
5.5919424577
100
AcDbArc
 50
220.3987921321
 51
222.8345712146
  0
ARC
  5
42E
100
AcDbEntity
  8
0
100
AcDbCircle
 62
7
  6
BYLAYER
 10
211.8368179288
 20
218.7320197454
 40
4.3248115453
100
AcDbArc
 50
38.1405635137
 51
40.7539819053
  0
ARC
  5
42F
100
AcDbEntity
  8
0
100
AcDbCircle
 62
7
  6
BYLAYER
 10
405.7839904482
 20
119.4105132185
 40
4.3114636074
100
AcDbArc
 50
357.7098859142
 51
0.0038982533
  0
ARC
  5
430
100
AcDbEntity
  8
0
100
AcDbCircle
 62
7
  6
BYLAYER
 10
227.7877631641
 20
215.2051722373
 40
3.1404174369
100
AcDbArc
 50
215.7760480657
 51
232.0388237486
  0
ARC
  5
431
100
AcDbEntity
  8
0
100
AcDbCircle
 62
7
  6
BYLAYER
 10
224.3698269874
 20
213.1555871362
 40
3.1118410193
100
AcDbArc
 50
26.2930104603
 51
28.2062236007
  0
ARC
  5
432
100
AcDbEntity
  8
0
100
AcDbCircle
 62
7
  6
BYLAYER
 10
224.4410208649
 20
213.1966627533
 40
3.111296226
100
AcDbArc
 50
25.8357451974
 51
30.4738930924
  0
ARC
  5
433
100
AcDbEntity
  8
0
100
AcDbCircle
 62
7
  6
BYLAYER
 10
231.8148041934
 20
208.9411219664
 40
3.1092856893
100
AcDbArc
 50
24.5138573758
 51
28.4112938534
  0
ARC
  5
434
100
AcDbEntity
  8
0
100
AcDbCircle
 62
7
  6
BYLAYER
 10
229.1206986056
 20
211.3757344992
 40
2.310307664
100
AcDbArc
 50
52.7703080769
 51
56.2221541111
  0
ARC
  5
435
100
AcDbEntity
  8
0
100
AcDbCircle
 62
7
  6
BYLAYER
 10
220.4454872007
 20
213.8373266832
 40
2.2475568593
100
AcDbArc
 50
68.0971837299
 51
71.3366646445
  0
ARC
  5
436
100
AcDbEntity
  8
0
100
AcDbCircle
 62
7
  6
BYLAYER
 10
220.8684127641
 20
213.7857191992
 40
1.9155328006
100
AcDbArc
 50
330.9585930608
 51
337.1768381501
  0
ARC
  5
437
100
AcDbEntity
  8
0
100
AcDbCircle
 62
7
  6
BYLAYER
 10
407.6856915574
 20
118.6408781091
 40
1.9126605292
100
AcDbArc
 50
315.3978984151
 51
320.8056350363
  0
ARC
  5
438
100
AcDbEntity
  8
0
100
AcDbCircle
 62
7
  6
BYLAYER
 10
394.0242136686
 20
103.6893636996
 40
1.8337235782
100
AcDbArc
 50
355.9465349738
 51
0.0332349689
  0
ARC
  5
439
100
AcDbEntity
  8
0
100
AcDbCircle
 62
7
  6
BYLAYER
 10
221.0172584768
 20
213.704902274
 40
1.7461704294
100
AcDbArc
 50
327.5988952802
 51
330.9060883704
  0
ARC
  5
43A
100
AcDbEntity
  8
0
100
AcDbCircle
 62
7
  6
BYLAYER
 10
226.412073387
 20
209.2865138151
 40
1.6715683182
100
AcDbArc
 50
10.5253180183
 51
13.5507496361
  0
ARC
  5
43B
100
AcDbEntity
  8
0
100
AcDbCircle
 62
7
  6
BYLAYER
 10
408.282716435
 20
118.5076905351
 40
1.574169421
100
AcDbArc
 50
300.3240240559
 51
302.6027838169
  0
ARC
  5
43C
100
AcDbEntity
  8
0
100
AcDbCircle
 62
7
  6
BYLAYER
 10
226.8313323316
 20
209.502086875
 40
1.1929881435
100
AcDbArc
 50
47.5944376687
 51
52.6650772712
  0
ARC
  5
43D
100
AcDbEntity
  8
0
100
AcDbCircle
 62
7
  6
BYLAYER
 10
230.1027719221
 20
208.6271902169
 40
1.0348387974
100
AcDbArc
 50
209.1455929421
 51
227.5270470934
  0
ARC
  5
43E
100
AcDbEntity
  8
0
100
AcDbCircle
 62
7
  6
BYLAYER
 10
230.1661575196
 20
208.6612466478
 40
1.0248983935
100
AcDbArc
 50
219.5353525453
 51
228.2099466673
  0
ARC
  5
43F
100
AcDbEntity
  8
0
100
AcDbCircle
 62
7
  6
BYLAYER
 10
236.9177615977
 20
204.7602638909
 40
1.0223356326
100
AcDbArc
 50
219.6122105284
 51
228.2479945997
  0
ARC
  5
440
100
AcDbEntity
  8
0
100
AcDbCircle
 62
7
  6
BYLAYER
 10
227.981332278
 20
209.7788064135
 40
0.8949477712
100
AcDbArc
 50
240.3302945112
 51
246.6018006719
  0
ARC
  5
441
100
AcDbEntity
  8
0
100
AcDbCircle
 62
7
  6
BYLAYER
 10
395.5299343347
 20
103.0376471509
 40
0.665110166
100
AcDbArc
 50
300.0056186772
 51
304.6382835809
  0
ARC
  5
442
100
AcDbEntity
  8
0
100
AcDbCircle
 62
7
  6
BYLAYER
 10
220.8134186444
 20
213.4438666782
 40
0.5236324022
100
AcDbArc
 50
291.9264053604
 51
299.945178962
  0
ARC
  5
443
100
AcDbEntity
  8
0
100
AcDbCircle
 62
7
  6
BYLAYER
 10
220.8738950308
 20
214.7457663351
 40
0.3847799644
100
AcDbArc
 50
120.0090005288
 51
131.1610058587
  0
ARC
  5
444
100
AcDbEntity
  8
0
100
AcDbCircle
 62
7
  6
BYLAYER
 10
217.2605250993
 20
219.753344327
 40
0.2998337775
100
AcDbArc
 50
120.0013187659
 51
130.3610542577
  0
ARC
  5
445
100
AcDbEntity
  8
0
100
AcDbCircle
 62
7
  6
BYLAYER
 10
230.2007181454
 20
212.4299036128
 40
0.2688991196
100
AcDbArc
 50
120.0619255558
 51
128.0399139923
  0
ARC
  5
446
100
AcDbEntity
  8
0
100
AcDbCircle
 62
7
  6
BYLAYER
 10
393.9374887026
 20
347.753036725
 40
1.9204483632
100
AcDbArc
 50
0.0208829683
 51
2.6210254187
  0
ARC
  5
447
100
AcDbEntity
  8
0
100
AcDbCircle
 62
7
  6
BYLAYER
 10
393.4887495505
 20
348.5303666278
 40
1.9203989292
100
AcDbArc
 50
57.3795211017
 51
59.9796780865
  0
SPLINE
  5
448
100
AcDbEntity
  8
0
100
AcDbSpline
 62
7
  6
BYLAYER
 70
0
 71
3
 72
11
 73
7
 74
0
 42
0.0000001
 43
0.0000001
 44
0.0000000001
 40
0.0
 40
0.0
 40
0.0
 40
0.0
 40
0.2375778134
 40
0.4999989072
 40
0.7624206023
 40
1.0
 40
1.0
 40
1.0
 40
1.0
 10
410.0646013082
 20
361.7001801979
 30
0.0
 10
410.571510059
 20
361.4074820538
 30
0.0
 10
411.5247230936
 20
360.5962188161
 30
0.0
 10
412.6501001076
 20
359.0748548443
 30
0.0
 10
413.4049609147
 20
357.3395675833
 30
0.0
 10
413.6309378648
 20
356.108425915
 30
0.0
 10
413.6309732513
 20
355.5230770842
 30
0.0
  0
SPLINE
  5
449
100
AcDbEntity
  8
0
100
AcDbSpline
 62
7
  6
BYLAYER
 70
0
 71
3
 72
9
 73
5
 74
0
 42
0.0000001
 43
0.0000001
 44
0.0000000001
 40
0.0
 40
0.0
 40
0.0
 40
0.0
 40
0.5503432488
 40
1.0
 40
1.0
 40
1.0
 40
1.0
 10
413.6309732513
 20
121.4951864961
 30
0.0
 10
413.6309445047
 20
121.0197042677
 30
0.0
 10
413.5072024508
 20
120.138936001
 30
0.0
 10
412.9375543115
 20
119.4051566452
 30
0.0
 10
412.6022077363
 20
119.2090227882
 30
0.0
  0
SPLINE
  5
44A
100
AcDbEntity
  8
0
100
AcDbSpline
 62
7
  6
BYLAYER
 70
0
 71
3
 72
11
 73
7
 74
0
 42
0.0000001
 43
0.0000001
 44
0.0000000001
 40
0.0
 40
0.0
 40
0.0
 40
0.0
 40
0.237579335
 40
0.4999990176
 40
0.7624192453
 40
1.0
 40
1.0
 40
1.0
 40
1.0
 10
401.0198895429
 20
354.8096545373
 30
0.0
 10
401.3213864681
 20
354.6355484828
 30
0.0
 10
401.8883330347
 20
354.1530109952
 30
0.0
 10
402.5576840814
 20
353.2481234735
 30
0.0
 10
403.0066686271
 20
352.2160043682
 30
0.0
 10
403.1410894672
 20
351.4837436317
 30
0.0
 10
403.141124117
 20
351.1355845279
 30
0.0
  0
SPLINE
  5
44B
100
AcDbEntity
  8
0
100
AcDbSpline
 62
7
  6
BYLAYER
 70
0
 71
3
 72
11
 73
7
 74
0
 42
0.0000001
 43
0.0000001
 44
0.0000000001
 40
0.0
 40
0.0
 40
0.0
 40
0.0
 40
0.2375778134
 40
0.4999989072
 40
0.7624206023
 40
1.0
 40
1.0
 40
1.0
 40
1.0
 10
55.3260463945
 20
296.6359413264
 30
0.0
 10
55.0446309065
 20
296.798435643
 30
0.0
 10
54.5154451094
 20
297.2488165836
 30
0.0
 10
53.8906807488
 20
298.093417084
 30
0.0
 10
53.4716121845
 20
299.0567792486
 30
0.0
 10
53.3461588093
 20
299.7402599202
 30
0.0
 10
53.3461391641
 20
300.065222207
 30
0.0
  0
SPLINE
  5
44C
100
AcDbEntity
  8
0
100
AcDbSpline
 62
7
  6
BYLAYER
 70
0
 71
3
 72
8
 73
4
 74
0
 42
0.0000001
 43
0.0000001
 44
0.0000000001
 40
0.0
 40
0.0
 40
0.0
 40
0.0
 40
1.0
 40
1.0
 40
1.0
 40
1.0
 10
396.2767915214
 20
103.3772117754
 30
0.0
 10
396.2767915214
 20
103.2886718752
 30
0.0
 10
396.2704266882
 20
103.1997757139
 30
0.0
 10
396.2561394523
 20
103.1123961464
 30
0.0
  0
SPLINE
  5
44D
100
AcDbEntity
  8
0
100
AcDbSpline
 62
7
  6
BYLAYER
 70
0
 71
3
 72
9
 73
5
 74
0
 42
0.0000001
 43
0.0000001
 44
0.0000000001
 40
0.0
 40
0.0
 40
0.0
 40
0.0
 40
0.281362822
 40
1.0
 40
1.0
 40
1.0
 40
1.0
 10
396.2561394523
 20
103.1123961464
 30
0.0
 10
396.2451951505
 20
103.0454616908
 30
0.0
 10
396.1916439632
 20
102.8114235121
 30
0.0
 10
396.0505111141
 20
102.5888761517
 30
0.0
 10
395.9079787077
 20
102.4904232617
 30
0.0
  0
SPLINE
  5
44E
100
AcDbEntity
  8
0
100
AcDbSpline
 62
7
  6
BYLAYER
 70
0
 71
3
 72
9
 73
5
 74
0
 42
0.0000001
 43
0.0000001
 44
0.0000000001
 40
0.0
 40
0.0
 40
0.0
 40
0.0
 40
0.4999988717
 40
1.0
 40
1.0
 40
1.0
 40
1.0
 10
394.8625720711
 20
350.4383295816
 30
0.0
 10
395.2823321151
 20
350.1959864897
 30
0.0
 10
395.9455495089
 20
349.4305957569
 30
0.0
 10
396.2767915214
 20
348.4735398335
 30
0.0
 10
396.2767915214
 20
347.9888432383
 30
0.0
  0
SPLINE
  5
44F
100
AcDbEntity
  8
0
100
AcDbSpline
 62
7
  6
BYLAYER
 70
0
 71
3
 72
9
 73
5
 74
0
 42
0.0000001
 43
0.0000001
 44
0.0000000001
 40
0.0
 40
0.0
 40
0.0
 40
0.0
 40
0.5000011283
 40
1.0
 40
1.0
 40
1.0
 40
1.0
 10
55.0310494174
 20
300.3479411191
 30
0.0
 10
55.0310494174
 20
299.8741953069
 30
0.0
 10
55.3548076564
 20
298.9387622123
 30
0.0
 10
56.0030409352
 20
298.1906640043
 30
0.0
 10
56.4133173121
 20
297.9537961862
 30
0.0
  0
SPLINE
  5
450
100
AcDbEntity
  8
0
100
AcDbSpline
 62
7
  6
BYLAYER
 70
0
 71
3
 72
8
 73
4
 74
0
 42
0.0000001
 43
0.0000001
 44
0.0000000001
 40
0.0
 40
0.0
 40
0.0
 40
0.0
 40
1.0
 40
1.0
 40
1.0
 40
1.0
 10
408.7480137708
 20
117.0536831171
 30
0.0
 10
408.8562402576
 20
117.1235205841
 30
0.0
 10
408.9570176855
 20
117.206185113
 30
0.0
 10
409.0475064105
 20
117.2978477275
 30
0.0
  0
SPLINE
  5
451
100
AcDbEntity
  8
0
100
AcDbSpline
 62
7
  6
BYLAYER
 70
0
 71
3
 72
9
 73
5
 74
0
 42
0.0000001
 43
0.0000001
 44
0.0000000001
 40
0.0
 40
0.0
 40
0.0
 40
0.0
 40
0.223014268
 40
1.0
 40
1.0
 40
1.0
 40
1.0
 10
409.1680161772
 20
117.4321663893
 30
0.0
 10
409.2640865011
 20
117.5498763036
 30
0.0
 10
409.6336100041
 20
118.1287823596
 30
0.0
 10
409.7434864025
 20
118.8391894575
 30
0.0
 10
409.7435298514
 20
119.3685439039
 30
0.0
  0
SPLINE
  5
452
100
AcDbEntity
  8
0
100
AcDbSpline
 62
7
  6
BYLAYER
 70
0
 71
3
 72
9
 73
5
 74
0
 42
0.0000001
 43
0.0000001
 44
0.0000000001
 40
0.0
 40
0.0
 40
0.0
 40
0.0
 40
0.2129671279
 40
1.0
 40
1.0
 40
1.0
 40
1.0
 10
82.7778414192
 20
516.4959169191
 30
0.0
 10
82.7566348438
 20
516.4836592907
 30
0.0
 10
82.6817732301
 20
516.3883694472
 30
0.0
 10
82.6813010128
 20
516.2652121416
 30
0.0
 10
82.6790420258
 20
516.1747203537
 30
0.0
  0
SPLINE
  5
453
100
AcDbEntity
  8
0
100
AcDbSpline
 62
7
  6
BYLAYER
 70
0
 71
3
 72
9
 73
5
 74
0
 42
0.0000001
 43
0.0000001
 44
0.0000000001
 40
0.0
 40
0.0
 40
0.0
 40
0.0
 40
0.2135432279
 40
1.0
 40
1.0
 40
1.0
 40
1.0
 10
97.9675684379
 20
507.8839898021
 30
0.0
 10
97.9435619139
 20
507.870121612
 30
0.0
 10
97.8496182779
 20
507.7722822834
 30
0.0
 10
97.8497101223
 20
507.6281357317
 30
0.0
 10
97.8465456297
 20
507.5260789573
 30
0.0
  0
SPLINE
  5
454
100
AcDbEntity
  8
0
100
AcDbSpline
 62
7
  6
BYLAYER
 70
0
 71
3
 72
8
 73
4
 74
0
 42
0.0000001
 43
0.0000001
 44
0.0000000001
 40
0.0
 40
0.0
 40
0.0
 40
0.0
 40
1.0
 40
1.0
 40
1.0
 40
1.0
 10
99.5019896092
 20
505.6479146851
 30
0.0
 10
99.4654935612
 20
505.6268380192
 30
0.0
 10
99.4377270402
 20
505.5894314411
 30
0.0
 10
99.4211910491
 20
505.5506661426
 30
0.0
  0
SPLINE
  5
455
100
AcDbEntity
  8
0
100
AcDbSpline
 62
7
  6
BYLAYER
 70
0
 71
3
 72
9
 73
5
 74
0
 42
0.0000001
 43
0.0000001
 44
0.0000000001
 40
0.0
 40
0.0
 40
0.0
 40
0.0
 40
0.2278309625
 40
1.0
 40
1.0
 40
1.0
 40
1.0
 10
99.4211910491
 20
505.5506661426
 30
0.0
 10
99.4137965159
 20
505.5333311497
 30
0.0
 10
99.3892230154
 20
505.4538488427
 30
0.0
 10
99.3864060633
 20
505.3700816391
 30
0.0
 10
99.3845092824
 20
505.3062357422
 30
0.0
  0
SPLINE
  5
456
100
AcDbEntity
  8
0
100
AcDbSpline
 62
7
  6
BYLAYER
 70
0
 71
3
 72
9
 73
5
 74
0
 42
0.0000001
 43
0.0000001
 44
0.0000000001
 40
0.0
 40
0.0
 40
0.0
 40
0.0
 40
0.5022843624
 40
1.0
 40
1.0
 40
1.0
 40
1.0
 10
227.3772012209
 20
210.1870052801
 30
0.0
 10
227.4808814149
 20
210.1188720944
 30
0.0
 10
227.6656622761
 20
209.933646726
 30
0.0
 10
227.7145604941
 20
209.6815033467
 30
0.0
 10
227.7252273607
 20
209.5590321164
 30
0.0
  0
SPLINE
  5
457
100
AcDbEntity
  8
0
100
AcDbSpline
 62
7
  6
BYLAYER
 70
0
 71
3
 72
9
 73
5
 74
0
 42
0.0000001
 43
0.0000001
 44
0.0000000001
 40
0.0
 40
0.0
 40
0.0
 40
0.0
 40
0.450262599
 40
1.0
 40
1.0
 40
1.0
 40
1.0
 10
99.4888691332
 20
506.9227641545
 30
0.0
 10
99.4540396855
 20
506.9026541645
 30
0.0
 10
99.3908450703
 20
506.8285624204
 30
0.0
 10
99.3869898942
 20
506.7359948197
 30
0.0
 10
99.3845092832
 20
506.6869540862
 30
0.0
  0
SPLINE
  5
458
100
AcDbEntity
  8
0
100
AcDbSpline
 62
7
  6
BYLAYER
 70
0
 71
3
 72
9
 73
5
 74
0
 42
0.0000001
 43
0.0000001
 44
0.0000000001
 40
0.0
 40
0.0
 40
0.0
 40
0.0
 40
0.4522941168
 40
1.0
 40
1.0
 40
1.0
 40
1.0
 10
100.8201202197
 20
502.6575480593
 30
0.0
 10
100.7908513375
 20
502.6406514765
 30
0.0
 10
100.7368079829
 20
502.5801216454
 30
0.0
 10
100.7321632173
 20
502.502453321
 30
0.0
 10
100.7302274788
 20
502.4615739729
 30
0.0
  0
SPLINE
  5
459
100
AcDbEntity
  8
0
100
AcDbSpline
 62
7
  6
BYLAYER
 70
0
 71
3
 72
9
 73
5
 74
0
 42
0.0000001
 43
0.0000001
 44
0.0000000001
 40
0.0
 40
0.0
 40
0.0
 40
0.0
 40
0.2107019114
 40
1.0
 40
1.0
 40
1.0
 40
1.0
 10
101.5766545933
 20
503.8532652205
 30
0.0
 10
101.6021385665
 20
503.8679797233
 30
0.0
 10
101.7433960895
 20
503.9017840984
 30
0.0
 10
101.8808451806
 20
503.8329392714
 30
0.0
 10
101.9773370129
 20
503.7796378166
 30
0.0
  0
SPLINE
  5
45A
100
AcDbEntity
  8
0
100
AcDbSpline
 62
7
  6
BYLAYER
 70
0
 71
3
 72
13
 73
9
 74
0
 42
0.0000001
 43
0.0000001
 44
0.0000000001
 40
0.0
 40
0.0
 40
0.0
 40
0.0
 40
0.1658182898
 40
0.317830096
 40
0.456991363
 40
0.5822332169
 40
0.8021618989
 40
1.0
 40
1.0
 40
1.0
 40
1.0
 10
219.140944001
 20
213.1298754491
 30
0.0
 10
219.2390555339
 20
212.9879636287
 30
0.0
 10
219.4259085794
 20
212.7137840663
 30
0.0
 10
219.7765466502
 20
212.385532716
 30
0.0
 10
220.154856563
 20
212.168307325
 30
0.0
 10
220.6254438674
 20
211.9872163782
 30
0.0
 10
221.2077565278
 20
211.9231337521
 30
0.0
 10
221.6221591287
 20
212.0789160792
 30
0.0
 10
221.8139630361
 20
212.1536239576
 30
0.0
  0
SPLINE
  5
45B
100
AcDbEntity
  8
0
100
AcDbSpline
 62
7
  6
BYLAYER
 70
0
 71
3
 72
9
 73
5
 74
0
 42
0.0000001
 43
0.0000001
 44
0.0000000001
 40
0.0
 40
0.0
 40
0.0
 40
0.0
 40
0.4553250884
 40
1.0
 40
1.0
 40
1.0
 40
1.0
 10
218.8897724888
 20
214.7215522763
 30
0.0
 10
218.8476953084
 20
214.4762645244
 30
0.0
 10
218.7953941683
 20
213.9192711817
 30
0.0
 10
219.0051180709
 20
213.3947922393
 30
0.0
 10
219.140944001
 20
213.1298754491
 30
0.0
  0
SPLINE
  5
45C
100
AcDbEntity
  8
0
100
AcDbSpline
 62
7
  6
BYLAYER
 70
0
 71
3
 72
8
 73
4
 74
0
 42
0.0000001
 43
0.0000001
 44
0.0000000001
 40
0.0
 40
0.0
 40
0.0
 40
0.0
 40
1.0
 40
1.0
 40
1.0
 40
1.0
 10
219.1374504878
 20
215.3081512482
 30
0.0
 10
219.0800023127
 20
215.2234144779
 30
0.0
 10
219.0306014589
 20
215.132837092
 30
0.0
 10
218.9889159672
 20
215.0393334405
 30
0.0
  0
SPLINE
  5
45D
100
AcDbEntity
  8
0
100
AcDbSpline
 62
7
  6
BYLAYER
 70
0
 71
3
 72
8
 73
4
 74
0
 42
0.0000001
 43
0.0000001
 44
0.0000000001
 40
0.0
 40
0.0
 40
0.0
 40
0.0
 40
1.0
 40
1.0
 40
1.0
 40
1.0
 10
219.7140005407
 20
215.842035229
 30
0.0
 10
219.5821667798
 20
215.7626595933
 30
0.0
 10
219.4574441233
 20
215.6692114532
 30
0.0
 10
219.3466998491
 20
215.5623641894
 30
0.0
  0
SPLINE
  5
45E
100
AcDbEntity
  8
0
100
AcDbSpline
 62
7
  6
BYLAYER
 70
0
 71
3
 72
9
 73
5
 74
0
 42
0.0000001
 43
0.0000001
 44
0.0000000001
 40
0.0
 40
0.0
 40
0.0
 40
0.0
 40
0.5326983989
 40
1.0
 40
1.0
 40
1.0
 40
1.0
 10
221.2047667112
 20
213.254124507
 30
0.0
 10
221.1854590497
 20
213.1906483555
 30
0.0
 10
221.1507000552
 20
213.06779036
 30
0.0
 10
221.0545041272
 20
212.9784190296
 30
0.0
 10
221.0040991875
 20
212.9493180447
 30
0.0
  0
SPLINE
  5
45F
100
AcDbEntity
  8
0
100
AcDbSpline
 62
7
  6
BYLAYER
 70
0
 71
3
 72
9
 73
5
 74
0
 42
0.0000001
 43
0.0000001
 44
0.0000000001
 40
0.0
 40
0.0
 40
0.0
 40
0.0
 40
0.5515293028
 40
1.0
 40
1.0
 40
1.0
 40
1.0
 10
220.0049258173
 20
213.7305328862
 30
0.0
 10
220.0264096226
 20
213.7195902594
 30
0.0
 10
220.068462793
 20
213.6974490673
 30
0.0
 10
220.1123781593
 20
213.7146151184
 30
0.0
 10
220.1298490105
 20
213.7235100565
 30
0.0
  0
SPLINE
  5
460
100
AcDbEntity
  8
0
100
AcDbSpline
 62
7
  6
BYLAYER
 70
0
 71
3
 72
11
 73
7
 74
0
 42
0.0000001
 43
0.0000001
 44
0.0000000001
 40
0.0
 40
0.0
 40
0.0
 40
0.0
 40
0.2246493991
 40
0.4833503205
 40
0.7486343789
 40
1.0
 40
1.0
 40
1.0
 40
1.0
 10
88.1185622444
 20
510.0868524826
 30
0.0
 10
88.1985737435
 20
510.1330471441
 30
0.0
 10
88.4204937156
 20
510.0991134714
 30
0.0
 10
88.6981502858
 20
509.9905056733
 30
0.0
 10
89.0029917873
 20
509.8878375805
 30
0.0
 10
89.206865375
 20
509.8284800921
 30
0.0
 10
89.3081956991
 20
509.8080131837
 30
0.0
  0
SPLINE
  5
461
100
AcDbEntity
  8
0
100
AcDbSpline
 62
7
  6
BYLAYER
 70
0
 71
3
 72
9
 73
5
 74
0
 42
0.0000001
 43
0.0000001
 44
0.0000000001
 40
0.0
 40
0.0
 40
0.0
 40
0.0
 40
0.4503048618
 40
1.0
 40
1.0
 40
1.0
 40
1.0
 10
87.521343254
 20
510.7383234376
 30
0.0
 10
87.4456422336
 20
510.6946193241
 30
0.0
 10
87.3101730868
 20
510.5334055833
 30
0.0
 10
87.295486029
 20
510.3327956229
 30
0.0
 10
87.2929329824
 20
510.226121933
 30
0.0
  0
SPLINE
  5
462
100
AcDbEntity
  8
0
100
AcDbSpline
 62
7
  6
BYLAYER
 70
0
 71
3
 72
9
 73
5
 74
0
 42
0.0000001
 43
0.0000001
 44
0.0000000001
 40
0.0
 40
0.0
 40
0.0
 40
0.0
 40
0.7319721407
 40
1.0
 40
1.0
 40
1.0
 40
1.0
 10
88.1697248987
 20
511.4648399474
 30
0.0
 10
88.2294591034
 20
511.4993273393
 30
0.0
 10
88.3293294344
 20
511.5232316958
 30
0.0
 10
88.4215962189
 20
511.5023402575
 30
0.0
 10
88.4458661944
 20
511.4953494588
 30
0.0
  0
SPLINE
  5
463
100
AcDbEntity
  8
0
100
AcDbSpline
 62
7
  6
BYLAYER
 70
0
 71
3
 72
8
 73
4
 74
0
 42
0.0000001
 43
0.0000001
 44
0.0000000001
 40
0.0
 40
0.0
 40
0.0
 40
0.0
 40
1.0
 40
1.0
 40
1.0
 40
1.0
 10
88.4458661944
 20
511.4953494588
 30
0.0
 10
88.5524266226
 20
511.464655464
 30
0.0
 10
88.651115641
 20
511.410062743
 30
0.0
 10
88.748032213
 20
511.3561700325
 30
0.0
  0
SPLINE
  5
464
100
AcDbEntity
  8
0
100
AcDbSpline
 62
7
  6
BYLAYER
 70
0
 71
3
 72
9
 73
5
 74
0
 42
0.0000001
 43
0.0000001
 44
0.0000000001
 40
0.0
 40
0.0
 40
0.0
 40
0.0
 40
0.2179050386
 40
1.0
 40
1.0
 40
1.0
 40
1.0
 10
90.8200667278
 20
507.0538574256
 30
0.0
 10
90.8045196218
 20
507.0448794139
 30
0.0
 10
90.7403800765
 20
506.9890621735
 30
0.0
 10
90.7309495244
 20
506.8966555202
 30
0.0
 10
90.7284918736
 20
506.8322656067
 30
0.0
  0
SPLINE
  5
465
100
AcDbEntity
  8
0
100
AcDbSpline
 62
7
  6
BYLAYER
 70
0
 71
3
 72
9
 73
5
 74
0
 42
0.0000001
 43
0.0000001
 44
0.0000000001
 40
0.0
 40
0.0
 40
0.0
 40
0.0
 40
0.2114704707
 40
1.0
 40
1.0
 40
1.0
 40
1.0
 10
91.0331290426
 20
510.2545799664
 30
0.0
 10
90.9612643555
 20
510.2130890012
 30
0.0
 10
90.6672226566
 20
509.9322618462
 30
0.0
 10
90.6392635013
 20
509.493552729
 30
0.0
 10
90.634026433
 20
509.1841739081
 30
0.0
  0
SPLINE
  5
466
100
AcDbEntity
  8
0
100
AcDbSpline
 62
7
  6
BYLAYER
 70
0
 71
3
 72
9
 73
5
 74
0
 42
0.0000001
 43
0.0000001
 44
0.0000000001
 40
0.0
 40
0.0
 40
0.0
 40
0.0
 40
0.2107041841
 40
1.0
 40
1.0
 40
1.0
 40
1.0
 10
93.0046804417
 20
509.4093941869
 30
0.0
 10
92.9832537156
 20
509.3970243455
 30
0.0
 10
92.8963632854
 20
509.3113497301
 30
0.0
 10
92.8914689076
 20
509.1802271929
 30
0.0
 10
92.8895959718
 20
509.0875665383
 30
0.0
  0
SPLINE
  5
467
100
AcDbEntity
  8
0
100
AcDbSpline
 62
7
  6
BYLAYER
 70
0
 71
3
 72
9
 73
5
 74
0
 42
0.0000001
 43
0.0000001
 44
0.0000000001
 40
0.0
 40
0.0
 40
0.0
 40
0.0
 40
0.447379919
 40
1.0
 40
1.0
 40
1.0
 40
1.0
 10
95.2662006933
 20
507.3850191869
 30
0.0
 10
95.3283080382
 20
507.4208766737
 30
0.0
 10
95.5018922114
 20
507.4421941793
 30
0.0
 10
95.6489131806
 20
507.3690907422
 30
0.0
 10
95.7268737432
 20
507.3270251486
 30
0.0
  0
SPLINE
  5
468
100
AcDbEntity
  8
0
100
AcDbSpline
 62
7
  6
BYLAYER
 70
0
 71
3
 72
9
 73
5
 74
0
 42
0.0000001
 43
0.0000001
 44
0.0000000001
 40
0.0
 40
0.0
 40
0.0
 40
0.0
 40
0.7767557165
 40
1.0
 40
1.0
 40
1.0
 40
1.0
 10
234.4415656495
 20
206.7700564109
 30
0.0
 10
234.457786827
 20
206.7201959099
 30
0.0
 10
234.4980730174
 20
206.65816694
 30
0.0
 10
234.5575172105
 20
206.6250961854
 30
0.0
 10
234.5714421549
 20
206.6193354861
 30
0.0
  0
SPLINE
  5
469
100
AcDbEntity
  8
0
100
AcDbSpline
 62
7
  6
BYLAYER
 70
0
 71
3
 72
8
 73
4
 74
0
 42
0.0000001
 43
0.0000001
 44
0.0000000001
 40
0.0
 40
0.0
 40
0.0
 40
0.0
 40
1.0
 40
1.0
 40
1.0
 40
1.0
 10
234.5714421549
 20
206.6193354861
 30
0.0
 10
234.5966467033
 20
206.6089084552
 30
0.0
 10
234.6248689919
 20
206.6063057299
 30
0.0
 10
234.6521401353
 20
206.6057794534
 30
0.0
  0
SPLINE
  5
46A
100
AcDbEntity
  8
0
100
AcDbSpline
 62
7
  6
BYLAYER
 70
0
 71
3
 72
8
 73
4
 74
0
 42
0.0000001
 43
0.0000001
 44
0.0000000001
 40
0.0
 40
0.0
 40
0.0
 40
0.0
 40
1.0
 40
1.0
 40
1.0
 40
1.0
 10
227.7410083999
 20
215.365797336
 30
0.0
 10
227.7858814054
 20
215.2279241272
 30
0.0
 10
227.8708426394
 20
215.0933221154
 30
0.0
 10
227.987775864
 20
215.0075944693
 30
0.0
  0
SPLINE
  5
46B
100
AcDbEntity
  8
0
100
AcDbSpline
 62
7
  6
BYLAYER
 70
0
 71
3
 72
9
 73
5
 74
0
 42
0.0000001
 43
0.0000001
 44
0.0000000001
 40
0.0
 40
0.0
 40
0.0
 40
0.0
 40
0.5442275853
 40
1.0
 40
1.0
 40
1.0
 40
1.0
 10
227.987775864
 20
215.0075944693
 30
0.0
 10
228.0412961999
 20
214.9683569265
 30
0.0
 10
228.1529173585
 20
214.9084772413
 30
0.0
 10
228.2768052567
 20
214.9044583909
 30
0.0
 10
228.3323757643
 20
214.9036379688
 30
0.0
  0
SPLINE
  5
46C
100
AcDbEntity
  8
0
100
AcDbSpline
 62
7
  6
BYLAYER
 70
0
 71
3
 72
9
 73
5
 74
0
 42
0.0000001
 43
0.0000001
 44
0.0000000001
 40
0.0
 40
0.0
 40
0.0
 40
0.0
 40
0.7435213423
 40
1.0
 40
1.0
 40
1.0
 40
1.0
 10
221.7368648262
 20
216.0985701752
 30
0.0
 10
221.8934290273
 20
215.9767522532
 30
0.0
 10
222.1050244861
 20
215.8102838408
 30
0.0
 10
222.2752153601
 20
215.6040064667
 30
0.0
 10
222.3169934253
 20
215.5498111014
 30
0.0
  0
SPLINE
  5
46D
100
AcDbEntity
  8
0
100
AcDbSpline
 62
7
  6
BYLAYER
 70
0
 71
3
 72
8
 73
4
 74
0
 42
0.0000001
 43
0.0000001
 44
0.0000000001
 40
0.0
 40
0.0
 40
0.0
 40
0.0
 40
1.0
 40
1.0
 40
1.0
 40
1.0
 10
222.3169934253
 20
215.5498111014
 30
0.0
 10
222.4066414096
 20
215.4335178928
 30
0.0
 10
222.4855518319
 20
215.3092097867
 30
0.0
 10
222.564345459
 20
215.1853048401
 30
0.0
  0
SPLINE
  5
46E
100
AcDbEntity
  8
0
100
AcDbSpline
 62
7
  6
BYLAYER
 70
0
 71
3
 72
12
 73
8
 74
0
 42
0.0000001
 43
0.0000001
 44
0.0000000001
 40
0.0
 40
0.0
 40
0.0
 40
0.0
 40
0.1823808133
 40
0.296698886
 40
0.4228830156
 40
0.7017944304
 40
1.0
 40
1.0
 40
1.0
 40
1.0
 10
213.0725261622
 20
224.2145098414
 30
0.0
 10
212.9445180686
 20
224.140604675
 30
0.0
 10
212.7982929305
 20
223.9121339989
 30
0.0
 10
212.7692136211
 20
223.5704497659
 30
0.0
 10
212.7991388022
 20
223.1483461812
 30
0.0
 10
212.9875224028
 20
222.5999525403
 30
0.0
 10
213.2509109104
 20
222.2085543316
 30
0.0
 10
213.4036729561
 20
222.0212749463
 30
0.0
  0
SPLINE
  5
46F
100
AcDbEntity
  8
0
100
AcDbSpline
 62
7
  6
BYLAYER
 70
0
 71
3
 72
10
 73
6
 74
0
 42
0.0000001
 43
0.0000001
 44
0.0000000001
 40
0.0
 40
0.0
 40
0.0
 40
0.0
 40
0.2724252045
 40
0.5410059557
 40
1.0
 40
1.0
 40
1.0
 40
1.0
 10
213.4036729561
 20
222.0212749463
 30
0.0
 10
213.536977379
 20
221.85784973
 30
0.0
 10
213.8428353145
 20
221.5395639707
 30
0.0
 10
214.3298827321
 20
221.100031252
 30
0.0
 10
214.9851720573
 20
220.3087596863
 30
0.0
 10
214.6774464495
 20
220.1310962672
 30
0.0
  0
SPLINE
  5
470
100
AcDbEntity
  8
0
100
AcDbSpline
 62
7
  6
BYLAYER
 70
0
 71
3
 72
9
 73
5
 74
0
 42
0.0000001
 43
0.0000001
 44
0.0000000001
 40
0.0
 40
0.0
 40
0.0
 40
0.0
 40
0.4808959376
 40
1.0
 40
1.0
 40
1.0
 40
1.0
 10
220.5184721756
 20
216.4904039513
 30
0.0
 10
220.6546702023
 20
216.4844554921
 30
0.0
 10
220.9405739966
 20
216.4701262282
 30
0.0
 10
221.2085611556
 20
216.3686649932
 30
0.0
 10
221.3460732741
 20
216.3162598354
 30
0.0
  0
SPLINE
  5
471
100
AcDbEntity
  8
0
100
AcDbSpline
 62
7
  6
BYLAYER
 70
0
 71
3
 72
12
 73
8
 74
0
 42
0.0000001
 43
0.0000001
 44
0.0000000001
 40
0.0
 40
0.0
 40
0.0
 40
0.0
 40
0.0911090806
 40
0.2006604149
 40
0.450516902
 40
0.7207892681
 40
1.0
 40
1.0
 40
1.0
 40
1.0
 10
213.8482121783
 20
223.2343567969
 30
0.0
 10
213.9060135942
 20
223.267728248
 30
0.0
 10
214.069465863
 20
223.2533880093
 30
0.0
 10
214.3675413364
 20
223.1238384321
 30
0.0
 10
214.7479255777
 20
222.8494935792
 30
0.0
 10
215.1714744008
 20
222.4467571184
 30
0.0
 10
215.4457304523
 20
222.1514582289
 30
0.0
 10
215.584909528
 20
222.0015727037
 30
0.0
  0
SPLINE
  5
472
100
AcDbEntity
  8
0
100
AcDbSpline
 62
7
  6
BYLAYER
 70
0
 71
3
 72
9
 73
5
 74
0
 42
0.0000001
 43
0.0000001
 44
0.0000000001
 40
0.0
 40
0.0
 40
0.0
 40
0.0
 40
0.4213124621
 40
1.0
 40
1.0
 40
1.0
 40
1.0
 10
217.0398902484
 20
219.9721792044
 30
0.0
 10
217.2246043574
 20
220.0788105929
 30
0.0
 10
217.8122315604
 20
219.8589632737
 30
0.0
 10
218.1266372258
 20
219.4969961035
 30
0.0
 10
218.3274374187
 20
219.2836891853
 30
0.0
  0
SPLINE
  5
473
100
AcDbEntity
  8
0
100
AcDbSpline
 62
7
  6
BYLAYER
 70
0
 71
3
 72
10
 73
6
 74
0
 42
0.0000001
 43
0.0000001
 44
0.0000000001
 40
0.0
 40
0.0
 40
0.0
 40
0.0
 40
0.1944665695
 40
0.552706593
 40
1.0
 40
1.0
 40
1.0
 40
1.0
 10
216.3313976298
 20
220.8536513208
 30
0.0
 10
216.231392515
 20
220.7959132997
 30
0.0
 10
215.9990638789
 20
220.5384898592
 30
0.0
 10
215.9117439246
 20
219.9227749521
 30
0.0
 10
216.0001175779
 20
219.4481244416
 30
0.0
 10
216.0845271399
 20
219.1962871884
 30
0.0
  0
SPLINE
  5
474
100
AcDbEntity
  8
0
100
AcDbSpline
 62
7
  6
BYLAYER
 70
0
 71
3
 72
10
 73
6
 74
0
 42
0.0000001
 43
0.0000001
 44
0.0000000001
 40
0.0
 40
0.0
 40
0.0
 40
0.0
 40
0.5528888582
 40
0.7907828254
 40
1.0
 40
1.0
 40
1.0
 40
1.0
 10
216.0845271399
 20
219.1962871884
 30
0.0
 10
216.2685147308
 20
218.6473573229
 30
0.0
 10
216.7994080293
 20
217.9395691529
 30
0.0
 10
217.6922803737
 20
217.3733336522
 30
0.0
 10
218.152700666
 20
217.260223357
 30
0.0
 10
218.3676730471
 20
217.2180174148
 30
0.0
  0
SPLINE
  5
475
100
AcDbEntity
  8
0
100
AcDbSpline
 62
7
  6
BYLAYER
 70
0
 71
3
 72
11
 73
7
 74
0
 42
0.0000001
 43
0.0000001
 44
0.0000000001
 40
0.0
 40
0.0
 40
0.0
 40
0.0
 40
0.2975216689
 40
0.5685675619
 40
0.8078427056
 40
1.0
 40
1.0
 40
1.0
 40
1.0
 10
212.8563556881
 20
220.6294251435
 30
0.0
 10
213.0650430415
 20
220.4001378588
 30
0.0
 10
213.4574005507
 20
219.9556767812
 30
0.0
 10
214.1271506424
 20
219.4302122591
 30
0.0
 10
214.7741484245
 20
219.1020261663
 30
0.0
 10
215.2759738659
 20
219.0655114126
 30
0.0
 10
215.4493875978
 20
219.165631175
 30
0.0
  0
SPLINE
  5
476
100
AcDbEntity
  8
0
100
AcDbSpline
 62
7
  6
BYLAYER
 70
0
 71
3
 72
8
 73
4
 74
0
 42
0.0000001
 43
0.0000001
 44
0.0000000001
 40
0.0
 40
0.0
 40
0.0
 40
0.0
 40
1.0
 40
1.0
 40
1.0
 40
1.0
 10
219.7189673711
 20
218.4844068395
 30
0.0
 10
219.7671181083
 20
218.5122065382
 30
0.0
 10
219.8230997021
 20
218.5308855415
 30
0.0
 10
219.8786751628
 20
218.5325241126
 30
0.0
  0
SPLINE
  5
477
100
AcDbEntity
  8
0
100
AcDbSpline
 62
7
  6
BYLAYER
 70
0
 71
3
 72
9
 73
5
 74
0
 42
0.0000001
 43
0.0000001
 44
0.0000000001
 40
0.0
 40
0.0
 40
0.0
 40
0.0
 40
0.4699292243
 40
1.0
 40
1.0
 40
1.0
 40
1.0
 10
219.8786751628
 20
218.5325241126
 30
0.0
 10
220.0738764479
 20
218.5382793717
 30
0.0
 10
220.4589157281
 20
218.1993184716
 30
0.0
 10
220.5116050256
 20
217.7799958565
 30
0.0
 10
220.5184721754
 20
217.5598240934
 30
0.0
  0
SPLINE
  5
478
100
AcDbEntity
  8
0
100
AcDbSpline
 62
7
  6
BYLAYER
 70
0
 71
3
 72
9
 73
5
 74
0
 42
0.0000001
 43
0.0000001
 44
0.0000000001
 40
0.0
 40
0.0
 40
0.0
 40
0.0
 40
0.5000011283
 40
1.0
 40
1.0
 40
1.0
 40
1.0
 10
79.7091805914
 20
512.5533588975
 30
0.0
 10
79.7092245446
 20
511.8263173311
 30
0.0
 10
80.2060834916
 20
510.3907531451
 30
0.0
 10
81.2008945578
 20
509.2426804227
 30
0.0
 10
81.8305097669
 20
508.8791293826
 30
0.0
  0
SPLINE
  5
479
100
AcDbEntity
  8
0
100
AcDbSpline
 62
7
  6
BYLAYER
 70
0
 71
3
 72
9
 73
5
 74
0
 42
0.0000001
 43
0.0000001
 44
0.0000000001
 40
0.0
 40
0.0
 40
0.0
 40
0.0
 40
0.4491040303
 40
1.0
 40
1.0
 40
1.0
 40
1.0
 10
222.7758883978
 20
216.795596046
 30
0.0
 10
222.8276508327
 20
216.8254807721
 30
0.0
 10
222.9657140281
 20
216.8603377274
 30
0.0
 10
223.0953399087
 20
216.8051411992
 30
0.0
 10
223.1578764329
 20
216.7668712888
 30
0.0
  0
SPLINE
  5
47A
100
AcDbEntity
  8
0
100
AcDbSpline
 62
7
  6
BYLAYER
 70
0
 71
3
 72
9
 73
5
 74
0
 42
0.0000001
 43
0.0000001
 44
0.0000000001
 40
0.0
 40
0.0
 40
0.0
 40
0.0
 40
0.507360371
 40
1.0
 40
1.0
 40
1.0
 40
1.0
 10
223.1578764329
 20
216.7668712888
 30
0.0
 10
223.295996202
 20
216.6823473843
 30
0.0
 10
223.5116574004
 20
216.41158851
 30
0.0
 10
223.5491039869
 20
216.0870064217
 30
0.0
 10
223.5544551283
 20
215.9298656957
 30
0.0
  0
SPLINE
  5
47B
100
AcDbEntity
  8
0
100
AcDbSpline
 62
7
  6
BYLAYER
 70
0
 71
3
 72
9
 73
5
 74
0
 42
0.0000001
 43
0.0000001
 44
0.0000000001
 40
0.0
 40
0.0
 40
0.0
 40
0.0
 40
0.4337797745
 40
1.0
 40
1.0
 40
1.0
 40
1.0
 10
227.9000972047
 20
215.872938776
 30
0.0
 10
227.8295794013
 20
215.8322214526
 30
0.0
 10
227.6979650371
 20
215.6705006635
 30
0.0
 10
227.7208031889
 20
215.4701497297
 30
0.0
 10
227.7410083999
 20
215.365797336
 30
0.0
  0
SPLINE
  5
47C
100
AcDbEntity
  8
0
100
AcDbSpline
 62
7
  6
BYLAYER
 70
0
 71
3
 72
11
 73
7
 74
0
 42
0.0000001
 43
0.0000001
 44
0.0000000001
 40
0.0
 40
0.0
 40
0.0
 40
0.0
 40
0.1805826478
 40
0.4164525334
 40
0.7014699311
 40
1.0
 40
1.0
 40
1.0
 40
1.0
 10
236.4074743099
 20
208.680827794
 30
0.0
 10
236.4628593533
 20
208.7127983835
 30
0.0
 10
236.6212809081
 20
208.7429183167
 30
0.0
 10
236.8465942113
 20
208.6096757328
 30
0.0
 10
237.0464694551
 20
208.4011547868
 30
0.0
 10
237.1742837454
 20
208.2379740882
 30
0.0
 10
237.2392669463
 20
208.1545851171
 30
0.0
  0
SPLINE
  5
47D
100
AcDbEntity
  8
0
100
AcDbSpline
 62
7
  6
BYLAYER
 70
0
 71
3
 72
9
 73
5
 74
0
 42
0.0000001
 43
0.0000001
 44
0.0000000001
 40
0.0
 40
0.0
 40
0.0
 40
0.0
 40
0.7194375918
 40
1.0
 40
1.0
 40
1.0
 40
1.0
 10
235.9718866662
 20
205.0629754897
 30
0.0
 10
236.0146369321
 20
205.0876596838
 30
0.0
 10
236.0895119184
 20
205.0960742748
 30
0.0
 10
236.1559322179
 20
205.0800930021
 30
0.0
 10
236.1743403228
 20
205.0744587205
 30
0.0
  0
SPLINE
  5
47E
100
AcDbEntity
  8
0
100
AcDbSpline
 62
7
  6
BYLAYER
 70
0
 71
3
 72
9
 73
5
 74
0
 42
0.0000001
 43
0.0000001
 44
0.0000000001
 40
0.0
 40
0.0
 40
0.0
 40
0.0
 40
0.2179142033
 40
1.0
 40
1.0
 40
1.0
 40
1.0
 10
236.1743403228
 20
205.0744587205
 30
0.0
 10
236.2231469503
 20
205.0595201767
 30
0.0
 10
236.4353063931
 20
204.9520413037
 30
0.0
 10
236.5841113584
 20
204.7597886898
 30
0.0
 10
236.695122236
 20
204.6140702796
 30
0.0
  0
SPLINE
  5
47F
100
AcDbEntity
  8
0
100
AcDbSpline
 62
7
  6
BYLAYER
 70
0
 71
3
 72
12
 73
8
 74
0
 42
0.0000001
 43
0.0000001
 44
0.0000000001
 40
0.0
 40
0.0
 40
0.0
 40
0.0
 40
0.1990372334
 40
0.3295919568
 40
0.4765887575
 40
0.7716403284
 40
1.0
 40
1.0
 40
1.0
 40
1.0
 10
235.7462326916
 20
205.4210784443
 30
0.0
 10
235.593798536
 20
205.3330710708
 30
0.0
 10
235.5037708858
 20
204.9901521788
 30
0.0
 10
235.5398936908
 20
204.5806887331
 30
0.0
 10
235.6987876879
 20
204.0919693915
 30
0.0
 10
236.08497477
 20
203.6044807656
 30
0.0
 10
236.5300508061
 20
203.4238401798
 30
0.0
 10
236.7287322369
 20
203.3876734427
 30
0.0
  0
SPLINE
  5
480
100
AcDbEntity
  8
0
100
AcDbSpline
 62
7
  6
BYLAYER
 70
0
 71
3
 72
9
 73
5
 74
0
 42
0.0000001
 43
0.0000001
 44
0.0000000001
 40
0.0
 40
0.0
 40
0.0
 40
0.0
 40
0.2072244358
 40
1.0
 40
1.0
 40
1.0
 40
1.0
 10
234.495974956
 20
206.9473507859
 30
0.0
 10
234.4844269651
 20
206.9406826143
 30
0.0
 10
234.4342992504
 20
206.8970876313
 30
0.0
 10
234.4321909236
 20
206.8202029362
 30
0.0
 10
234.4415656495
 20
206.7700564109
 30
0.0
  0
SPLINE
  5
481
100
AcDbEntity
  8
0
100
AcDbSpline
 62
7
  6
BYLAYER
 70
0
 71
3
 72
9
 73
5
 74
0
 42
0.0000001
 43
0.0000001
 44
0.0000000001
 40
0.0
 40
0.0
 40
0.0
 40
0.0
 40
0.7168501443
 40
1.0
 40
1.0
 40
1.0
 40
1.0
 10
233.0163198085
 20
206.7800860572
 30
0.0
 10
233.0563620838
 20
206.8032106279
 30
0.0
 10
233.1273499407
 20
206.8124302032
 30
0.0
 10
233.1889913219
 20
206.7931216944
 30
0.0
 10
233.2058083053
 20
206.7859959163
 30
0.0
  0
SPLINE
  5
482
100
AcDbEntity
  8
0
100
AcDbSpline
 62
7
  6
BYLAYER
 70
0
 71
3
 72
9
 73
5
 74
0
 42
0.0000001
 43
0.0000001
 44
0.0000000001
 40
0.0
 40
0.0
 40
0.0
 40
0.0
 40
0.4762622701
 40
1.0
 40
1.0
 40
1.0
 40
1.0
 10
233.2058083053
 20
206.7859959163
 30
0.0
 10
233.2755480518
 20
206.7564454348
 30
0.0
 10
233.3908885907
 20
206.6350858673
 30
0.0
 10
233.4767332969
 20
206.5037139873
 30
0.0
 10
233.5209648351
 20
206.4331365073
 30
0.0
  0
SPLINE
  5
483
100
AcDbEntity
  8
0
100
AcDbSpline
 62
7
  6
BYLAYER
 70
0
 71
3
 72
8
 73
4
 74
0
 42
0.0000001
 43
0.0000001
 44
0.0000000001
 40
0.0
 40
0.0
 40
0.0
 40
0.0
 40
1.0
 40
1.0
 40
1.0
 40
1.0
 10
233.0707353834
 20
207.0499801143
 30
0.0
 10
233.0532090585
 20
207.0398599981
 30
0.0
 10
233.0365906596
 20
207.0280629658
 30
0.0
 10
233.0209895401
 20
207.015171345
 30
0.0
  0
SPLINE
  5
484
100
AcDbEntity
  8
0
100
AcDbSpline
 62
7
  6
BYLAYER
 70
0
 71
3
 72
8
 73
4
 74
0
 42
0.0000001
 43
0.0000001
 44
0.0000000001
 40
0.0
 40
0.0
 40
0.0
 40
0.0
 40
1.0
 40
1.0
 40
1.0
 40
1.0
 10
233.0209895401
 20
207.015171345
 30
0.0
 10
233.0054069855
 20
207.0022950649
 30
0.0
 10
232.9907437689
 20
206.9882657787
 30
0.0
 10
232.9768851267
 20
206.9735500514
 30
0.0
  0
SPLINE
  5
485
100
AcDbEntity
  8
0
100
AcDbSpline
 62
7
  6
BYLAYER
 70
0
 71
3
 72
8
 73
4
 74
0
 42
0.0000001
 43
0.0000001
 44
0.0000000001
 40
0.0
 40
0.0
 40
0.0
 40
0.0
 40
1.0
 40
1.0
 40
1.0
 40
1.0
 10
232.9768851267
 20
206.9735500514
 30
0.0
 10
232.9430231989
 20
206.9375939392
 30
0.0
 10
232.9136794507
 20
206.8975826884
 30
0.0
 10
232.884023816
 20
206.8580856571
 30
0.0
  0
SPLINE
  5
486
100
AcDbEntity
  8
0
100
AcDbSpline
 62
7
  6
BYLAYER
 70
0
 71
3
 72
9
 73
5
 74
0
 42
0.0000001
 43
0.0000001
 44
0.0000000001
 40
0.0
 40
0.0
 40
0.0
 40
0.0
 40
0.7229023995
 40
1.0
 40
1.0
 40
1.0
 40
1.0
 10
229.218537523
 20
208.9610670158
 30
0.0
 10
229.2577582648
 20
208.9837116607
 30
0.0
 10
229.3250068123
 20
208.9937507652
 30
0.0
 10
229.3863820875
 20
208.9821878352
 30
0.0
 10
229.4032110262
 20
208.9779282436
 30
0.0
  0
SPLINE
  5
487
100
AcDbEntity
  8
0
100
AcDbSpline
 62
7
  6
BYLAYER
 70
0
 71
3
 72
9
 73
5
 74
0
 42
0.0000001
 43
0.0000001
 44
0.0000000001
 40
0.0
 40
0.0
 40
0.0
 40
0.0
 40
0.2150009592
 40
1.0
 40
1.0
 40
1.0
 40
1.0
 10
229.4032110262
 20
208.9779282436
 30
0.0
 10
229.4533106789
 20
208.965247464
 30
0.0
 10
229.674900597
 20
208.861397763
 30
0.0
 10
229.8282004431
 20
208.6628708276
 30
0.0
 10
229.942403229
 20
208.512666218
 30
0.0
  0
SPLINE
  5
488
100
AcDbEntity
  8
0
100
AcDbSpline
 62
7
  6
BYLAYER
 70
0
 71
3
 72
12
 73
8
 74
0
 42
0.0000001
 43
0.0000001
 44
0.0000000001
 40
0.0
 40
0.0
 40
0.0
 40
0.0
 40
0.1990947844
 40
0.3296116863
 40
0.4765600474
 40
0.771730222
 40
1.0
 40
1.0
 40
1.0
 40
1.0
 10
228.9952830366
 20
209.319270711
 30
0.0
 10
228.8429372243
 20
209.2313081678
 30
0.0
 10
228.7531890176
 20
208.8886148349
 30
0.0
 10
228.7888013861
 20
208.4795540184
 30
0.0
 10
228.9467407206
 20
207.9908863873
 30
0.0
 10
229.3321588152
 20
207.5037808797
 30
0.0
 10
229.7767063072
 20
207.3219750103
 30
0.0
 10
229.9752904342
 20
207.2866866769
 30
0.0
  0
SPLINE
  5
489
100
AcDbEntity
  8
0
100
AcDbSpline
 62
7
  6
BYLAYER
 70
0
 71
3
 72
11
 73
7
 74
0
 42
0.0000001
 43
0.0000001
 44
0.0000000001
 40
0.0
 40
0.0
 40
0.0
 40
0.0
 40
0.1840729603
 40
0.4370613369
 40
0.7283824031
 40
1.0
 40
1.0
 40
1.0
 40
1.0
 10
225.7622502239
 20
215.15484579
 30
0.0
 10
225.8468490396
 20
215.2036910789
 30
0.0
 10
226.1117930046
 20
215.1633936335
 30
0.0
 10
226.4149654477
 20
214.9221167989
 30
0.0
 10
226.6560598142
 20
214.5462328207
 30
0.0
 10
226.7084056789
 20
214.2479855106
 30
0.0
 10
226.7274078699
 20
214.105096246
 30
0.0
  0
SPLINE
  5
48A
100
AcDbEntity
  8
0
100
AcDbSpline
 62
7
  6
BYLAYER
 70
0
 71
3
 72
10
 73
6
 74
0
 42
0.0000001
 43
0.0000001
 44
0.0000000001
 40
0.0
 40
0.0
 40
0.0
 40
0.0
 40
0.1928216919
 40
0.5518461729
 40
1.0
 40
1.0
 40
1.0
 40
1.0
 10
225.0955703387
 20
215.8316455129
 30
0.0
 10
224.9807869111
 20
215.7653755777
 30
0.0
 10
224.7263307093
 20
215.4504216693
 30
0.0
 10
224.6697573934
 20
214.7348052068
 30
0.0
 10
224.8057783058
 20
214.1889300769
 30
0.0
 10
224.9303650479
 20
213.9071995342
 30
0.0
  0
SPLINE
  5
48B
100
AcDbEntity
  8
0
100
AcDbSpline
 62
7
  6
BYLAYER
 70
0
 71
3
 72
8
 73
4
 74
0
 42
0.0000001
 43
0.0000001
 44
0.0000000001
 40
0.0
 40
0.0
 40
0.0
 40
0.0
 40
1.0
 40
1.0
 40
1.0
 40
1.0
 10
224.9303650479
 20
213.9071995342
 30
0.0
 10
225.014040045
 20
213.7179835555
 30
0.0
 10
225.118997159
 20
213.5371029614
 30
0.0
 10
225.2399164827
 20
213.3692258965
 30
0.0
  0
SPLINE
  5
48C
100
AcDbEntity
  8
0
100
AcDbSpline
 62
7
  6
BYLAYER
 70
0
 71
3
 72
11
 73
7
 74
0
 42
0.0000001
 43
0.0000001
 44
0.0000000001
 40
0.0
 40
0.0
 40
0.0
 40
0.0
 40
0.2862434969
 40
0.5457905936
 40
0.7836620829
 40
1.0
 40
1.0
 40
1.0
 40
1.0
 10
225.8560064261
 20
212.7291799951
 30
0.0
 10
225.9834339309
 20
212.6294796923
 30
0.0
 10
226.2399867501
 20
212.455645656
 30
0.0
 10
226.6358849727
 20
212.256801964
 30
0.0
 10
227.0318289818
 20
212.1439734228
 30
0.0
 10
227.2905905733
 20
212.1779463992
 30
0.0
 10
227.4115340182
 20
212.1959938773
 30
0.0
  0
SPLINE
  5
48D
100
AcDbEntity
  8
0
100
AcDbSpline
 62
7
  6
BYLAYER
 70
0
 71
3
 72
9
 73
5
 74
0
 42
0.0000001
 43
0.0000001
 44
0.0000000001
 40
0.0
 40
0.0
 40
0.0
 40
0.0
 40
0.4530009159
 40
1.0
 40
1.0
 40
1.0
 40
1.0
 10
220.6107417948
 20
215.0381406137
 30
0.0
 10
220.7132980934
 20
215.0973514101
 30
0.0
 10
220.9980888466
 20
215.1282467597
 30
0.0
 10
221.2352096179
 20
215.0079769858
 30
0.0
 10
221.3640227015
 20
214.9458916626
 30
0.0
  0
SPLINE
  5
48E
100
AcDbEntity
  8
0
100
AcDbSpline
 62
7
  6
BYLAYER
 70
0
 71
3
 72
9
 73
5
 74
0
 42
0.0000001
 43
0.0000001
 44
0.0000000001
 40
0.0
 40
0.0
 40
0.0
 40
0.0
 40
0.5446926775
 40
1.0
 40
1.0
 40
1.0
 40
1.0
 10
96.5298299819
 20
505.5162196473
 30
0.0
 10
96.6189744507
 20
505.4664543751
 30
0.0
 10
96.775173909
 20
505.3864115423
 30
0.0
 10
96.9867734921
 20
505.3186252657
 30
0.0
 10
97.0606818008
 20
505.3612936822
 30
0.0
  0
SPLINE
  5
48F
100
AcDbEntity
  8
0
100
AcDbSpline
 62
7
  6
BYLAYER
 70
0
 71
3
 72
9
 73
5
 74
0
 42
0.0000001
 43
0.0000001
 44
0.0000000001
 40
0.0
 40
0.0
 40
0.0
 40
0.0
 40
0.2927708916
 40
1.0
 40
1.0
 40
1.0
 40
1.0
 10
95.8080808764
 20
504.3407325474
 30
0.0
 10
95.9035895483
 20
504.287192377
 30
0.0
 10
96.2247751543
 20
504.1138908172
 30
0.0
 10
96.6659740055
 20
504.036821357
 30
0.0
 10
96.8950317356
 20
504.1690673416
 30
0.0
  0
SPLINE
  5
490
100
AcDbEntity
  8
0
100
AcDbSpline
 62
7
  6
BYLAYER
 70
0
 71
3
 72
11
 73
7
 74
0
 42
0.0000001
 43
0.0000001
 44
0.0000000001
 40
0.0
 40
0.0
 40
0.0
 40
0.0
 40
0.2329530618
 40
0.4957135615
 40
0.7621517129
 40
1.0
 40
1.0
 40
1.0
 40
1.0
 10
94.2933192614
 20
506.9940240627
 30
0.0
 10
94.2970079105
 20
506.7459016386
 30
0.0
 10
94.3495622929
 20
506.2153261788
 30
0.0
 10
94.6490341352
 20
505.4493877629
 30
0.0
 10
95.1485476502
 20
504.7864325709
 30
0.0
 10
95.5910457395
 20
504.4714584918
 30
0.0
 10
95.8080808764
 20
504.3407325474
 30
0.0
  0
SPLINE
  5
491
100
AcDbEntity
  8
0
100
AcDbSpline
 62
7
  6
BYLAYER
 70
0
 71
3
 72
9
 73
5
 74
0
 42
0.0000001
 43
0.0000001
 44
0.0000000001
 40
0.0
 40
0.0
 40
0.0
 40
0.0
 40
0.5012836458
 40
1.0
 40
1.0
 40
1.0
 40
1.0
 10
95.7268737432
 20
507.3270251486
 30
0.0
 10
95.9401722973
 20
507.2008939032
 30
0.0
 10
96.2995678923
 20
506.8153484066
 30
0.0
 10
96.4033241932
 20
506.3152073151
 30
0.0
 10
96.4204489463
 20
506.0692708385
 30
0.0
  0
SPLINE
  5
492
100
AcDbEntity
  8
0
100
AcDbSpline
 62
7
  6
BYLAYER
 70
0
 71
3
 72
10
 73
6
 74
0
 42
0.0000001
 43
0.0000001
 44
0.0000000001
 40
0.0
 40
0.0
 40
0.0
 40
0.0
 40
0.186675006
 40
0.5522326804
 40
1.0
 40
1.0
 40
1.0
 40
1.0
 10
229.9953104069
 20
212.6218094203
 30
0.0
 10
230.0551040342
 20
212.656333439
 30
0.0
 10
230.2759590967
 20
212.6754260337
 30
0.0
 10
230.6045328098
 20
212.469746842
 30
0.0
 10
230.8047086369
 20
212.2458521714
 30
0.0
 10
230.9058899231
 20
212.1147401172
 30
0.0
  0
SPLINE
  5
493
100
AcDbEntity
  8
0
100
AcDbSpline
 62
7
  6
BYLAYER
 70
0
 71
3
 72
11
 73
7
 74
0
 42
0.0000001
 43
0.0000001
 44
0.0000000001
 40
0.0
 40
0.0
 40
0.0
 40
0.0
 40
0.1962520962
 40
0.4258821592
 40
0.6965126204
 40
1.0
 40
1.0
 40
1.0
 40
1.0
 10
229.3324869525
 20
213.4385646361
 30
0.0
 10
229.2218549536
 20
213.3746924291
 30
0.0
 10
229.0310287053
 20
213.1491090583
 30
0.0
 10
228.9302283656
 20
212.6982764088
 30
0.0
 10
228.9460295353
 20
212.1723636836
 30
0.0
 10
229.0286207312
 20
211.8047202149
 30
0.0
 10
229.0919228762
 20
211.6175882594
 30
0.0
  0
SPLINE
  5
494
100
AcDbEntity
  8
0
100
AcDbSpline
 62
7
  6
BYLAYER
 70
0
 71
3
 72
13
 73
9
 74
0
 42
0.0000001
 43
0.0000001
 44
0.0000000001
 40
0.0
 40
0.0
 40
0.0
 40
0.0
 40
0.2894798328
 40
0.5698069281
 40
0.6965460907
 40
0.8108043667
 40
0.9095626404
 40
1.0
 40
1.0
 40
1.0
 40
1.0
 10
229.0919228762
 20
211.6175882594
 30
0.0
 10
229.1717850639
 20
211.3815019885
 30
0.0
 10
229.3858639128
 20
210.9346681421
 30
0.0
 10
229.7777557423
 20
210.467444364
 30
0.0
 10
230.1431469584
 20
210.2054730477
 30
0.0
 10
230.4038010198
 20
210.0660985809
 30
0.0
 10
230.6685200259
 20
210.0279606202
 30
0.0
 10
230.82982187
 20
210.059017803
 30
0.0
 10
230.9058899231
 20
210.0756363331
 30
0.0
  0
SPLINE
  5
495
100
AcDbEntity
  8
0
100
AcDbSpline
 62
7
  6
BYLAYER
 70
0
 71
3
 72
11
 73
7
 74
0
 42
0.0000001
 43
0.0000001
 44
0.0000000001
 40
0.0
 40
0.0
 40
0.0
 40
0.0
 40
0.184062619
 40
0.4371103707
 40
0.728367095
 40
1.0
 40
1.0
 40
1.0
 40
1.0
 10
233.1348478916
 20
210.8989453597
 30
0.0
 10
233.2194962501
 20
210.9478196351
 30
0.0
 10
233.4847259417
 20
210.9068877851
 30
0.0
 10
233.7874767999
 20
210.665022123
 30
0.0
 10
234.0292834056
 20
210.28933946
 30
0.0
 10
234.0820223193
 20
209.9909499292
 30
0.0
 10
234.1011288653
 20
209.8479727535
 30
0.0
  0
SPLINE
  5
496
100
AcDbEntity
  8
0
100
AcDbSpline
 62
7
  6
BYLAYER
 70
0
 71
3
 72
10
 73
6
 74
0
 42
0.0000001
 43
0.0000001
 44
0.0000000001
 40
0.0
 40
0.0
 40
0.0
 40
0.0
 40
0.1930689911
 40
0.5520224041
 40
1.0
 40
1.0
 40
1.0
 40
1.0
 10
232.468531878
 20
211.5755593756
 30
0.0
 10
232.3544214264
 20
211.5096779798
 30
0.0
 10
232.1012120827
 20
211.197520978
 30
0.0
 10
232.0424125379
 20
210.4873605743
 30
0.0
 10
232.1750334385
 20
209.9450628311
 30
0.0
 10
232.2970529002
 20
209.6647378679
 30
0.0
  0
SPLINE
  5
497
100
AcDbEntity
  8
0
100
AcDbSpline
 62
7
  6
BYLAYER
 70
0
 71
3
 72
13
 73
9
 74
0
 42
0.0000001
 43
0.0000001
 44
0.0000000001
 40
0.0
 40
0.0
 40
0.0
 40
0.0
 40
0.2992083026
 40
0.5699326562
 40
0.6900780436
 40
0.8015042773
 40
0.9045554839
 40
1.0
 40
1.0
 40
1.0
 40
1.0
 10
232.2970529002
 20
209.6647378679
 30
0.0
 10
232.425199542
 20
209.3703364492
 30
0.0
 10
232.7653236108
 20
208.8465280058
 30
0.0
 10
233.3398220967
 20
208.3662250738
 30
0.0
 10
233.8071524013
 20
208.0960386583
 30
0.0
 10
234.1387083054
 20
207.9549659244
 30
0.0
 10
234.4709766238
 20
207.8938568138
 30
0.0
 10
234.6838120974
 20
207.9239719604
 30
0.0
 10
234.7851345479
 20
207.938939934
 30
0.0
  0
SPLINE
  5
498
100
AcDbEntity
  8
0
100
AcDbSpline
 62
7
  6
BYLAYER
 70
0
 71
3
 72
9
 73
5
 74
0
 42
0.0000001
 43
0.0000001
 44
0.0000000001
 40
0.0
 40
0.0
 40
0.0
 40
0.0
 40
0.5609367204
 40
1.0
 40
1.0
 40
1.0
 40
1.0
 10
92.0766960019
 20
505.1477708849
 30
0.0
 10
92.2808435086
 20
505.0339676199
 30
0.0
 10
92.6332261762
 20
504.833351069
 30
0.0
 10
93.1035041173
 20
504.7754089074
 30
0.0
 10
93.2619445789
 20
504.8668702229
 30
0.0
  0
SPLINE
  5
499
100
AcDbEntity
  8
0
100
AcDbSpline
 62
7
  6
BYLAYER
 70
0
 71
3
 72
10
 73
6
 74
0
 42
0.0000001
 43
0.0000001
 44
0.0000000001
 40
0.0
 40
0.0
 40
0.0
 40
0.0
 40
0.2540388347
 40
0.5208416738
 40
1.0
 40
1.0
 40
1.0
 40
1.0
 10
90.7284918736
 20
506.8322656067
 30
0.0
 10
90.7391226251
 20
506.6445853083
 30
0.0
 10
90.8827238804
 20
506.2701404331
 30
0.0
 10
91.3312975229
 20
505.6796803426
 30
0.0
 10
91.7730768667
 20
505.3308834615
 30
0.0
 10
92.0766960019
 20
505.1477708849
 30
0.0
  0
SPLINE
  5
49A
100
AcDbEntity
  8
0
100
AcDbSpline
 62
7
  6
BYLAYER
 70
0
 71
3
 72
8
 73
4
 74
0
 42
0.0000001
 43
0.0000001
 44
0.0000000001
 40
0.0
 40
0.0
 40
0.0
 40
0.0
 40
1.0
 40
1.0
 40
1.0
 40
1.0
 10
92.8473351164
 20
506.7083863121
 30
0.0
 10
92.8438087828
 20
506.4751179421
 30
0.0
 10
92.8505468057
 20
506.2407229712
 30
0.0
 10
92.8246594861
 20
506.0088686761
 30
0.0
  0
SPLINE
  5
49B
100
AcDbEntity
  8
0
100
AcDbSpline
 62
7
  6
BYLAYER
 70
0
 71
3
 72
9
 73
5
 74
0
 42
0.0000001
 43
0.0000001
 44
0.0000000001
 40
0.0
 40
0.0
 40
0.0
 40
0.0
 40
0.2852043175
 40
1.0
 40
1.0
 40
1.0
 40
1.0
 10
92.8246594861
 20
506.0088686761
 30
0.0
 10
92.8202736843
 20
505.9695881707
 30
0.0
 10
92.7977043752
 20
505.8362169486
 30
0.0
 10
92.7420103733
 20
505.684083332
 30
0.0
 10
92.656215423
 20
505.6345668761
 30
0.0
  0
SPLINE
  5
49C
100
AcDbEntity
  8
0
100
AcDbSpline
 62
7
  6
BYLAYER
 70
0
 71
3
 72
9
 73
5
 74
0
 42
0.0000001
 43
0.0000001
 44
0.0000000001
 40
0.0
 40
0.0
 40
0.0
 40
0.0
 40
0.5453170134
 40
1.0
 40
1.0
 40
1.0
 40
1.0
 10
91.8943942759
 20
506.6614871231
 30
0.0
 10
92.0248584183
 20
506.5904671384
 30
0.0
 10
92.2747984955
 20
506.4621421962
 30
0.0
 10
92.5687267737
 20
506.5072209724
 30
0.0
 10
92.6759909693
 20
506.5691413278
 30
0.0
  0
SPLINE
  5
49D
100
AcDbEntity
  8
0
100
AcDbSpline
 62
7
  6
BYLAYER
 70
0
 71
3
 72
9
 73
5
 74
0
 42
0.0000001
 43
0.0000001
 44
0.0000000001
 40
0.0
 40
0.0
 40
0.0
 40
0.0
 40
0.4742053564
 40
1.0
 40
1.0
 40
1.0
 40
1.0
 10
90.634026433
 20
509.1841739081
 30
0.0
 10
90.6408586513
 20
508.8778270251
 30
0.0
 10
90.7126139433
 20
508.2291448936
 30
0.0
 10
90.9844492203
 20
507.6255761066
 30
0.0
 10
91.1760909658
 20
507.3450235904
 30
0.0
  0
SPLINE
  5
49E
100
AcDbEntity
  8
0
100
AcDbSpline
 62
7
  6
BYLAYER
 70
0
 71
3
 72
9
 73
5
 74
0
 42
0.0000001
 43
0.0000001
 44
0.0000000001
 40
0.0
 40
0.0
 40
0.0
 40
0.0
 40
0.2721193428
 40
1.0
 40
1.0
 40
1.0
 40
1.0
 10
91.1760909658
 20
507.3450235904
 30
0.0
 10
91.2270705792
 20
507.2703923622
 30
0.0
 10
91.4257009364
 20
507.0037353961
 30
0.0
 10
91.6873135275
 20
506.7862421464
 30
0.0
 10
91.8943942759
 20
506.6614871231
 30
0.0
  0
SPLINE
  5
49F
100
AcDbEntity
  8
0
100
AcDbSpline
 62
7
  6
BYLAYER
 70
0
 71
3
 72
9
 73
5
 74
0
 42
0.0000001
 43
0.0000001
 44
0.0000000001
 40
0.0
 40
0.0
 40
0.0
 40
0.0
 40
0.5492860632
 40
1.0
 40
1.0
 40
1.0
 40
1.0
 10
92.861422068
 20
507.8044453315
 30
0.0
 10
92.8584495314
 20
507.6731914149
 30
0.0
 10
92.8489310583
 20
507.4317753603
 30
0.0
 10
92.7042791223
 20
507.2114102593
 30
0.0
 10
92.6109849841
 20
507.1575457228
 30
0.0
  0
SPLINE
  5
4A0
100
AcDbEntity
  8
0
100
AcDbSpline
 62
7
  6
BYLAYER
 70
0
 71
3
 72
9
 73
5
 74
0
 42
0.0000001
 43
0.0000001
 44
0.0000000001
 40
0.0
 40
0.0
 40
0.0
 40
0.0
 40
0.2255493449
 40
1.0
 40
1.0
 40
1.0
 40
1.0
 10
92.1065271941
 20
509.3559482363
 30
0.0
 10
92.1500523858
 20
509.3293024105
 30
0.0
 10
92.3401176562
 20
509.2060118115
 30
0.0
 10
92.4906117962
 20
509.0263201245
 30
0.0
 10
92.5813036482
 20
508.8763844862
 30
0.0
  0
SPLINE
  5
4A1
100
AcDbEntity
  8
0
100
AcDbSpline
 62
7
  6
BYLAYER
 70
0
 71
3
 72
9
 73
5
 74
0
 42
0.0000001
 43
0.0000001
 44
0.0000000001
 40
0.0
 40
0.0
 40
0.0
 40
0.0
 40
0.2736321314
 40
1.0
 40
1.0
 40
1.0
 40
1.0
 10
92.5813036482
 20
508.8763844862
 30
0.0
 10
92.6340232632
 20
508.78922617
 30
0.0
 10
92.8013973717
 20
508.4546504221
 30
0.0
 10
92.8578867126
 20
508.0748199514
 30
0.0
 10
92.861422068
 20
507.8044453315
 30
0.0
  0
SPLINE
  5
4A2
100
AcDbEntity
  8
0
100
AcDbSpline
 62
7
  6
BYLAYER
 70
0
 71
3
 72
8
 73
4
 74
0
 42
0.0000001
 43
0.0000001
 44
0.0000000001
 40
0.0
 40
0.0
 40
0.0
 40
0.0
 40
1.0
 40
1.0
 40
1.0
 40
1.0
 10
227.0979568839
 20
210.2273159447
 30
0.0
 10
227.1247639111
 20
210.2428052603
 30
0.0
 10
227.1571126632
 20
210.2500867233
 30
0.0
 10
227.1880716844
 20
210.2498135706
 30
0.0
  0
SPLINE
  5
4A3
100
AcDbEntity
  8
0
100
AcDbSpline
 62
7
  6
BYLAYER
 70
0
 71
3
 72
8
 73
4
 74
0
 42
0.0000001
 43
0.0000001
 44
0.0000000001
 40
0.0
 40
0.0
 40
0.0
 40
0.0
 40
1.0
 40
1.0
 40
1.0
 40
1.0
 10
227.1880716844
 20
210.2498135706
 30
0.0
 10
227.2544977264
 20
210.2492274911
 30
0.0
 10
227.3177465874
 20
210.2166348111
 30
0.0
 10
227.3772012209
 20
210.1870052801
 30
0.0
  0
SPLINE
  5
4A4
100
AcDbEntity
  8
0
100
AcDbSpline
 62
7
  6
BYLAYER
 70
0
 71
3
 72
13
 73
9
 74
0
 42
0.0000001
 43
0.0000001
 44
0.0000000001
 40
0.0
 40
0.0
 40
0.0
 40
0.0
 40
0.2041904899
 40
0.3427994771
 40
0.4947213151
 40
0.7839566372
 40
0.9020515407
 40
1.0
 40
1.0
 40
1.0
 40
1.0
 10
226.8859342441
 20
210.5435176584
 30
0.0
 10
226.7227491609
 20
210.4493032167
 30
0.0
 10
226.6427157672
 20
210.0643130122
 30
0.0
 10
226.7124634526
 20
209.627586568
 30
0.0
 10
226.8974665355
 20
209.1159025151
 30
0.0
 10
227.2654821411
 20
208.7180893628
 30
0.0
 10
227.6990196679
 20
208.5202120356
 30
0.0
 10
227.9034485897
 20
208.5242088464
 30
0.0
 10
227.9931436404
 20
208.5353806613
 30
0.0
  0
SPLINE
  5
4A5
100
AcDbEntity
  8
0
100
AcDbSpline
 62
7
  6
BYLAYER
 70
0
 71
3
 72
9
 73
5
 74
0
 42
0.0000001
 43
0.0000001
 44
0.0000000001
 40
0.0
 40
0.0
 40
0.0
 40
0.0
 40
0.5087764801
 40
1.0
 40
1.0
 40
1.0
 40
1.0
 10
89.3587429966
 20
508.5913934352
 30
0.0
 10
89.4168968537
 20
508.4431720577
 30
0.0
 10
89.5332310185
 20
508.1579071814
 30
0.0
 10
89.705666489
 20
507.8753509547
 30
0.0
 10
89.833556127
 20
507.7900479858
 30
0.0
  0
SPLINE
  5
4A6
100
AcDbEntity
  8
0
100
AcDbSpline
 62
7
  6
BYLAYER
 70
0
 71
3
 72
9
 73
5
 74
0
 42
0.0000001
 43
0.0000001
 44
0.0000000001
 40
0.0
 40
0.0
 40
0.0
 40
0.0
 40
0.5472912101
 40
1.0
 40
1.0
 40
1.0
 40
1.0
 10
88.2583034861
 20
508.6994999475
 30
0.0
 10
88.4410261703
 20
508.5997780101
 30
0.0
 10
88.8103221584
 20
508.4389441077
 30
0.0
 10
89.1962639571
 20
508.5343884873
 30
0.0
 10
89.3587429966
 20
508.5913934352
 30
0.0
  0
SPLINE
  5
4A7
100
AcDbEntity
  8
0
100
AcDbSpline
 62
7
  6
BYLAYER
 70
0
 71
3
 72
10
 73
6
 74
0
 42
0.0000001
 43
0.0000001
 44
0.0000000001
 40
0.0
 40
0.0
 40
0.0
 40
0.0
 40
0.5019219556
 40
0.7656260871
 40
1.0
 40
1.0
 40
1.0
 40
1.0
 10
87.2929329824
 20
510.226121933
 30
0.0
 10
87.3026998236
 20
509.9137663958
 30
0.0
 10
87.4784118558
 20
509.4387477157
 30
0.0
 10
87.8786995034
 20
508.9572532514
 30
0.0
 10
88.1339772187
 20
508.7759038371
 30
0.0
 10
88.2583034861
 20
508.6994999475
 30
0.0
  0
SPLINE
  5
4A8
100
AcDbEntity
  8
0
100
AcDbSpline
 62
7
  6
BYLAYER
 70
0
 71
3
 72
9
 73
5
 74
0
 42
0.0000001
 43
0.0000001
 44
0.0000000001
 40
0.0
 40
0.0
 40
0.0
 40
0.0
 40
0.4978871965
 40
1.0
 40
1.0
 40
1.0
 40
1.0
 10
88.748032213
 20
511.3561700325
 30
0.0
 10
88.9187508104
 20
511.2539227065
 30
0.0
 10
89.2612838317
 20
510.9868045227
 30
0.0
 10
89.2975081769
 20
510.559552291
 30
0.0
 10
89.3081956991
 20
510.359152316
 30
0.0
  0
SPLINE
  5
4A9
100
AcDbEntity
  8
0
100
AcDbSpline
 62
7
  6
BYLAYER
 70
0
 71
3
 72
8
 73
4
 74
0
 42
0.0000001
 43
0.0000001
 44
0.0000000001
 40
0.0
 40
0.0
 40
0.0
 40
0.0
 40
1.0
 40
1.0
 40
1.0
 40
1.0
 10
87.7370862778
 20
511.2595143715
 30
0.0
 10
87.7812108405
 20
511.235119211
 30
0.0
 10
87.8269463573
 20
511.2071189925
 30
0.0
 10
87.8771436314
 20
511.2023930471
 30
0.0
  0
SPLINE
  5
4AA
100
AcDbEntity
  8
0
100
AcDbSpline
 62
7
  6
BYLAYER
 70
0
 71
3
 72
9
 73
5
 74
0
 42
0.0000001
 43
0.0000001
 44
0.0000000001
 40
0.0
 40
0.0
 40
0.0
 40
0.0
 40
0.516708815
 40
1.0
 40
1.0
 40
1.0
 40
1.0
 10
87.8771436314
 20
511.2023930471
 30
0.0
 10
87.884150135
 20
511.2017334027
 30
0.0
 10
87.8980530875
 20
511.2019088026
 30
0.0
 10
87.9109039181
 20
511.2072568796
 30
0.0
 10
87.9166026569
 20
511.2105510619
 30
0.0
  0
SPLINE
  5
4AB
100
AcDbEntity
  8
0
100
AcDbSpline
 62
7
  6
BYLAYER
 70
0
 71
3
 72
9
 73
5
 74
0
 42
0.0000001
 43
0.0000001
 44
0.0000000001
 40
0.0
 40
0.0
 40
0.0
 40
0.0
 40
0.2418294266
 40
1.0
 40
1.0
 40
1.0
 40
1.0
 10
87.4255160559
 20
511.7781163782
 30
0.0
 10
87.4275560175
 20
511.7282232257
 30
0.0
 10
87.4566314515
 20
511.5221412303
 30
0.0
 10
87.6043155817
 20
511.3424648866
 30
0.0
 10
87.7370862778
 20
511.2595143715
 30
0.0
  0
SPLINE
  5
4AC
100
AcDbEntity
  8
0
100
AcDbSpline
 62
7
  6
BYLAYER
 70
0
 71
3
 72
9
 73
5
 74
0
 42
0.0000001
 43
0.0000001
 44
0.0000000001
 40
0.0
 40
0.0
 40
0.0
 40
0.0
 40
0.546527051
 40
1.0
 40
1.0
 40
1.0
 40
1.0
 10
89.833556127
 20
507.7900479858
 30
0.0
 10
89.8793408218
 20
507.765908034
 30
0.0
 10
89.96907546
 20
507.7253015589
 30
0.0
 10
90.0691296326
 20
507.7461832074
 30
0.0
 10
90.1063164728
 20
507.7676659805
 30
0.0
  0
SPLINE
  5
4AD
100
AcDbEntity
  8
0
100
AcDbSpline
 62
7
  6
BYLAYER
 70
0
 71
3
 72
9
 73
5
 74
0
 42
0.0000001
 43
0.0000001
 44
0.0000000001
 40
0.0
 40
0.0
 40
0.0
 40
0.0
 40
0.5166236348
 40
1.0
 40
1.0
 40
1.0
 40
1.0
 10
89.3081956991
 20
509.6922356933
 30
0.0
 10
89.3074597275
 20
509.5951552557
 30
0.0
 10
89.3022453053
 20
509.4096583217
 30
0.0
 10
89.2588450262
 20
509.2164892541
 30
0.0
 10
89.2054438179
 20
509.1430087198
 30
0.0
  0
SPLINE
  5
4AE
100
AcDbEntity
  8
0
100
AcDbSpline
 62
7
  6
BYLAYER
 70
0
 71
3
 72
9
 73
5
 74
0
 42
0.0000001
 43
0.0000001
 44
0.0000000001
 40
0.0
 40
0.0
 40
0.0
 40
0.0
 40
0.4491699235
 40
1.0
 40
1.0
 40
1.0
 40
1.0
 10
204.1405259709
 20
231.8762900736
 30
0.0
 10
203.8707601379
 20
231.7205413481
 30
0.0
 10
203.4045789771
 20
231.1373793363
 30
0.0
 10
203.3119836422
 20
230.4275260052
 30
0.0
 10
203.3119605471
 20
230.0455264697
 30
0.0
  0
SPLINE
  5
4AF
100
AcDbEntity
  8
0
100
AcDbSpline
 62
7
  6
BYLAYER
 70
0
 71
3
 72
9
 73
5
 74
0
 42
0.0000001
 43
0.0000001
 44
0.0000000001
 40
0.0
 40
0.0
 40
0.0
 40
0.0
 40
0.2323014867
 40
1.0
 40
1.0
 40
1.0
 40
1.0
 10
55.4507027566
 20
545.9151194851
 30
0.0
 10
55.4977240555
 20
545.9422670751
 30
0.0
 10
55.7151130101
 20
546.0346092144
 30
0.0
 10
55.9673176486
 20
546.0099129462
 30
0.0
 10
56.1384088321
 20
545.9558392516
 30
0.0
  0
SPLINE
  5
4B0
100
AcDbEntity
  8
0
100
AcDbSpline
 62
7
  6
BYLAYER
 70
0
 71
3
 72
8
 73
4
 74
0
 42
0.0000001
 43
0.0000001
 44
0.0000000001
 40
0.0
 40
0.0
 40
0.0
 40
0.0
 40
1.0
 40
1.0
 40
1.0
 40
1.0
 10
56.1384088321
 20
545.9558392516
 30
0.0
 10
56.2471424354
 20
545.921473789
 30
0.0
 10
56.3519188204
 20
545.8731250336
 30
0.0
 10
56.4506765869
 20
545.8161085004
 30
0.0
  0
SPLINE
  5
4B1
100
AcDbEntity
  8
0
100
AcDbSpline
 62
7
  6
BYLAYER
 70
0
 71
3
 72
9
 73
5
 74
0
 42
0.0000001
 43
0.0000001
 44
0.0000000001
 40
0.0
 40
0.0
 40
0.0
 40
0.0
 40
0.4494656058
 40
1.0
 40
1.0
 40
1.0
 40
1.0
 10
78.3034523838
 20
552.0423092858
 30
0.0
 10
78.6385895137
 20
552.2378368534
 30
0.0
 10
79.5586492692
 20
552.3702548064
 30
0.0
 10
80.3832570925
 20
552.0374538442
 30
0.0
 10
80.7948554434
 20
551.7998559796
 30
0.0
  0
SPLINE
  5
4B2
100
AcDbEntity
  8
0
100
AcDbSpline
 62
7
  6
BYLAYER
 70
0
 71
3
 72
9
 73
5
 74
0
 42
0.0000001
 43
0.0000001
 44
0.0000000001
 40
0.0
 40
0.0
 40
0.0
 40
0.0
 40
0.5583990244
 40
1.0
 40
1.0
 40
1.0
 40
1.0
 10
102.0154546465
 20
500.7569847047
 30
0.0
 10
102.2001277626
 20
500.6543375711
 30
0.0
 10
102.5260517875
 20
500.4810018828
 30
0.0
 10
102.9513350015
 20
500.4351769688
 30
0.0
 10
103.0960393698
 20
500.5187215708
 30
0.0
  0
SPLINE
  5
4B3
100
AcDbEntity
  8
0
100
AcDbSpline
 62
7
  6
BYLAYER
 70
0
 71
3
 72
9
 73
5
 74
0
 42
0.0000001
 43
0.0000001
 44
0.0000000001
 40
0.0
 40
0.0
 40
0.0
 40
0.0
 40
0.2527104395
 40
1.0
 40
1.0
 40
1.0
 40
1.0
 10
100.7302274788
 20
502.4615739729
 30
0.0
 10
100.7393385525
 20
502.2774769301
 30
0.0
 10
100.9582231014
 20
501.5604605706
 30
0.0
 10
101.5487795388
 20
501.0385943439
 30
0.0
 10
102.0154546465
 20
500.7569847047
 30
0.0
  0
SPLINE
  5
4B4
100
AcDbEntity
  8
0
100
AcDbSpline
 62
7
  6
BYLAYER
 70
0
 71
3
 72
11
 73
7
 74
0
 42
0.0000001
 43
0.0000001
 44
0.0000000001
 40
0.0
 40
0.0
 40
0.0
 40
0.0
 40
0.2464907517
 40
0.6246313031
 40
0.8208340489
 40
1.0
 40
1.0
 40
1.0
 40
1.0
 10
101.9773370129
 20
502.2974945626
 30
0.0
 10
102.0480026354
 20
502.23617219
 30
0.0
 10
102.2258689329
 20
502.0796264821
 30
0.0
 10
102.4499273069
 20
501.8613754334
 30
0.0
 10
102.6001319405
 20
501.6112128611
 30
0.0
 10
102.6168112406
 20
501.4665073664
 30
0.0
 10
102.6195362757
 20
501.3985540313
 30
0.0
  0
SPLINE
  5
4B5
100
AcDbEntity
  8
0
100
AcDbSpline
 62
7
  6
BYLAYER
 70
0
 71
3
 72
10
 73
6
 74
0
 42
0.0000001
 43
0.0000001
 44
0.0000000001
 40
0.0
 40
0.0
 40
0.0
 40
0.0
 40
0.2306649484
 40
0.4867708753
 40
1.0
 40
1.0
 40
1.0
 40
1.0
 10
100.7633732472
 20
504.038444756
 30
0.0
 10
100.7663732096
 20
503.938942805
 30
0.0
 10
100.790170259
 20
503.7275205842
 30
0.0
 10
100.9662930545
 20
503.32841859
 30
0.0
 10
101.1741669263
 20
503.0643083532
 30
0.0
 10
101.3254106623
 20
502.9024931487
 30
0.0
  0
SPLINE
  5
4B6
100
AcDbEntity
  8
0
100
AcDbSpline
 62
7
  6
BYLAYER
 70
0
 71
3
 72
9
 73
5
 74
0
 42
0.0000001
 43
0.0000001
 44
0.0000000001
 40
0.0
 40
0.0
 40
0.0
 40
0.0
 40
0.2615407486
 40
1.0
 40
1.0
 40
1.0
 40
1.0
 10
101.3254106623
 20
502.9024931487
 30
0.0
 10
101.3783752611
 20
502.8458264886
 30
0.0
 10
101.5875555088
 20
502.6353925021
 30
0.0
 10
101.8110604617
 20
502.4400263222
 30
0.0
 10
101.9773370129
 20
502.2974945626
 30
0.0
  0
SPLINE
  5
4B7
100
AcDbEntity
  8
0
100
AcDbSpline
 62
7
  6
BYLAYER
 70
0
 71
3
 72
9
 73
5
 74
0
 42
0.0000001
 43
0.0000001
 44
0.0000000001
 40
0.0
 40
0.0
 40
0.0
 40
0.0
 40
0.2917897019
 40
1.0
 40
1.0
 40
1.0
 40
1.0
 10
102.877244624
 20
502.6658907918
 30
0.0
 10
102.8996284664
 20
502.6536964234
 30
0.0
 10
102.9740384073
 20
502.6128919145
 30
0.0
 10
103.0772390405
 20
502.5901149596
 30
0.0
 10
103.1308162279
 20
502.6210513165
 30
0.0
  0
SPLINE
  5
4B8
100
AcDbEntity
  8
0
100
AcDbSpline
 62
7
  6
BYLAYER
 70
0
 71
3
 72
10
 73
6
 74
0
 42
0.0000001
 43
0.0000001
 44
0.0000000001
 40
0.0
 40
0.0
 40
0.0
 40
0.0
 40
0.381862421
 40
0.7731634059
 40
1.0
 40
1.0
 40
1.0
 40
1.0
 10
102.4902677784
 20
503.2069773968
 30
0.0
 10
102.5276721625
 20
503.1297672415
 30
0.0
 10
102.6071822645
 20
502.9763652137
 30
0.0
 10
102.7217809886
 20
502.778415514
 30
0.0
 10
102.83385742
 20
502.6926271854
 30
0.0
 10
102.877244624
 20
502.6658907918
 30
0.0
  0
SPLINE
  5
4B9
100
AcDbEntity
  8
0
100
AcDbSpline
 62
7
  6
BYLAYER
 70
0
 71
3
 72
9
 73
5
 74
0
 42
0.0000001
 43
0.0000001
 44
0.0000000001
 40
0.0
 40
0.0
 40
0.0
 40
0.0
 40
0.4739641573
 40
1.0
 40
1.0
 40
1.0
 40
1.0
 10
101.9773370129
 20
503.7796378166
 30
0.0
 10
102.0827830393
 20
503.7161934728
 30
0.0
 10
102.2960892525
 20
503.5582439709
 30
0.0
 10
102.427921007
 20
503.328498166
 30
0.0
 10
102.4902677784
 20
503.2069773968
 30
0.0
  0
SPLINE
  5
4BA
100
AcDbEntity
  8
0
100
AcDbSpline
 62
7
  6
BYLAYER
 70
0
 71
3
 72
8
 73
4
 74
0
 42
0.0000001
 43
0.0000001
 44
0.0000000001
 40
0.0
 40
0.0
 40
0.0
 40
0.0
 40
1.0
 40
1.0
 40
1.0
 40
1.0
 10
409.0774982047
 20
117.1488927928
 30
0.0
 10
408.9450601847
 20
117.0714338818
 30
0.0
 10
408.799788769
 20
117.0133756311
 30
0.0
 10
408.6510835166
 20
116.9756071266
 30
0.0
  0
SPLINE
  5
4BB
100
AcDbEntity
  8
0
100
AcDbSpline
 62
7
  6
BYLAYER
 70
0
 71
3
 72
9
 73
5
 74
0
 42
0.0000001
 43
0.0000001
 44
0.0000000001
 40
0.0
 40
0.0
 40
0.0
 40
0.0
 40
0.7312896725
 40
1.0
 40
1.0
 40
1.0
 40
1.0
 10
99.3845092832
 20
506.6869540862
 30
0.0
 10
99.3867248755
 20
506.6207003601
 30
0.0
 10
99.3954135275
 20
506.52894556
 30
0.0
 10
99.4267610632
 20
506.4435991464
 30
0.0
 10
99.4360779972
 20
506.4210930557
 30
0.0
  0
SPLINE
  5
4BC
100
AcDbEntity
  8
0
100
AcDbSpline
 62
7
  6
BYLAYER
 70
0
 71
3
 72
9
 73
5
 74
0
 42
0.0000001
 43
0.0000001
 44
0.0000000001
 40
0.0
 40
0.0
 40
0.0
 40
0.0
 40
0.2665959566
 40
1.0
 40
1.0
 40
1.0
 40
1.0
 10
99.4360779972
 20
506.4210930557
 30
0.0
 10
99.4532480812
 20
506.3796168068
 30
0.0
 10
99.5299643518
 20
506.2292497502
 30
0.0
 10
99.6550473658
 20
506.1049207452
 30
0.0
 10
99.7598851092
 20
506.0396582083
 30
0.0
  0
SPLINE
  5
4BD
100
AcDbEntity
  8
0
100
AcDbSpline
 62
7
  6
BYLAYER
 70
0
 71
3
 72
9
 73
5
 74
0
 42
0.0000001
 43
0.0000001
 44
0.0000000001
 40
0.0
 40
0.0
 40
0.0
 40
0.0
 40
0.4887523044
 40
1.0
 40
1.0
 40
1.0
 40
1.0
 10
99.3845092824
 20
502.8069728731
 30
0.0
 10
99.3884578916
 20
502.6674559533
 30
0.0
 10
99.4295857059
 20
502.3760002247
 30
0.0
 10
99.6282939174
 20
502.1421658794
 30
0.0
 10
99.7515986671
 20
502.0639929953
 30
0.0
  0
SPLINE
  5
4BE
100
AcDbEntity
  8
0
100
AcDbSpline
 62
7
  6
BYLAYER
 70
0
 71
3
 72
9
 73
5
 74
0
 42
0.0000001
 43
0.0000001
 44
0.0000000001
 40
0.0
 40
0.0
 40
0.0
 40
0.0
 40
0.4913575357
 40
1.0
 40
1.0
 40
1.0
 40
1.0
 10
97.8465456297
 20
503.7006375431
 30
0.0
 10
97.8503704203
 20
503.5594880493
 30
0.0
 10
97.8907478982
 20
503.2660302311
 30
0.0
 10
98.0902342924
 20
503.0302587322
 30
0.0
 10
98.2136350149
 20
502.951916638
 30
0.0
  0
SPLINE
  5
4BF
100
AcDbEntity
  8
0
100
AcDbSpline
 62
7
  6
BYLAYER
 70
0
 71
3
 72
10
 73
6
 74
0
 42
0.0000001
 43
0.0000001
 44
0.0000000001
 40
0.0
 40
0.0
 40
0.0
 40
0.0
 40
0.4952838509
 40
0.7604705925
 40
1.0
 40
1.0
 40
1.0
 40
1.0
 10
84.0819366692
 20
511.9019775826
 30
0.0
 10
84.1256108969
 20
511.6938704241
 30
0.0
 10
84.1718795859
 20
511.3666838578
 30
0.0
 10
84.3826690474
 20
510.9823825727
 30
0.0
 10
84.5537192364
 20
510.8416926101
 30
0.0
 10
84.6412715135
 20
510.7877470889
 30
0.0
  0
SPLINE
  5
4C0
100
AcDbEntity
  8
0
100
AcDbSpline
 62
7
  6
BYLAYER
 70
0
 71
3
 72
9
 73
5
 74
0
 42
0.0000001
 43
0.0000001
 44
0.0000000001
 40
0.0
 40
0.0
 40
0.0
 40
0.0
 40
0.2936314914
 40
1.0
 40
1.0
 40
1.0
 40
1.0
 10
83.0486173431
 20
511.7072456011
 30
0.0
 10
83.0712581865
 20
511.6955305655
 30
0.0
 10
83.1458775456
 20
511.6545362612
 30
0.0
 10
83.2483456661
 20
511.6428290868
 30
0.0
 10
83.3014538347
 20
511.6734923774
 30
0.0
  0
SPLINE
  5
4C1
100
AcDbEntity
  8
0
100
AcDbSpline
 62
7
  6
BYLAYER
 70
0
 71
3
 72
9
 73
5
 74
0
 42
0.0000001
 43
0.0000001
 44
0.0000000001
 40
0.0
 40
0.0
 40
0.0
 40
0.0
 40
0.4923621807
 40
1.0
 40
1.0
 40
1.0
 40
1.0
 10
82.6790420258
 20
512.4583585708
 30
0.0
 10
82.6829810865
 20
512.3161982926
 30
0.0
 10
82.7204530466
 20
512.019806922
 30
0.0
 10
82.9250267997
 20
511.7861435085
 30
0.0
 10
83.0486173431
 20
511.7072456011
 30
0.0
  0
SPLINE
  5
4C2
100
AcDbEntity
  8
0
100
AcDbSpline
 62
7
  6
BYLAYER
 70
0
 71
3
 72
9
 73
5
 74
0
 42
0.0000001
 43
0.0000001
 44
0.0000000001
 40
0.0
 40
0.0
 40
0.0
 40
0.0
 40
0.4963971481
 40
1.0
 40
1.0
 40
1.0
 40
1.0
 10
85.861035789
 20
510.624145691
 30
0.0
 10
85.8648196798
 20
510.4808371454
 30
0.0
 10
85.9027707103
 20
510.1847171784
 30
0.0
 10
86.105619355
 20
509.9499872729
 30
0.0
 10
86.2281251737
 20
509.8715974272
 30
0.0
  0
SPLINE
  5
4C3
100
AcDbEntity
  8
0
100
AcDbSpline
 62
7
  6
BYLAYER
 70
0
 71
3
 72
9
 73
5
 74
0
 42
0.0000001
 43
0.0000001
 44
0.0000000001
 40
0.0
 40
0.0
 40
0.0
 40
0.0
 40
0.2820519678
 40
1.0
 40
1.0
 40
1.0
 40
1.0
 10
77.0029984633
 20
549.5002673043
 30
0.0
 10
76.8396838487
 20
549.5945305258
 30
0.0
 10
76.2439203164
 20
549.8924304808
 30
0.0
 10
75.5466402612
 20
550.035496986
 30
0.0
 10
75.0717722392
 20
549.9655965792
 30
0.0
  0
SPLINE
  5
4C4
100
AcDbEntity
  8
0
100
AcDbSpline
 62
7
  6
BYLAYER
 70
0
 71
3
 72
8
 73
4
 74
0
 42
0.0000001
 43
0.0000001
 44
0.0000000001
 40
0.0
 40
0.0
 40
0.0
 40
0.0
 40
1.0
 40
1.0
 40
1.0
 40
1.0
 10
74.8801381482
 20
549.9273960717
 30
0.0
 10
74.7545399712
 20
549.8954902546
 30
0.0
 10
74.6315060099
 20
549.8497683588
 30
0.0
 10
74.5163031133
 20
549.7904288624
 30
0.0
  0
SPLINE
  5
4C5
100
AcDbEntity
  8
0
100
AcDbSpline
 62
7
  6
BYLAYER
 70
0
 71
3
 72
11
 73
7
 74
0
 42
0.0000001
 43
0.0000001
 44
0.0000000001
 40
0.0
 40
0.0
 40
0.0
 40
0.0
 40
0.2372234895
 40
0.5000012334
 40
0.7627783059
 40
1.0
 40
1.0
 40
1.0
 40
1.0
 10
409.7435298386
 20
353.1931766471
 30
0.0
 10
409.743464218
 20
353.7899173422
 30
0.0
 10
409.519577182
 20
355.0484706254
 30
0.0
 10
408.7393770407
 20
356.8170173716
 30
0.0
 10
407.5978643534
 20
358.3769536111
 30
0.0
 10
406.6198664445
 20
359.2001105943
 30
0.0
 10
406.1031070542
 20
359.4985294339
 30
0.0
  0
SPLINE
  5
4C6
100
AcDbEntity
  8
0
100
AcDbSpline
 62
7
  6
BYLAYER
 70
0
 71
3
 72
12
 73
8
 74
0
 42
0.0000001
 43
0.0000001
 44
0.0000000001
 40
0.0
 40
0.0
 40
0.0
 40
0.0
 40
0.1908806828
 40
0.421854214
 40
0.7089660853
 40
0.8612795918
 40
1.0
 40
1.0
 40
1.0
 40
1.0
 10
234.7851345479
 20
208.5331858828
 30
0.0
 10
234.6187722773
 20
208.4984643153
 30
0.0
 10
234.2337759907
 20
208.4430787684
 30
0.0
 10
233.6393752051
 20
208.7274540102
 30
0.0
 10
233.2083933945
 20
209.1585781175
 30
0.0
 10
232.9879534843
 20
209.6328957228
 30
0.0
 10
232.9543734871
 20
209.8918414095
 30
0.0
 10
232.9395961442
 20
210.0144612931
 30
0.0
  0
SPLINE
  5
4C7
100
AcDbEntity
  8
0
100
AcDbSpline
 62
7
  6
BYLAYER
 70
0
 71
3
 72
9
 73
5
 74
0
 42
0.0000001
 43
0.0000001
 44
0.0000000001
 40
0.0
 40
0.0
 40
0.0
 40
0.0
 40
0.2801016266
 40
1.0
 40
1.0
 40
1.0
 40
1.0
 10
102.1740013164
 20
501.3594747767
 30
0.0
 10
102.2041785587
 20
501.3433709798
 30
0.0
 10
102.3106556768
 20
501.2859160703
 30
0.0
 10
102.435617424
 20
501.2463155689
 30
0.0
 10
102.5229526654
 20
501.2563691964
 30
0.0
  0
SPLINE
  5
4C8
100
AcDbEntity
  8
0
100
AcDbSpline
 62
7
  6
BYLAYER
 70
0
 71
3
 72
8
 73
4
 74
0
 42
0.0000001
 43
0.0000001
 44
0.0000000001
 40
0.0
 40
0.0
 40
0.0
 40
0.0
 40
1.0
 40
1.0
 40
1.0
 40
1.0
 10
102.5229526654
 20
501.2563691964
 30
0.0
 10
102.5531013312
 20
501.2598397709
 30
0.0
 10
102.5836281161
 20
501.2681634772
 30
0.0
 10
102.6099102183
 20
501.283337074
 30
0.0
  0
SPLINE
  5
4C9
100
AcDbEntity
  8
0
100
AcDbSpline
 62
7
  6
BYLAYER
 70
0
 71
3
 72
8
 73
4
 74
0
 42
0.0000001
 43
0.0000001
 44
0.0000000001
 40
0.0
 40
0.0
 40
0.0
 40
0.0
 40
1.0
 40
1.0
 40
1.0
 40
1.0
 10
101.4555667878
 20
502.2306658566
 30
0.0
 10
101.5050245153
 20
502.1097659848
 30
0.0
 10
101.5593805575
 20
501.9899686064
 30
0.0
 10
101.6275897425
 20
501.878566843
 30
0.0
  0
SPLINE
  5
4CA
100
AcDbEntity
  8
0
100
AcDbSpline
 62
7
  6
BYLAYER
 70
0
 71
3
 72
8
 73
4
 74
0
 42
0.0000001
 43
0.0000001
 44
0.0000000001
 40
0.0
 40
0.0
 40
0.0
 40
0.0
 40
1.0
 40
1.0
 40
1.0
 40
1.0
 10
101.6275897425
 20
501.878566843
 30
0.0
 10
101.6977273871
 20
501.7640154481
 30
0.0
 10
101.7830816328
 20
501.656531702
 30
0.0
 10
101.8834387065
 20
501.5672581392
 30
0.0
  0
SPLINE
  5
4CB
100
AcDbEntity
  8
0
100
AcDbSpline
 62
7
  6
BYLAYER
 70
0
 71
3
 72
9
 73
5
 74
0
 42
0.0000001
 43
0.0000001
 44
0.0000000001
 40
0.0
 40
0.0
 40
0.0
 40
0.0
 40
0.2656151673
 40
1.0
 40
1.0
 40
1.0
 40
1.0
 10
101.8834387065
 20
501.5672581392
 30
0.0
 10
101.90709294
 20
501.5462162971
 30
0.0
 10
101.9987063558
 20
501.4698352836
 30
0.0
 10
102.0988333851
 20
501.4043255839
 30
0.0
 10
102.1740013164
 20
501.3594747767
 30
0.0
  0
SPLINE
  5
4CC
100
AcDbEntity
  8
0
100
AcDbSpline
 62
7
  6
BYLAYER
 70
0
 71
3
 72
9
 73
5
 74
0
 42
0.0000001
 43
0.0000001
 44
0.0000000001
 40
0.0
 40
0.0
 40
0.0
 40
0.0
 40
0.2281455413
 40
1.0
 40
1.0
 40
1.0
 40
1.0
 10
101.1323955455
 20
502.6688932342
 30
0.0
 10
101.1554927875
 20
502.6549032144
 30
0.0
 10
101.2565639986
 20
502.5927369554
 30
0.0
 10
101.3307137399
 20
502.4928698346
 30
0.0
 10
101.3731970314
 20
502.4119903063
 30
0.0
  0
SPLINE
  5
4CD
100
AcDbEntity
  8
0
100
AcDbSpline
 62
7
  6
BYLAYER
 70
0
 71
3
 72
8
 73
4
 74
0
 42
0.0000001
 43
0.0000001
 44
0.0000000001
 40
0.0
 40
0.0
 40
0.0
 40
0.0
 40
1.0
 40
1.0
 40
1.0
 40
1.0
 10
101.3731970314
 20
502.4119903063
 30
0.0
 10
101.4040675396
 20
502.3532191509
 30
0.0
 10
101.4298638835
 20
502.2918736804
 30
0.0
 10
101.4555667878
 20
502.2306658566
 30
0.0
  0
SPLINE
  5
4CE
100
AcDbEntity
  8
0
100
AcDbSpline
 62
7
  6
BYLAYER
 70
0
 71
3
 72
8
 73
4
 74
0
 42
0.0000001
 43
0.0000001
 44
0.0000000001
 40
0.0
 40
0.0
 40
0.0
 40
0.0
 40
1.0
 40
1.0
 40
1.0
 40
1.0
 10
234.7081759751
 20
206.6256583824
 30
0.0
 10
234.7353245477
 20
206.6413348741
 30
0.0
 10
234.7547696994
 20
206.6713536305
 30
0.0
 10
234.7640792755
 20
206.7012890473
 30
0.0
  0
SPLINE
  5
4CF
100
AcDbEntity
  8
0
100
AcDbSpline
 62
7
  6
BYLAYER
 70
0
 71
3
 72
8
 73
4
 74
0
 42
0.0000001
 43
0.0000001
 44
0.0000000001
 40
0.0
 40
0.0
 40
0.0
 40
0.0
 40
1.0
 40
1.0
 40
1.0
 40
1.0
 10
234.7640792755
 20
206.7012890473
 30
0.0
 10
234.7742139256
 20
206.7338775319
 30
0.0
 10
234.7688581575
 20
206.7701970851
 30
0.0
 10
234.7621255511
 20
206.8036544083
 30
0.0
  0
SPLINE
  5
4D0
100
AcDbEntity
  8
0
100
AcDbSpline
 62
7
  6
BYLAYER
 70
0
 71
3
 72
9
 73
5
 74
0
 42
0.0000001
 43
0.0000001
 44
0.0000000001
 40
0.0
 40
0.0
 40
0.0
 40
0.0
 40
0.5510603895
 40
1.0
 40
1.0
 40
1.0
 40
1.0
 10
233.4709714649
 20
211.4488247446
 30
0.0
 10
233.2986716153
 20
211.5338011927
 30
0.0
 10
232.983395766
 20
211.6997080323
 30
0.0
 10
232.6040762537
 20
211.6538155961
 30
0.0
 10
232.468531878
 20
211.5755593756
 30
0.0
  0
SPLINE
  5
4D1
100
AcDbEntity
  8
0
100
AcDbSpline
 62
7
  6
BYLAYER
 70
0
 71
3
 72
9
 73
5
 74
0
 42
0.0000001
 43
0.0000001
 44
0.0000000001
 40
0.0
 40
0.0
 40
0.0
 40
0.0
 40
0.3051782939
 40
1.0
 40
1.0
 40
1.0
 40
1.0
 10
100.1976848769
 20
506.2991257102
 30
0.0
 10
100.1967475451
 20
506.271493076
 30
0.0
 10
100.1943117117
 20
506.1829553751
 30
0.0
 10
100.1541006339
 20
506.0830334556
 30
0.0
 10
100.099585318
 20
506.0515579103
 30
0.0
  0
SPLINE
  5
4D2
100
AcDbEntity
  8
0
100
AcDbSpline
 62
7
  6
BYLAYER
 70
0
 71
3
 72
9
 73
5
 74
0
 42
0.0000001
 43
0.0000001
 44
0.0000000001
 40
0.0
 40
0.0
 40
0.0
 40
0.0
 40
0.7302600639
 40
1.0
 40
1.0
 40
1.0
 40
1.0
 10
99.8305954936
 20
506.9378101621
 30
0.0
 10
99.8862276418
 20
506.9028253628
 30
0.0
 10
99.958607481
 20
506.8471891987
 30
0.0
 10
100.0172705089
 20
506.7787613121
 30
0.0
 10
100.0323276187
 20
506.759720782
 30
0.0
  0
SPLINE
  5
4D3
100
AcDbEntity
  8
0
100
AcDbSpline
 62
7
  6
BYLAYER
 70
0
 71
3
 72
8
 73
4
 74
0
 42
0.0000001
 43
0.0000001
 44
0.0000000001
 40
0.0
 40
0.0
 40
0.0
 40
0.0
 40
1.0
 40
1.0
 40
1.0
 40
1.0
 10
100.0323276187
 20
506.759720782
 30
0.0
 10
100.0865945226
 20
506.6910973452
 30
0.0
 10
100.1309044115
 20
506.6128313625
 30
0.0
 10
100.1596118291
 20
506.5301878079
 30
0.0
  0
SPLINE
  5
4D4
100
AcDbEntity
  8
0
100
AcDbSpline
 62
7
  6
BYLAYER
 70
0
 71
3
 72
9
 73
5
 74
0
 42
0.0000001
 43
0.0000001
 44
0.0000000001
 40
0.0
 40
0.0
 40
0.0
 40
0.0
 40
0.2703439519
 40
1.0
 40
1.0
 40
1.0
 40
1.0
 10
100.1596118291
 20
506.5301878079
 30
0.0
 10
100.166556464
 20
506.5101954378
 30
0.0
 10
100.1892659649
 20
506.4351089145
 30
0.0
 10
100.1961366014
 20
506.3562266863
 30
0.0
 10
100.1976848769
 20
506.2991257102
 30
0.0
  0
SPLINE
  5
4D5
100
AcDbEntity
  8
0
100
AcDbSpline
 62
7
  6
BYLAYER
 70
0
 71
3
 72
8
 73
4
 74
0
 42
0.0000001
 43
0.0000001
 44
0.0000000001
 40
0.0
 40
0.0
 40
0.0
 40
0.0
 40
1.0
 40
1.0
 40
1.0
 40
1.0
 10
233.0870485324
 20
206.8209210627
 30
0.0
 10
233.0719071511
 20
206.8121791948
 30
0.0
 10
233.0579349299
 20
206.8011276631
 30
0.0
 10
233.0457384866
 20
206.7886005545
 30
0.0
  0
SPLINE
  5
4D6
100
AcDbEntity
  8
0
100
AcDbSpline
 62
7
  6
BYLAYER
 70
0
 71
3
 72
8
 73
4
 74
0
 42
0.0000001
 43
0.0000001
 44
0.0000000001
 40
0.0
 40
0.0
 40
0.0
 40
0.0
 40
1.0
 40
1.0
 40
1.0
 40
1.0
 10
233.0457384866
 20
206.7886005545
 30
0.0
 10
233.0284289176
 20
206.770821695
 30
0.0
 10
233.0142716156
 20
206.7497127577
 30
0.0
 10
233.0032270043
 20
206.727492821
 30
0.0
  0
SPLINE
  5
4D7
100
AcDbEntity
  8
0
100
AcDbSpline
 62
7
  6
BYLAYER
 70
0
 71
3
 72
8
 73
4
 74
0
 42
0.0000001
 43
0.0000001
 44
0.0000000001
 40
0.0
 40
0.0
 40
0.0
 40
0.0
 40
1.0
 40
1.0
 40
1.0
 40
1.0
 10
233.0032270043
 20
206.727492821
 30
0.0
 10
232.99286818
 20
206.7066525746
 30
0.0
 10
232.9850374812
 20
206.6844800432
 30
0.0
 10
232.9790844881
 20
206.6619815324
 30
0.0
  0
SPLINE
  5
4D8
100
AcDbEntity
  8
0
100
AcDbSpline
 62
7
  6
BYLAYER
 70
0
 71
3
 72
8
 73
4
 74
0
 42
0.0000001
 43
0.0000001
 44
0.0000000001
 40
0.0
 40
0.0
 40
0.0
 40
0.0
 40
1.0
 40
1.0
 40
1.0
 40
1.0
 10
232.9790844881
 20
206.6619815324
 30
0.0
 10
232.9636055696
 20
206.6034811089
 30
0.0
 10
232.9588200068
 20
206.5424931821
 30
0.0
 10
232.9541693941
 20
206.4821585463
 30
0.0
  0
SPLINE
  5
4D9
100
AcDbEntity
  8
0
100
AcDbSpline
 62
7
  6
BYLAYER
 70
0
 71
3
 72
9
 73
5
 74
0
 42
0.0000001
 43
0.0000001
 44
0.0000000001
 40
0.0
 40
0.0
 40
0.0
 40
0.0
 40
0.22778323
 40
1.0
 40
1.0
 40
1.0
 40
1.0
 10
99.8223090508
 20
505.6566029269
 30
0.0
 10
99.8491922447
 20
505.6393001337
 30
0.0
 10
99.9663380127
 20
505.5616118336
 30
0.0
 10
100.0543270256
 20
505.4440368981
 30
0.0
 10
100.1036518056
 20
505.3475277258
 30
0.0
  0
SPLINE
  5
4DA
100
AcDbEntity
  8
0
100
AcDbSpline
 62
7
  6
BYLAYER
 70
0
 71
3
 72
9
 73
5
 74
0
 42
0.0000001
 43
0.0000001
 44
0.0000000001
 40
0.0
 40
0.0
 40
0.0
 40
0.0
 40
0.2752145093
 40
1.0
 40
1.0
 40
1.0
 40
1.0
 10
100.1036518056
 20
505.3475277258
 30
0.0
 10
100.1210430522
 20
505.3134999043
 30
0.0
 10
100.1768945041
 20
505.1857652948
 30
0.0
 10
100.1946583151
 20
505.0448355017
 30
0.0
 10
100.1976848783
 20
504.9442420109
 30
0.0
  0
SPLINE
  5
4DB
100
AcDbEntity
  8
0
100
AcDbSpline
 62
7
  6
BYLAYER
 70
0
 71
3
 72
9
 73
5
 74
0
 42
0.0000001
 43
0.0000001
 44
0.0000000001
 40
0.0
 40
0.0
 40
0.0
 40
0.0
 40
0.2851867322
 40
1.0
 40
1.0
 40
1.0
 40
1.0
 10
232.9568227759
 20
210.5086232363
 30
0.0
 10
232.9630051196
 20
210.549501669
 30
0.0
 10
232.9816597392
 20
210.6899070746
 30
0.0
 10
233.0451063864
 20
210.8471304029
 30
0.0
 10
233.1348478916
 20
210.8989453597
 30
0.0
  0
SPLINE
  5
4DC
100
AcDbEntity
  8
0
100
AcDbSpline
 62
7
  6
BYLAYER
 70
0
 71
3
 72
9
 73
5
 74
0
 42
0.0000001
 43
0.0000001
 44
0.0000000001
 40
0.0
 40
0.0
 40
0.0
 40
0.0
 40
0.7211601418
 40
1.0
 40
1.0
 40
1.0
 40
1.0
 10
233.1414395481
 20
207.0908009385
 30
0.0
 10
233.1834345998
 20
207.1150511139
 30
0.0
 10
233.2539843449
 20
207.1345561746
 30
0.0
 10
233.3200482813
 20
207.1189970944
 30
0.0
 10
233.3378445215
 20
207.1130919754
 30
0.0
  0
SPLINE
  5
4DD
100
AcDbEntity
  8
0
100
AcDbSpline
 62
7
  6
BYLAYER
 70
0
 71
3
 72
9
 73
5
 74
0
 42
0.0000001
 43
0.0000001
 44
0.0000000001
 40
0.0
 40
0.0
 40
0.0
 40
0.0
 40
0.215240981
 40
1.0
 40
1.0
 40
1.0
 40
1.0
 10
233.3378445215
 20
207.1130919754
 30
0.0
 10
233.3787684987
 20
207.0995126488
 30
0.0
 10
233.5530132492
 20
206.9921851097
 30
0.0
 10
233.6642697977
 20
206.8169152799
 30
0.0
 10
233.7476786282
 20
206.6836602723
 30
0.0
  0
SPLINE
  5
4DE
100
AcDbEntity
  8
0
100
AcDbSpline
 62
7
  6
BYLAYER
 70
0
 71
3
 72
9
 73
5
 74
0
 42
0.0000001
 43
0.0000001
 44
0.0000000001
 40
0.0
 40
0.0
 40
0.0
 40
0.0
 40
0.7708805349
 40
1.0
 40
1.0
 40
1.0
 40
1.0
 10
100.1976848783
 20
502.4191444959
 30
0.0
 10
100.1959242313
 20
502.3543011981
 30
0.0
 10
100.1934089658
 20
502.2688403929
 30
0.0
 10
100.1668051993
 20
502.188474196
 30
0.0
 10
100.1589845278
 20
502.1708519509
 30
0.0
  0
SPLINE
  5
4DF
100
AcDbEntity
  8
0
100
AcDbSpline
 62
7
  6
BYLAYER
 70
0
 71
3
 72
8
 73
4
 74
0
 42
0.0000001
 43
0.0000001
 44
0.0000000001
 40
0.0
 40
0.0
 40
0.0
 40
0.0
 40
1.0
 40
1.0
 40
1.0
 40
1.0
 10
100.1589845278
 20
502.1708519509
 30
0.0
 10
100.1418301572
 20
502.1321981695
 30
0.0
 10
100.1136909476
 20
502.0951195608
 30
0.0
 10
100.0770666864
 20
502.0739759865
 30
0.0
  0
SPLINE
  5
4E0
100
AcDbEntity
  8
0
100
AcDbSpline
 62
7
  6
BYLAYER
 70
0
 71
3
 72
8
 73
4
 74
0
 42
0.0000001
 43
0.0000001
 44
0.0000000001
 40
0.0
 40
0.0
 40
0.0
 40
0.0
 40
1.0
 40
1.0
 40
1.0
 40
1.0
 10
227.0403752855
 20
209.8089164432
 30
0.0
 10
227.0460151607
 20
209.775548
 30
0.0
 10
227.0516147339
 20
209.7421663721
 30
0.0
 10
227.0580207445
 20
209.7089365027
 30
0.0
  0
SPLINE
  5
4E1
100
AcDbEntity
  8
0
100
AcDbSpline
 62
7
  6
BYLAYER
 70
0
 71
3
 72
9
 73
5
 74
0
 42
0.0000001
 43
0.0000001
 44
0.0000000001
 40
0.0
 40
0.0
 40
0.0
 40
0.0
 40
0.5131737948
 40
1.0
 40
1.0
 40
1.0
 40
1.0
 10
227.0580207445
 20
209.7089365027
 30
0.0
 10
227.0863970122
 20
209.5617404198
 30
0.0
 10
227.1925967081
 20
209.2797164866
 30
0.0
 10
227.4147576265
 20
209.07156664
 30
0.0
 10
227.53833374
 20
209.0011922364
 30
0.0
  0
SPLINE
  5
4E2
100
AcDbEntity
  8
0
100
AcDbSpline
 62
7
  6
BYLAYER
 70
0
 71
3
 72
9
 73
5
 74
0
 42
0.0000001
 43
0.0000001
 44
0.0000000001
 40
0.0
 40
0.0
 40
0.0
 40
0.0
 40
0.2764536459
 40
1.0
 40
1.0
 40
1.0
 40
1.0
 10
227.6259314715
 20
208.9574527869
 30
0.0
 10
227.6569376626
 20
208.9440451446
 30
0.0
 10
227.7715805774
 20
208.9008461203
 30
0.0
 10
227.8972726534
 20
208.8923147602
 30
0.0
 10
227.9853873163
 20
208.8995694306
 30
0.0
  0
SPLINE
  5
4E3
100
AcDbEntity
  8
0
100
AcDbSpline
 62
7
  6
BYLAYER
 70
0
 71
3
 72
8
 73
4
 74
0
 42
0.0000001
 43
0.0000001
 44
0.0000000001
 40
0.0
 40
0.0
 40
0.0
 40
0.0
 40
1.0
 40
1.0
 40
1.0
 40
1.0
 10
227.9853873163
 20
208.8995694306
 30
0.0
 10
228.0115844354
 20
208.9017262959
 30
0.0
 10
228.0377193037
 20
208.9045943616
 30
0.0
 10
228.0638540241
 20
208.9074081671
 30
0.0
  0
SPLINE
  5
4E4
100
AcDbEntity
  8
0
100
AcDbSpline
 62
7
  6
BYLAYER
 70
0
 71
3
 72
9
 73
5
 74
0
 42
0.0000001
 43
0.0000001
 44
0.0000000001
 40
0.0
 40
0.0
 40
0.0
 40
0.0
 40
0.292975597
 40
1.0
 40
1.0
 40
1.0
 40
1.0
 10
98.6597212254
 20
503.3128091708
 30
0.0
 10
98.6587765107
 20
503.2758781598
 30
0.0
 10
98.656276528
 20
503.153919024
 30
0.0
 10
98.6162549856
 20
503.0052450364
 30
0.0
 10
98.5390442315
 20
502.960671888
 30
0.0
  0
SPLINE
  5
4E5
100
AcDbEntity
  8
0
100
AcDbSpline
 62
7
  6
BYLAYER
 70
0
 71
3
 72
9
 73
5
 74
0
 42
0.0000001
 43
0.0000001
 44
0.0000000001
 40
0.0
 40
0.0
 40
0.0
 40
0.0
 40
0.2271336227
 40
1.0
 40
1.0
 40
1.0
 40
1.0
 10
98.2843453986
 20
507.8917555562
 30
0.0
 10
98.3125091883
 20
507.8738218
 30
0.0
 10
98.4352697658
 20
507.7924992194
 30
0.0
 10
98.5256672661
 20
507.6670140227
 30
0.0
 10
98.574236583
 20
507.56430686
 30
0.0
  0
SPLINE
  5
4E6
100
AcDbEntity
  8
0
100
AcDbSpline
 62
7
  6
BYLAYER
 70
0
 71
3
 72
9
 73
5
 74
0
 42
0.0000001
 43
0.0000001
 44
0.0000000001
 40
0.0
 40
0.0
 40
0.0
 40
0.0
 40
0.2703438822
 40
1.0
 40
1.0
 40
1.0
 40
1.0
 10
98.574236583
 20
507.56430686
 30
0.0
 10
98.5910675965
 20
507.5287151377
 30
0.0
 10
98.6441283533
 20
507.3923239032
 30
0.0
 10
98.6568010823
 20
507.2444717253
 30
0.0
 10
98.6597212254
 20
507.1382505736
 30
0.0
  0
SPLINE
  5
4E7
100
AcDbEntity
  8
0
100
AcDbSpline
 62
7
  6
BYLAYER
 70
0
 71
3
 72
8
 73
4
 74
0
 42
0.0000001
 43
0.0000001
 44
0.0000000001
 40
0.0
 40
0.0
 40
0.0
 40
0.0
 40
1.0
 40
1.0
 40
1.0
 40
1.0
 10
229.2892501062
 20
209.001892701
 30
0.0
 10
229.2711180892
 20
208.9914242359
 30
0.0
 10
229.2545363067
 20
208.9779131991
 30
0.0
 10
229.2402132439
 20
208.9626420278
 30
0.0
  0
SPLINE
  5
4E8
100
AcDbEntity
  8
0
100
AcDbSpline
 62
7
  6
BYLAYER
 70
0
 71
3
 72
9
 73
5
 74
0
 42
0.0000001
 43
0.0000001
 44
0.0000000001
 40
0.0
 40
0.0
 40
0.0
 40
0.0
 40
0.4346150003
 40
1.0
 40
1.0
 40
1.0
 40
1.0
 10
229.2402132439
 20
208.9626420278
 30
0.0
 10
229.175226554
 20
208.8933535743
 30
0.0
 10
229.1235996812
 20
208.6597304596
 30
0.0
 10
229.157405662
 20
208.443189888
 30
0.0
 10
229.1975119139
 20
208.3263004669
 30
0.0
  0
SPLINE
  5
4E9
100
AcDbEntity
  8
0
100
AcDbSpline
 62
7
  6
BYLAYER
 70
0
 71
3
 72
8
 73
4
 74
0
 42
0.0000001
 43
0.0000001
 44
0.0000000001
 40
0.0
 40
0.0
 40
0.0
 40
0.0
 40
1.0
 40
1.0
 40
1.0
 40
1.0
 10
229.1975119139
 20
208.3263004669
 30
0.0
 10
229.2368958011
 20
208.2115163733
 30
0.0
 10
229.2984681632
 20
208.1024282566
 30
0.0
 10
229.3757231181
 20
208.008843265
 30
0.0
  0
SPLINE
  5
4EA
100
AcDbEntity
  8
0
100
AcDbSpline
 62
7
  6
BYLAYER
 70
0
 71
3
 72
9
 73
5
 74
0
 42
0.0000001
 43
0.0000001
 44
0.0000000001
 40
0.0
 40
0.0
 40
0.0
 40
0.0
 40
0.5431195658
 40
1.0
 40
1.0
 40
1.0
 40
1.0
 10
229.4831621104
 20
207.8970909123
 30
0.0
 10
229.5667152967
 20
207.8224563747
 30
0.0
 10
229.7454983549
 20
207.705249866
 30
0.0
 10
229.9524849236
 20
207.674580113
 30
0.0
 10
230.0460008179
 20
207.6628872599
 30
0.0
  0
SPLINE
  5
4EB
100
AcDbEntity
  8
0
100
AcDbSpline
 62
7
  6
BYLAYER
 70
0
 71
3
 72
8
 73
4
 74
0
 42
0.0000001
 43
0.0000001
 44
0.0000000001
 40
0.0
 40
0.0
 40
0.0
 40
0.0
 40
1.0
 40
1.0
 40
1.0
 40
1.0
 10
229.0659978905
 20
209.3600977074
 30
0.0
 10
229.1288868688
 20
209.3964076149
 30
0.0
 10
229.2079938235
 20
209.4078797852
 30
0.0
 10
229.2801776125
 20
209.3999467161
 30
0.0
  0
SPLINE
  5
4EC
100
AcDbEntity
  8
0
100
AcDbSpline
 62
7
  6
BYLAYER
 70
0
 71
3
 72
8
 73
4
 74
0
 42
0.0000001
 43
0.0000001
 44
0.0000000001
 40
0.0
 40
0.0
 40
0.0
 40
0.0
 40
1.0
 40
1.0
 40
1.0
 40
1.0
 10
229.2801776125
 20
209.3999467161
 30
0.0
 10
229.3309608889
 20
209.3943655844
 30
0.0
 10
229.3810698738
 20
209.3808644425
 30
0.0
 10
229.4289072957
 20
209.3629292464
 30
0.0
  0
SPLINE
  5
4ED
100
AcDbEntity
  8
0
100
AcDbSpline
 62
7
  6
BYLAYER
 70
0
 71
3
 72
9
 73
5
 74
0
 42
0.0000001
 43
0.0000001
 44
0.0000000001
 40
0.0
 40
0.0
 40
0.0
 40
0.0
 40
0.2241399201
 40
1.0
 40
1.0
 40
1.0
 40
1.0
 10
229.4289072957
 20
209.3629292464
 30
0.0
 10
229.4804395912
 20
209.3436087691
 30
0.0
 10
229.7017248531
 20
209.2330425462
 30
0.0
 10
229.8772367812
 20
209.0543863672
 30
0.0
 10
230.0131136127
 20
208.9208603783
 30
0.0
  0
SPLINE
  5
4EE
100
AcDbEntity
  8
0
100
AcDbSpline
 62
7
  6
BYLAYER
 70
0
 71
3
 72
10
 73
6
 74
0
 42
0.0000001
 43
0.0000001
 44
0.0000000001
 40
0.0
 40
0.0
 40
0.0
 40
0.0
 40
0.5363958738
 40
0.7857916358
 40
1.0
 40
1.0
 40
1.0
 40
1.0
 10
85.2713167387
 20
511.2969523506
 30
0.0
 10
85.2461512383
 20
511.1971999061
 30
0.0
 10
85.2057840308
 20
511.0533683255
 30
0.0
 10
85.1498638702
 20
510.8663940039
 30
0.0
 10
85.0816465102
 20
510.8022278898
 30
0.0
 10
85.046065535
 20
510.7816879151
 30
0.0
  0
SPLINE
  5
4EF
100
AcDbEntity
  8
0
100
AcDbSpline
 62
7
  6
BYLAYER
 70
0
 71
3
 72
9
 73
5
 74
0
 42
0.0000001
 43
0.0000001
 44
0.0000000001
 40
0.0
 40
0.0
 40
0.0
 40
0.0
 40
0.2917488693
 40
1.0
 40
1.0
 40
1.0
 40
1.0
 10
86.6742113834
 20
510.2334467991
 30
0.0
 10
86.6731945783
 20
510.1964217281
 30
0.0
 10
86.6699885439
 20
510.0739302832
 30
0.0
 10
86.6335736985
 20
509.9224022691
 30
0.0
 10
86.5557056005
 20
509.8774414702
 30
0.0
  0
SPLINE
  5
4F0
100
AcDbEntity
  8
0
100
AcDbSpline
 62
7
  6
BYLAYER
 70
0
 71
3
 72
10
 73
6
 74
0
 42
0.0000001
 43
0.0000001
 44
0.0000000001
 40
0.0
 40
0.0
 40
0.0
 40
0.0
 40
0.4949741418
 40
0.7632131664
 40
1.0
 40
1.0
 40
1.0
 40
1.0
 10
86.1604519745
 20
514.7688549733
 30
0.0
 10
86.3036483308
 20
514.6816773829
 30
0.0
 10
86.5216701446
 20
514.5212491914
 30
0.0
 10
86.6621822094
 20
514.2023399379
 30
0.0
 10
86.6721321299
 20
514.0299804154
 30
0.0
 10
86.6742113834
 20
513.9498085813
 30
0.0
  0
SPLINE
  5
4F1
100
AcDbEntity
  8
0
100
AcDbSpline
 62
7
  6
BYLAYER
 70
0
 71
3
 72
8
 73
4
 74
0
 42
0.0000001
 43
0.0000001
 44
0.0000000001
 40
0.0
 40
0.0
 40
0.0
 40
0.0
 40
1.0
 40
1.0
 40
1.0
 40
1.0
 10
233.5416818486
 20
211.48964916
 30
0.0
 10
233.5774578538
 20
211.4653851572
 30
0.0
 10
233.6132485574
 20
211.4411412257
 30
0.0
 10
233.6488385215
 20
211.4166051535
 30
0.0
  0
SPLINE
  5
4F2
100
AcDbEntity
  8
0
100
AcDbSpline
 62
7
  6
BYLAYER
 70
0
 71
3
 72
9
 73
5
 74
0
 42
0.0000001
 43
0.0000001
 44
0.0000000001
 40
0.0
 40
0.0
 40
0.0
 40
0.0
 40
0.476157979
 40
1.0
 40
1.0
 40
1.0
 40
1.0
 10
233.6488385215
 20
211.4166051535
 30
0.0
 10
233.8257730591
 20
211.2946247385
 30
0.0
 10
234.1804376711
 20
211.0078026538
 30
0.0
 10
234.4371062425
 20
210.6284683162
 30
0.0
 10
234.5495913558
 20
210.4205126092
 30
0.0
  0
SPLINE
  5
4F3
100
AcDbEntity
  8
0
100
AcDbSpline
 62
7
  6
BYLAYER
 70
0
 71
3
 72
9
 73
5
 74
0
 42
0.0000001
 43
0.0000001
 44
0.0000000001
 40
0.0
 40
0.0
 40
0.0
 40
0.0
 40
0.5276281652
 40
1.0
 40
1.0
 40
1.0
 40
1.0
 10
234.6438218178
 20
210.2312059862
 30
0.0
 10
234.7388047354
 20
210.0228889682
 30
0.0
 10
234.8799850405
 20
209.6053199767
 30
0.0
 10
234.8961636182
 20
209.1688383169
 30
0.0
 10
234.900658266
 20
208.9639153146
 30
0.0
  0
SPLINE
  5
4F4
100
AcDbEntity
  8
0
100
AcDbSpline
 62
7
  6
BYLAYER
 70
0
 71
3
 72
8
 73
4
 74
0
 42
0.0000001
 43
0.0000001
 44
0.0000000001
 40
0.0
 40
0.0
 40
0.0
 40
0.0
 40
1.0
 40
1.0
 40
1.0
 40
1.0
 10
225.8329617076
 20
215.1956708405
 30
0.0
 10
225.816545766
 20
215.186192792
 30
0.0
 10
225.8011720129
 20
215.1747015206
 30
0.0
 10
225.7872738214
 20
215.1618113377
 30
0.0
  0
SPLINE
  5
4F5
100
AcDbEntity
  8
0
100
AcDbSpline
 62
7
  6
BYLAYER
 70
0
 71
3
 72
9
 73
5
 74
0
 42
0.0000001
 43
0.0000001
 44
0.0000000001
 40
0.0
 40
0.0
 40
0.0
 40
0.0
 40
0.2236222389
 40
1.0
 40
1.0
 40
1.0
 40
1.0
 10
225.7872738214
 20
215.1618113377
 30
0.0
 10
225.7662138739
 20
215.1422788268
 30
0.0
 10
225.6857620482
 20
215.0389471481
 30
0.0
 10
225.6700925587
 20
214.9043500476
 30
0.0
 10
225.6552577561
 20
214.8057365503
 30
0.0
  0
SPLINE
  5
4F6
100
AcDbEntity
  8
0
100
AcDbSpline
 62
7
  6
BYLAYER
 70
0
 71
3
 72
9
 73
5
 74
0
 42
0.0000001
 43
0.0000001
 44
0.0000000001
 40
0.0
 40
0.0
 40
0.0
 40
0.0
 40
0.4868384461
 40
1.0
 40
1.0
 40
1.0
 40
1.0
 10
83.5145910146
 20
516.2964089529
 30
0.0
 10
83.6601690459
 20
516.2102841554
 30
0.0
 10
83.9784311173
 20
516.0145208437
 30
0.0
 10
84.0452666907
 20
515.6469375995
 30
0.0
 10
84.0831370541
 20
515.4727141027
 30
0.0
  0
SPLINE
  5
4F7
100
AcDbEntity
  8
0
100
AcDbSpline
 62
7
  6
BYLAYER
 70
0
 71
3
 72
9
 73
5
 74
0
 42
0.0000001
 43
0.0000001
 44
0.0000000001
 40
0.0
 40
0.0
 40
0.0
 40
0.0
 40
0.7350306663
 40
1.0
 40
1.0
 40
1.0
 40
1.0
 10
225.1662807478
 20
215.872469943
 30
0.0
 10
225.2623459834
 20
215.927932969
 30
0.0
 10
225.4170948735
 20
215.966508668
 30
0.0
 10
225.5677422679
 20
215.9575749677
 30
0.0
 10
225.6074097884
 20
215.9525256722
 30
0.0
  0
SPLINE
  5
4F8
100
AcDbEntity
  8
0
100
AcDbSpline
 62
7
  6
BYLAYER
 70
0
 71
3
 72
9
 73
5
 74
0
 42
0.0000001
 43
0.0000001
 44
0.0000000001
 40
0.0
 40
0.0
 40
0.0
 40
0.0
 40
0.2296873618
 40
1.0
 40
1.0
 40
1.0
 40
1.0
 10
225.6074097884
 20
215.9525256722
 30
0.0
 10
225.653095448
 20
215.9467103253
 30
0.0
 10
225.850231088
 20
215.905348434
 30
0.0
 10
226.0314857453
 20
215.8139094466
 30
0.0
 10
226.1700087733
 20
215.7455903122
 30
0.0
  0
SPLINE
  5
4F9
100
AcDbEntity
  8
0
100
AcDbSpline
 62
7
  6
BYLAYER
 70
0
 71
3
 72
9
 73
5
 74
0
 42
0.0000001
 43
0.0000001
 44
0.0000000001
 40
0.0
 40
0.0
 40
0.0
 40
0.0
 40
0.2925179473
 40
1.0
 40
1.0
 40
1.0
 40
1.0
 10
83.4922176203
 20
512.0734007108
 30
0.0
 10
83.491225276
 20
512.035927086
 30
0.0
 10
83.4883670721
 20
511.9122142656
 30
0.0
 10
83.450682934
 20
511.7596528362
 30
0.0
 10
83.3721659332
 20
511.7143177828
 30
0.0
  0
SPLINE
  5
4FA
100
AcDbEntity
  8
0
100
AcDbSpline
 62
7
  6
BYLAYER
 70
0
 71
3
 72
9
 73
5
 74
0
 42
0.0000001
 43
0.0000001
 44
0.0000000001
 40
0.0
 40
0.0
 40
0.0
 40
0.0
 40
0.2291902332
 40
1.0
 40
1.0
 40
1.0
 40
1.0
 10
220.6206416189
 20
215.0354529422
 30
0.0
 10
220.598887784
 20
215.0164233788
 30
0.0
 10
220.5128294257
 20
214.9224854985
 30
0.0
 10
220.4706167187
 20
214.7991467231
 30
0.0
 10
220.4395638454
 20
214.7070357574
 30
0.0
  0
SPLINE
  5
4FB
100
AcDbEntity
  8
0
100
AcDbSpline
 62
7
  6
BYLAYER
 70
0
 71
3
 72
9
 73
5
 74
0
 42
0.0000001
 43
0.0000001
 44
0.0000000001
 40
0.0
 40
0.0
 40
0.0
 40
0.0
 40
0.4481121787
 40
1.0
 40
1.0
 40
1.0
 40
1.0
 10
221.0040991875
 20
212.9493180447
 30
0.0
 10
220.8888937565
 20
212.8828048908
 30
0.0
 10
220.5665428188
 20
212.8453507748
 30
0.0
 10
220.2960102789
 20
212.9809586306
 30
0.0
 10
220.1488826314
 20
213.0530362104
 30
0.0
  0
SPLINE
  5
4FC
100
AcDbEntity
  8
0
100
AcDbSpline
 62
7
  6
BYLAYER
 70
0
 71
3
 72
8
 73
4
 74
0
 42
0.0000001
 43
0.0000001
 44
0.0000000001
 40
0.0
 40
0.0
 40
0.0
 40
0.0
 40
1.0
 40
1.0
 40
1.0
 40
1.0
 10
100.8908259499
 20
502.6983697882
 30
0.0
 10
100.9135931182
 20
502.7115140436
 30
0.0
 10
100.940392058
 20
502.7187641345
 30
0.0
 10
100.9666486046
 20
502.720071486
 30
0.0
  0
SPLINE
  5
4FD
100
AcDbEntity
  8
0
100
AcDbSpline
 62
7
  6
BYLAYER
 70
0
 71
3
 72
8
 73
4
 74
0
 42
0.0000001
 43
0.0000001
 44
0.0000000001
 40
0.0
 40
0.0
 40
0.0
 40
0.0
 40
1.0
 40
1.0
 40
1.0
 40
1.0
 10
100.9666486046
 20
502.720071486
 30
0.0
 10
101.0243998378
 20
502.7229470036
 30
0.0
 10
101.0811259873
 20
502.6956309594
 30
0.0
 10
101.1323955455
 20
502.6688932342
 30
0.0
  0
SPLINE
  5
4FE
100
AcDbEntity
  8
0
100
AcDbSpline
 62
7
  6
BYLAYER
 70
0
 71
3
 72
9
 73
5
 74
0
 42
0.0000001
 43
0.0000001
 44
0.0000000001
 40
0.0
 40
0.0
 40
0.0
 40
0.0
 40
0.5105831043
 40
1.0
 40
1.0
 40
1.0
 40
1.0
 10
95.7857074814
 20
504.9660263537
 30
0.0
 10
95.5478901353
 20
505.1150213331
 30
0.0
 10
95.1654378885
 20
505.5551726169
 30
0.0
 10
95.0438345133
 20
506.109905896
 30
0.0
 10
95.0357844721
 20
506.3787877107
 30
0.0
  0
SPLINE
  5
4FF
100
AcDbEntity
  8
0
100
AcDbSpline
 62
7
  6
BYLAYER
 70
0
 71
3
 72
10
 73
6
 74
0
 42
0.0000001
 43
0.0000001
 44
0.0000000001
 40
0.0
 40
0.0
 40
0.0
 40
0.0
 40
0.4420016534
 40
0.7010458287
 40
1.0
 40
1.0
 40
1.0
 40
1.0
 10
96.6831291606
 20
505.009575785
 30
0.0
 10
96.5579701003
 20
504.9468976517
 30
0.0
 10
96.3576190905
 20
504.8386014956
 30
0.0
 10
96.0293011676
 20
504.8372364388
 30
0.0
 10
95.8692143099
 20
504.9214174971
 30
0.0
 10
95.7857074814
 20
504.9660263537
 30
0.0
  0
SPLINE
  5
500
100
AcDbEntity
  8
0
100
AcDbSpline
 62
7
  6
BYLAYER
 70
0
 71
3
 72
8
 73
4
 74
0
 42
0.0000001
 43
0.0000001
 44
0.0000000001
 40
0.0
 40
0.0
 40
0.0
 40
0.0
 40
1.0
 40
1.0
 40
1.0
 40
1.0
 10
96.8513439351
 20
504.9698694629
 30
0.0
 10
96.8136913422
 20
504.9899695826
 30
0.0
 10
96.7742044446
 20
505.0116557336
 30
0.0
 10
96.731693391
 20
505.0154692473
 30
0.0
  0
SPLINE
  5
501
100
AcDbEntity
  8
0
100
AcDbSpline
 62
7
  6
BYLAYER
 70
0
 71
3
 72
8
 73
4
 74
0
 42
0.0000001
 43
0.0000001
 44
0.0000000001
 40
0.0
 40
0.0
 40
0.0
 40
0.0
 40
1.0
 40
1.0
 40
1.0
 40
1.0
 10
96.731693391
 20
505.0154692473
 30
0.0
 10
96.7154517699
 20
505.0169262247
 30
0.0
 10
96.6988925777
 20
505.0137504376
 30
0.0
 10
96.6831291606
 20
505.009575785
 30
0.0
  0
SPLINE
  5
502
100
AcDbEntity
  8
0
100
AcDbSpline
 62
7
  6
BYLAYER
 70
0
 71
3
 72
8
 73
4
 74
0
 42
0.0000001
 43
0.0000001
 44
0.0000000001
 40
0.0
 40
0.0
 40
0.0
 40
0.0
 40
1.0
 40
1.0
 40
1.0
 40
1.0
 10
97.1140241494
 20
504.5292490928
 30
0.0
 10
97.112656602
 20
504.5840272424
 30
0.0
 10
97.1051656446
 20
504.6397909445
 30
0.0
 10
97.0865265065
 20
504.6913185913
 30
0.0
  0
SPLINE
  5
503
100
AcDbEntity
  8
0
100
AcDbSpline
 62
7
  6
BYLAYER
 70
0
 71
3
 72
9
 73
5
 74
0
 42
0.0000001
 43
0.0000001
 44
0.0000000001
 40
0.0
 40
0.0
 40
0.0
 40
0.0
 40
0.2657970581
 40
1.0
 40
1.0
 40
1.0
 40
1.0
 10
97.0865265065
 20
504.6913185913
 30
0.0
 10
97.0754082075
 20
504.7220549794
 30
0.0
 10
97.0225142152
 20
504.8338568019
 30
0.0
 10
96.9281529241
 20
504.9224145598
 30
0.0
 10
96.8513439351
 20
504.9698694629
 30
0.0
  0
SPLINE
  5
504
100
AcDbEntity
  8
0
100
AcDbSpline
 62
7
  6
BYLAYER
 70
0
 71
3
 72
9
 73
5
 74
0
 42
0.0000001
 43
0.0000001
 44
0.0000000001
 40
0.0
 40
0.0
 40
0.0
 40
0.0
 40
0.3138420815
 40
1.0
 40
1.0
 40
1.0
 40
1.0
 10
230.9058899231
 20
212.7398668251
 30
0.0
 10
230.7791745605
 20
212.875080736
 30
0.0
 10
230.3989012552
 20
213.2861184436
 30
0.0
 10
229.6833544248
 20
213.6411342366
 30
0.0
 10
229.3324869525
 20
213.4385646361
 30
0.0
  0
SPLINE
  5
505
100
AcDbEntity
  8
0
100
AcDbSpline
 62
7
  6
BYLAYER
 70
0
 71
3
 72
9
 73
5
 74
0
 42
0.0000001
 43
0.0000001
 44
0.0000000001
 40
0.0
 40
0.0
 40
0.0
 40
0.0
 40
0.5074461689
 40
1.0
 40
1.0
 40
1.0
 40
1.0
 10
97.1587709374
 20
505.6678878904
 30
0.0
 10
97.1436423585
 20
506.1311342114
 30
0.0
 10
96.8204667971
 20
507.0394525957
 30
0.0
 10
96.1397925763
 20
507.6974281155
 30
0.0
 10
95.7517330695
 20
507.9250497474
 30
0.0
  0
SPLINE
  5
506
100
AcDbEntity
  8
0
100
AcDbSpline
 62
7
  6
BYLAYER
 70
0
 71
3
 72
8
 73
4
 74
0
 42
0.0000001
 43
0.0000001
 44
0.0000000001
 40
0.0
 40
0.0
 40
0.0
 40
0.0
 40
1.0
 40
1.0
 40
1.0
 40
1.0
 10
233.0103065278
 20
210.0552857094
 30
0.0
 10
233.0140567606
 20
210.0241669136
 30
0.0
 10
233.0177725508
 20
209.9930428442
 30
0.0
 10
233.0218281448
 20
209.9619623703
 30
0.0
  0
SPLINE
  5
507
100
AcDbEntity
  8
0
100
AcDbSpline
 62
7
  6
BYLAYER
 70
0
 71
3
 72
9
 73
5
 74
0
 42
0.0000001
 43
0.0000001
 44
0.0000000001
 40
0.0
 40
0.0
 40
0.0
 40
0.0
 40
0.2385440616
 40
1.0
 40
1.0
 40
1.0
 40
1.0
 10
233.0218281448
 20
209.9619623703
 30
0.0
 10
233.0267126632
 20
209.9245293455
 30
0.0
 10
233.0487731285
 20
209.7678974155
 30
0.0
 10
233.0941441983
 20
209.6139466176
 30
0.0
 10
233.1434738222
 20
209.5040033439
 30
0.0
  0
SPLINE
  5
508
100
AcDbEntity
  8
0
100
AcDbSpline
 62
7
  6
BYLAYER
 70
0
 71
3
 72
9
 73
5
 74
0
 42
0.0000001
 43
0.0000001
 44
0.0000000001
 40
0.0
 40
0.0
 40
0.0
 40
0.0
 40
0.2753118046
 40
1.0
 40
1.0
 40
1.0
 40
1.0
 10
233.1434738222
 20
209.5040033439
 30
0.0
 10
233.1910857501
 20
209.3978883808
 30
0.0
 10
233.4074555931
 20
209.0327890097
 30
0.0
 10
233.7560161471
 20
208.7510514461
 30
0.0
 10
234.036420877
 20
208.6281699384
 30
0.0
  0
SPLINE
  5
509
100
AcDbEntity
  8
0
100
AcDbSpline
 62
7
  6
BYLAYER
 70
0
 71
3
 72
9
 73
5
 74
0
 42
0.0000001
 43
0.0000001
 44
0.0000000001
 40
0.0
 40
0.0
 40
0.0
 40
0.0
 40
0.5290616874
 40
1.0
 40
1.0
 40
1.0
 40
1.0
 10
234.036420877
 20
208.6281699384
 30
0.0
 10
234.1712722878
 20
208.5690741282
 30
0.0
 10
234.4498466886
 20
208.4920352722
 30
0.0
 10
234.7275525858
 20
208.5472343272
 30
0.0
 10
234.8558449317
 20
208.5740102982
 30
0.0
  0
SPLINE
  5
50A
100
AcDbEntity
  8
0
100
AcDbSpline
 62
7
  6
BYLAYER
 70
0
 71
3
 72
9
 73
5
 74
0
 42
0.0000001
 43
0.0000001
 44
0.0000000001
 40
0.0
 40
0.0
 40
0.0
 40
0.0
 40
0.2828424075
 40
1.0
 40
1.0
 40
1.0
 40
1.0
 10
95.0357844721
 20
506.8686891602
 30
0.0
 10
95.0421509833
 20
506.9223855443
 30
0.0
 10
95.0656257512
 20
507.1076570141
 30
0.0
 10
95.1474659834
 20
507.3164680629
 30
0.0
 10
95.2662006933
 20
507.3850191869
 30
0.0
  0
SPLINE
  5
50B
100
AcDbEntity
  8
0
100
AcDbSpline
 62
7
  6
BYLAYER
 70
0
 71
3
 72
9
 73
5
 74
0
 42
0.0000001
 43
0.0000001
 44
0.0000000001
 40
0.0
 40
0.0
 40
0.0
 40
0.0
 40
0.2319072409
 40
1.0
 40
1.0
 40
1.0
 40
1.0
 10
230.0350197441
 20
212.6416836315
 30
0.0
 10
230.0155498815
 20
212.6264848815
 30
0.0
 10
229.9402354842
 20
212.5495675175
 30
0.0
 10
229.9017818326
 20
212.4447844646
 30
0.0
 10
229.8822489938
 20
212.3653433096
 30
0.0
  0
SPLINE
  5
50C
100
AcDbEntity
  8
0
100
AcDbSpline
 62
7
  6
BYLAYER
 70
0
 71
3
 72
8
 73
4
 74
0
 42
0.0000001
 43
0.0000001
 44
0.0000000001
 40
0.0
 40
0.0
 40
0.0
 40
0.0
 40
1.0
 40
1.0
 40
1.0
 40
1.0
 10
229.8822489938
 20
212.3653433096
 30
0.0
 10
229.8609012139
 20
212.2785206869
 30
0.0
 10
229.8519142512
 20
212.188506064
 30
0.0
 10
229.8494396365
 20
212.0991317288
 30
0.0
  0
SPLINE
  5
50D
100
AcDbEntity
  8
0
100
AcDbSpline
 62
7
  6
BYLAYER
 70
0
 71
3
 72
10
 73
6
 74
0
 42
0.0000001
 43
0.0000001
 44
0.0000000001
 40
0.0
 40
0.0
 40
0.0
 40
0.0
 40
0.5124865589
 40
0.7837811184
 40
1.0
 40
1.0
 40
1.0
 40
1.0
 10
229.8494396365
 20
212.0991317288
 30
0.0
 10
229.8407809643
 20
211.7864111016
 30
0.0
 10
229.9406073876
 20
211.2845856145
 30
0.0
 10
230.3302423433
 20
210.8060521878
 30
0.0
 10
230.6128420255
 20
210.6554568831
 30
0.0
 10
230.7447264351
 20
210.6502314943
 30
0.0
  0
SPLINE
  5
50E
100
AcDbEntity
  8
0
100
AcDbSpline
 62
7
  6
BYLAYER
 70
0
 71
3
 72
8
 73
4
 74
0
 42
0.0000001
 43
0.0000001
 44
0.0000000001
 40
0.0
 40
0.0
 40
0.0
 40
0.0
 40
1.0
 40
1.0
 40
1.0
 40
1.0
 10
230.7447264351
 20
210.6502314943
 30
0.0
 10
230.8063776101
 20
210.6477888147
 30
0.0
 10
230.8689470008
 20
210.6619696964
 30
0.0
 10
230.926852118
 20
210.683273017
 30
0.0
  0
SPLINE
  5
50F
100
AcDbEntity
  8
0
100
AcDbSpline
 62
7
  6
BYLAYER
 70
0
 71
3
 72
8
 73
4
 74
0
 42
0.0000001
 43
0.0000001
 44
0.0000000001
 40
0.0
 40
0.0
 40
0.0
 40
0.0
 40
1.0
 40
1.0
 40
1.0
 40
1.0
 10
230.926852118
 20
210.683273017
 30
0.0
 10
230.943536886
 20
210.6894113511
 30
0.0
 10
230.9600657101
 20
210.6959675938
 30
0.0
 10
230.9766003069
 20
210.7024996486
 30
0.0
  0
SPLINE
  5
510
100
AcDbEntity
  8
0
100
AcDbSpline
 62
7
  6
BYLAYER
 70
0
 71
3
 72
9
 73
5
 74
0
 42
0.0000001
 43
0.0000001
 44
0.0000000001
 40
0.0
 40
0.0
 40
0.0
 40
0.0
 40
0.4400733302
 40
1.0
 40
1.0
 40
1.0
 40
1.0
 10
229.4032008583
 20
213.4793910849
 30
0.0
 10
229.5374907739
 20
213.556920655
 30
0.0
 10
229.9250346564
 20
213.5768613764
 30
0.0
 10
230.2411440172
 20
213.4056992952
 30
0.0
 10
230.4051702079
 20
213.2960610874
 30
0.0
  0
SPLINE
  5
511
100
AcDbEntity
  8
0
100
AcDbSpline
 62
7
  6
BYLAYER
 70
0
 71
3
 72
9
 73
5
 74
0
 42
0.0000001
 43
0.0000001
 44
0.0000000001
 40
0.0
 40
0.0
 40
0.0
 40
0.0
 40
0.2409582005
 40
1.0
 40
1.0
 40
1.0
 40
1.0
 10
230.5184620336
 20
213.2152395689
 30
0.0
 10
230.552617635
 20
213.1893026424
 30
0.0
 10
230.6916553107
 20
213.0779843113
 30
0.0
 10
230.8167896689
 20
212.950551315
 30
0.0
 10
230.909456302
 20
212.8522417613
 30
0.0
  0
SPLINE
  5
512
100
AcDbEntity
  8
0
100
AcDbSpline
 62
7
  6
BYLAYER
 70
0
 71
3
 72
9
 73
5
 74
0
 42
0.0000001
 43
0.0000001
 44
0.0000000001
 40
0.0
 40
0.0
 40
0.0
 40
0.0
 40
0.273722715
 40
1.0
 40
1.0
 40
1.0
 40
1.0
 10
55.0364571366
 20
544.9995851752
 30
0.0
 10
55.0364571366
 20
545.0579989514
 30
0.0
 10
55.0465370935
 20
545.2707831303
 30
0.0
 10
55.099757045
 20
545.4851851917
 30
0.0
 10
55.173409104
 20
545.6215583241
 30
0.0
  0
SPLINE
  5
513
100
AcDbEntity
  8
0
100
AcDbSpline
 62
7
  6
BYLAYER
 70
0
 71
3
 72
9
 73
5
 74
0
 42
0.0000001
 43
0.0000001
 44
0.0000000001
 40
0.0
 40
0.0
 40
0.0
 40
0.0
 40
0.2628113377
 40
1.0
 40
1.0
 40
1.0
 40
1.0
 10
55.173409104
 20
545.6215583241
 30
0.0
 10
55.1903394586
 20
545.6529063341
 30
0.0
 10
55.2615524545
 20
545.7682735818
 30
0.0
 10
55.3641553765
 20
545.8651516442
 30
0.0
 10
55.4507027566
 20
545.9151194851
 30
0.0
  0
SPLINE
  5
514
100
AcDbEntity
  8
0
100
AcDbSpline
 62
7
  6
BYLAYER
 70
0
 71
3
 72
8
 73
4
 74
0
 42
0.0000001
 43
0.0000001
 44
0.0000000001
 40
0.0
 40
0.0
 40
0.0
 40
0.0
 40
1.0
 40
1.0
 40
1.0
 40
1.0
 10
233.205559963
 20
210.9397707495
 30
0.0
 10
233.1891288324
 20
210.9302839193
 30
0.0
 10
233.1737456327
 20
210.9187736524
 30
0.0
 10
233.1598416184
 20
210.9058639511
 30
0.0
  0
SPLINE
  5
515
100
AcDbEntity
  8
0
100
AcDbSpline
 62
7
  6
BYLAYER
 70
0
 71
3
 72
9
 73
5
 74
0
 42
0.0000001
 43
0.0000001
 44
0.0000000001
 40
0.0
 40
0.0
 40
0.0
 40
0.0
 40
0.223722079
 40
1.0
 40
1.0
 40
1.0
 40
1.0
 10
233.1598416184
 20
210.9058639511
 30
0.0
 10
233.1387609637
 20
210.8862908302
 30
0.0
 10
233.0582852985
 20
210.7828161199
 30
0.0
 10
233.0424590682
 20
210.6481396334
 30
0.0
 10
233.0275331596
 20
210.5494476517
 30
0.0
  0
SPLINE
  5
516
100
AcDbEntity
  8
0
100
AcDbSpline
 62
7
  6
BYLAYER
 70
0
 71
3
 72
13
 73
9
 74
0
 42
0.0000001
 43
0.0000001
 44
0.0000000001
 40
0.0
 40
0.0
 40
0.0
 40
0.0
 40
0.0944609376
 40
0.213861786
 40
0.3612687195
 40
0.5177786706
 40
0.794215942
 40
1.0
 40
1.0
 40
1.0
 40
1.0
 10
230.9058899231
 20
210.6616752332
 30
0.0
 10
230.8272860448
 20
210.6306224747
 30
0.0
 10
230.6325205963
 20
210.575481837
 30
0.0
 10
230.3238719125
 20
210.7289100523
 30
0.0
 10
230.0554863912
 20
210.9980225567
 30
0.0
 10
229.8167586246
 20
211.4739872094
 30
0.0
 10
229.7382228943
 20
212.0204426653
 30
0.0
 10
229.8358624692
 20
212.5297463724
 30
0.0
 10
229.9953104069
 20
212.6218094203
 30
0.0
  0
SPLINE
  5
517
100
AcDbEntity
  8
0
100
AcDbSpline
 62
7
  6
BYLAYER
 70
0
 71
3
 72
10
 73
6
 74
0
 42
0.0000001
 43
0.0000001
 44
0.0000000001
 40
0.0
 40
0.0
 40
0.0
 40
0.0
 40
0.4841466376
 40
0.7533942422
 40
1.0
 40
1.0
 40
1.0
 40
1.0
 10
93.6038872794
 20
508.504862288
 30
0.0
 10
93.6023190656
 20
508.6661055321
 30
0.0
 10
93.5916057508
 20
508.9203094516
 30
0.0
 10
93.4506875531
 20
509.2342161702
 30
0.0
 10
93.3085488853
 20
509.3399425078
 30
0.0
 10
93.2384551831
 20
509.3827564561
 30
0.0
  0
SPLINE
  5
518
100
AcDbEntity
  8
0
100
AcDbSpline
 62
7
  6
BYLAYER
 70
0
 71
3
 72
9
 73
5
 74
0
 42
0.0000001
 43
0.0000001
 44
0.0000000001
 40
0.0
 40
0.0
 40
0.0
 40
0.0
 40
0.2961791841
 40
1.0
 40
1.0
 40
1.0
 40
1.0
 10
91.0425480289
 20
507.0308142961
 30
0.0
 10
91.0225132521
 20
507.0413094269
 30
0.0
 10
90.9562138034
 20
507.0773487181
 30
0.0
 10
90.8666098179
 20
507.0807347371
 30
0.0
 10
90.8200667278
 20
507.0538574256
 30
0.0
  0
SPLINE
  5
519
100
AcDbEntity
  8
0
100
AcDbSpline
 62
7
  6
BYLAYER
 70
0
 71
3
 72
9
 73
5
 74
0
 42
0.0000001
 43
0.0000001
 44
0.0000000001
 40
0.0
 40
0.0
 40
0.0
 40
0.0
 40
0.5260081695
 40
1.0
 40
1.0
 40
1.0
 40
1.0
 10
91.3276016375
 20
506.6566945501
 30
0.0
 10
91.2923923335
 20
506.732356839
 30
0.0
 10
91.2241425419
 20
506.8778224275
 30
0.0
 10
91.1047769979
 20
506.9885920276
 30
0.0
 10
91.0425480289
 20
507.0308142961
 30
0.0
  0
SPLINE
  5
51A
100
AcDbEntity
  8
0
100
AcDbSpline
 62
7
  6
BYLAYER
 70
0
 71
3
 72
9
 73
5
 74
0
 42
0.0000001
 43
0.0000001
 44
0.0000000001
 40
0.0
 40
0.0
 40
0.0
 40
0.0
 40
0.472336622
 40
1.0
 40
1.0
 40
1.0
 40
1.0
 10
92.0568085416
 20
505.7716294685
 30
0.0
 10
91.8997302343
 20
505.8665093484
 30
0.0
 10
91.5793212524
 20
506.1089886941
 30
0.0
 10
91.4190261417
 20
506.4732045989
 30
0.0
 10
91.3276016375
 20
506.6566945501
 30
0.0
  0
SPLINE
  5
51B
100
AcDbEntity
  8
0
100
AcDbSpline
 62
7
  6
BYLAYER
 70
0
 71
3
 72
9
 73
5
 74
0
 42
0.0000001
 43
0.0000001
 44
0.0000000001
 40
0.0
 40
0.0
 40
0.0
 40
0.0
 40
0.2163425265
 40
1.0
 40
1.0
 40
1.0
 40
1.0
 10
102.5391961262
 20
501.2425105177
 30
0.0
 10
102.5107580263
 20
501.2260931259
 30
0.0
 10
102.3576147734
 20
501.1876642033
 30
0.0
 10
102.2082288229
 20
501.2626512594
 30
0.0
 10
102.1032909327
 20
501.3186503613
 30
0.0
  0
SPLINE
  5
51C
100
AcDbEntity
  8
0
100
AcDbSpline
 62
7
  6
BYLAYER
 70
0
 71
3
 72
9
 73
5
 74
0
 42
0.0000001
 43
0.0000001
 44
0.0000000001
 40
0.0
 40
0.0
 40
0.0
 40
0.0
 40
0.5554678204
 40
1.0
 40
1.0
 40
1.0
 40
1.0
 10
91.8885937664
 20
510.1553838071
 30
0.0
 10
91.7437802619
 20
510.2352495569
 30
0.0
 10
91.467367906
 20
510.3691574307
 30
0.0
 10
91.1477462663
 20
510.3207540421
 30
0.0
 10
91.0331290426
 20
510.2545799664
 30
0.0
  0
SPLINE
  5
51D
100
AcDbEntity
  8
0
100
AcDbSpline
 62
7
  6
BYLAYER
 70
0
 71
3
 72
8
 73
4
 74
0
 42
0.0000001
 43
0.0000001
 44
0.0000000001
 40
0.0
 40
0.0
 40
0.0
 40
0.0
 40
1.0
 40
1.0
 40
1.0
 40
1.0
 10
92.8895959718
 20
508.9641343378
 30
0.0
 10
92.8116263224
 20
509.126177243
 30
0.0
 10
92.7279608563
 20
509.286283317
 30
0.0
 10
92.6296172646
 20
509.4368346615
 30
0.0
  0
SPLINE
  5
51E
100
AcDbEntity
  8
0
100
AcDbSpline
 62
7
  6
BYLAYER
 70
0
 71
3
 72
9
 73
5
 74
0
 42
0.0000001
 43
0.0000001
 44
0.0000000001
 40
0.0
 40
0.0
 40
0.0
 40
0.0
 40
0.5269058444
 40
1.0
 40
1.0
 40
1.0
 40
1.0
 10
92.6296172646
 20
509.4368346615
 30
0.0
 10
92.5297106029
 20
509.5897788646
 30
0.0
 10
92.3147794774
 20
509.8678447654
 30
0.0
 10
92.0285727127
 20
510.0698818836
 30
0.0
 10
91.8885937664
 20
510.1553838071
 30
0.0
  0
SPLINE
  5
51F
100
AcDbEntity
  8
0
100
AcDbSpline
 62
7
  6
BYLAYER
 70
0
 71
3
 72
9
 73
5
 74
0
 42
0.0000001
 43
0.0000001
 44
0.0000000001
 40
0.0
 40
0.0
 40
0.0
 40
0.0
 40
0.5110294411
 40
1.0
 40
1.0
 40
1.0
 40
1.0
 10
92.1114990587
 20
507.2097589489
 30
0.0
 10
91.8605372747
 20
507.3595282361
 30
0.0
 10
91.4658076168
 20
507.8345594285
 30
0.0
 10
91.3810346008
 20
508.4165949107
 30
0.0
 10
91.3764916452
 20
508.6961971117
 30
0.0
  0
SPLINE
  5
520
100
AcDbEntity
  8
0
100
AcDbSpline
 62
7
  6
BYLAYER
 70
0
 71
3
 72
8
 73
4
 74
0
 42
0.0000001
 43
0.0000001
 44
0.0000000001
 40
0.0
 40
0.0
 40
0.0
 40
0.0
 40
1.0
 40
1.0
 40
1.0
 40
1.0
 10
101.0656951242
 20
504.5629609572
 30
0.0
 10
101.1030289418
 20
504.5845158478
 30
0.0
 10
101.1445091122
 20
504.5996883049
 30
0.0
 10
101.1866672664
 20
504.6086948175
 30
0.0
  0
SPLINE
  5
521
100
AcDbEntity
  8
0
100
AcDbSpline
 62
7
  6
BYLAYER
 70
0
 71
3
 72
9
 73
5
 74
0
 42
0.0000001
 43
0.0000001
 44
0.0000000001
 40
0.0
 40
0.0
 40
0.0
 40
0.0
 40
0.2288829845
 40
1.0
 40
1.0
 40
1.0
 40
1.0
 10
101.1866672664
 20
504.6086948175
 30
0.0
 10
101.227939637
 20
504.6175120945
 30
0.0
 10
101.4128544884
 20
504.6344500267
 30
0.0
 10
101.5979494319
 20
504.5855121109
 30
0.0
 10
101.7294926983
 20
504.5315373137
 30
0.0
  0
SPLINE
  5
522
100
AcDbEntity
  8
0
100
AcDbSpline
 62
7
  6
BYLAYER
 70
0
 71
3
 72
8
 73
4
 74
0
 42
0.0000001
 43
0.0000001
 44
0.0000000001
 40
0.0
 40
0.0
 40
0.0
 40
0.0
 40
1.0
 40
1.0
 40
1.0
 40
1.0
 10
101.7294926983
 20
504.5315373137
 30
0.0
 10
101.8317578928
 20
504.489575887
 30
0.0
 10
101.9297651613
 20
504.4375263048
 30
0.0
 10
102.0265026472
 20
504.3840399499
 30
0.0
  0
SPLINE
  5
523
100
AcDbEntity
  8
0
100
AcDbSpline
 62
7
  6
BYLAYER
 70
0
 71
3
 72
9
 73
5
 74
0
 42
0.0000001
 43
0.0000001
 44
0.0000000001
 40
0.0
 40
0.0
 40
0.0
 40
0.0
 40
0.2836271352
 40
1.0
 40
1.0
 40
1.0
 40
1.0
 10
91.3764916452
 20
508.6961971117
 30
0.0
 10
91.3776870199
 20
508.7692691924
 30
0.0
 10
91.3831707369
 20
509.0187182308
 30
0.0
 10
91.4644670492
 20
509.3231796071
 30
0.0
 10
91.62432273
 20
509.4154752881
 30
0.0
  0
SPLINE
  5
524
100
AcDbEntity
  8
0
100
AcDbSpline
 62
7
  6
BYLAYER
 70
0
 71
3
 72
9
 73
5
 74
0
 42
0.0000001
 43
0.0000001
 44
0.0000000001
 40
0.0
 40
0.0
 40
0.0
 40
0.0
 40
0.7350312255
 40
1.0
 40
1.0
 40
1.0
 40
1.0
 10
232.5392422872
 20
211.6163838057
 30
0.0
 10
232.6352011351
 20
211.6717854104
 30
0.0
 10
232.7897771734
 20
211.710333747
 30
0.0
 10
232.9402580824
 20
211.7013904762
 30
0.0
 10
232.9798806208
 20
211.6963394187
 30
0.0
  0
SPLINE
  5
525
100
AcDbEntity
  8
0
100
AcDbSpline
 62
7
  6
BYLAYER
 70
0
 71
3
 72
9
 73
5
 74
0
 42
0.0000001
 43
0.0000001
 44
0.0000000001
 40
0.0
 40
0.0
 40
0.0
 40
0.0
 40
0.2296852805
 40
1.0
 40
1.0
 40
1.0
 40
1.0
 10
232.9798806208
 20
211.6963394187
 30
0.0
 10
233.0255011016
 20
211.690523747
 30
0.0
 10
233.2223545235
 20
211.6491878102
 30
0.0
 10
233.4033511266
 20
211.5578723966
 30
0.0
 10
233.5416818486
 20
211.48964916
 30
0.0
  0
SPLINE
  5
526
100
AcDbEntity
  8
0
100
AcDbSpline
 62
7
  6
BYLAYER
 70
0
 71
3
 72
9
 73
5
 74
0
 42
0.0000001
 43
0.0000001
 44
0.0000000001
 40
0.0
 40
0.0
 40
0.0
 40
0.0
 40
0.2214393753
 40
1.0
 40
1.0
 40
1.0
 40
1.0
 10
103.1308162279
 20
502.6210513165
 30
0.0
 10
103.1446776645
 20
502.62905514
 30
0.0
 10
103.2021807973
 20
502.6765163291
 30
0.0
 10
103.2107701938
 20
502.7580041745
 30
0.0
 10
103.213674173
 20
502.8142057759
 30
0.0
  0
SPLINE
  5
527
100
AcDbEntity
  8
0
100
AcDbSpline
 62
7
  6
BYLAYER
 70
0
 71
3
 72
8
 73
4
 74
0
 42
0.0000001
 43
0.0000001
 44
0.0000000001
 40
0.0
 40
0.0
 40
0.0
 40
0.0
 40
1.0
 40
1.0
 40
1.0
 40
1.0
 10
222.4689332931
 20
214.8869253126
 30
0.0
 10
222.5594570701
 20
214.7119498826
 30
0.0
 10
222.6464895386
 20
214.5321836765
 30
0.0
 10
222.6975022573
 20
214.3418979497
 30
0.0
  0
SPLINE
  5
528
100
AcDbEntity
  8
0
100
AcDbSpline
 62
7
  6
BYLAYER
 70
0
 71
3
 72
9
 73
5
 74
0
 42
0.0000001
 43
0.0000001
 44
0.0000000001
 40
0.0
 40
0.0
 40
0.0
 40
0.0
 40
0.2627801649
 40
1.0
 40
1.0
 40
1.0
 40
1.0
 10
222.6975022573
 20
214.3418979497
 30
0.0
 10
222.709509482
 20
214.2971090512
 30
0.0
 10
222.74945601
 20
214.1252645639
 30
0.0
 10
222.7722842742
 20
213.9487883586
 30
0.0
 10
222.7734241536
 20
213.8187027979
 30
0.0
  0
SPLINE
  5
529
100
AcDbEntity
  8
0
100
AcDbSpline
 62
7
  6
BYLAYER
 70
0
 71
3
 72
8
 73
4
 74
0
 42
0.0000001
 43
0.0000001
 44
0.0000000001
 40
0.0
 40
0.0
 40
0.0
 40
0.0
 40
1.0
 40
1.0
 40
1.0
 40
1.0
 10
222.7734241536
 20
213.8187027979
 30
0.0
 10
222.7747695599
 20
213.6651620463
 30
0.0
 10
222.7554925115
 20
213.5117154063
 30
0.0
 10
222.7327537304
 20
213.3598617914
 30
0.0
  0
SPLINE
  5
52A
100
AcDbEntity
  8
0
100
AcDbSpline
 62
7
  6
BYLAYER
 70
0
 71
3
 72
8
 73
4
 74
0
 42
0.0000001
 43
0.0000001
 44
0.0000000001
 40
0.0
 40
0.0
 40
0.0
 40
0.0
 40
1.0
 40
1.0
 40
1.0
 40
1.0
 10
227.1687495689
 20
210.268187882
 30
0.0
 10
227.1447831743
 20
210.2543588031
 30
0.0
 10
227.1244320844
 20
210.233388797
 30
0.0
 10
227.1093804884
 20
210.2101706802
 30
0.0
  0
SPLINE
  5
52B
100
AcDbEntity
  8
0
100
AcDbSpline
 62
7
  6
BYLAYER
 70
0
 71
3
 72
8
 73
4
 74
0
 42
0.0000001
 43
0.0000001
 44
0.0000000001
 40
0.0
 40
0.0
 40
0.0
 40
0.0
 40
1.0
 40
1.0
 40
1.0
 40
1.0
 10
227.1093804884
 20
210.2101706802
 30
0.0
 10
227.0752392279
 20
210.1575054494
 30
0.0
 10
227.0600922147
 20
210.0940547718
 30
0.0
 10
227.0457962528
 20
210.0329411261
 30
0.0
  0
SPLINE
  5
52C
100
AcDbEntity
  8
0
100
AcDbSpline
 62
7
  6
BYLAYER
 70
0
 71
3
 72
9
 73
5
 74
0
 42
0.0000001
 43
0.0000001
 44
0.0000000001
 40
0.0
 40
0.0
 40
0.0
 40
0.0
 40
0.7405359702
 40
1.0
 40
1.0
 40
1.0
 40
1.0
 10
219.7847109245
 20
215.8828596444
 30
0.0
 10
219.9558340616
 20
215.9492680165
 30
0.0
 10
220.1898127746
 20
216.0408519263
 30
0.0
 10
220.4375700218
 20
216.0657526371
 30
0.0
 10
220.5018319175
 20
216.0683284407
 30
0.0
  0
SPLINE
  5
52D
100
AcDbEntity
  8
0
100
AcDbSpline
 62
7
  6
BYLAYER
 70
0
 71
3
 72
9
 73
5
 74
0
 42
0.0000001
 43
0.0000001
 44
0.0000000001
 40
0.0
 40
0.0
 40
0.0
 40
0.0
 40
0.2373534173
 40
1.0
 40
1.0
 40
1.0
 40
1.0
 10
220.5018319175
 20
216.0683284407
 30
0.0
 10
220.5550168731
 20
216.0704602483
 30
0.0
 10
220.7795043052
 20
216.0681143829
 30
0.0
 10
221.0026680562
 20
216.0213705152
 30
0.0
 10
221.1647206506
 20
215.966696327
 30
0.0
  0
SPLINE
  5
52E
100
AcDbEntity
  8
0
100
AcDbSpline
 62
7
  6
BYLAYER
 70
0
 71
3
 72
9
 73
5
 74
0
 42
0.0000001
 43
0.0000001
 44
0.0000000001
 40
0.0
 40
0.0
 40
0.0
 40
0.0
 40
0.2364959061
 40
1.0
 40
1.0
 40
1.0
 40
1.0
 10
221.2839009511
 20
215.9226502117
 30
0.0
 10
221.3276469836
 20
215.9050788075
 30
0.0
 10
221.5102303612
 20
215.8250923066
 30
0.0
 10
221.6842194918
 20
215.7243890907
 30
0.0
 10
221.8069902938
 20
215.6344379336
 30
0.0
  0
SPLINE
  5
52F
100
AcDbEntity
  8
0
100
AcDbSpline
 62
7
  6
BYLAYER
 70
0
 71
3
 72
9
 73
5
 74
0
 42
0.0000001
 43
0.0000001
 44
0.0000000001
 40
0.0
 40
0.0
 40
0.0
 40
0.0
 40
0.2357432677
 40
1.0
 40
1.0
 40
1.0
 40
1.0
 10
221.8069902938
 20
215.6344379336
 30
0.0
 10
221.8630669388
 20
215.5933519505
 30
0.0
 10
222.0927131784
 20
215.4071146039
 30
0.0
 10
222.2735222179
 20
215.1688763919
 30
0.0
 10
222.4020680851
 20
214.9837635394
 30
0.0
  0
SPLINE
  5
530
100
AcDbEntity
  8
0
100
AcDbSpline
 62
7
  6
BYLAYER
 70
0
 71
3
 72
9
 73
5
 74
0
 42
0.0000001
 43
0.0000001
 44
0.0000000001
 40
0.0
 40
0.0
 40
0.0
 40
0.0
 40
0.2086875529
 40
1.0
 40
1.0
 40
1.0
 40
1.0
 10
226.9566439016
 20
210.5843416545
 30
0.0
 10
226.9948768025
 20
210.6064154609
 30
0.0
 10
227.2061480862
 20
210.6645578759
 30
0.0
 10
227.4216839072
 20
210.5520788271
 30
0.0
 10
227.5548475994
 20
210.4506364879
 30
0.0
  0
SPLINE
  5
531
100
AcDbEntity
  8
0
100
AcDbSpline
 62
7
  6
BYLAYER
 70
0
 71
3
 72
8
 73
4
 74
0
 42
0.0000001
 43
0.0000001
 44
0.0000000001
 40
0.0
 40
0.0
 40
0.0
 40
0.0
 40
1.0
 40
1.0
 40
1.0
 40
1.0
 10
227.6358526067
 20
210.3829772415
 30
0.0
 10
227.8355735575
 20
210.2007807729
 30
0.0
 10
227.9737349532
 20
209.9409804302
 30
0.0
 10
228.0371098653
 20
209.678173216
 30
0.0
  0
SPLINE
  5
532
100
AcDbEntity
  8
0
100
AcDbSpline
 62
7
  6
BYLAYER
 70
0
 71
3
 72
8
 73
4
 74
0
 42
0.0000001
 43
0.0000001
 44
0.0000000001
 40
0.0
 40
0.0
 40
0.0
 40
0.0
 40
1.0
 40
1.0
 40
1.0
 40
1.0
 10
228.0555163727
 20
209.5918591849
 30
0.0
 10
228.0792958722
 20
209.4639532556
 30
0.0
 10
228.0854854377
 20
209.3330985182
 30
0.0
 10
228.0897542041
 20
209.2030709481
 30
0.0
  0
SPLINE
  5
533
100
AcDbEntity
  8
0
100
AcDbSpline
 62
7
  6
BYLAYER
 70
0
 71
3
 72
10
 73
6
 74
0
 42
0.0000001
 43
0.0000001
 44
0.0000000001
 40
0.0
 40
0.0
 40
0.0
 40
0.0
 40
0.458437385
 40
0.7216775539
 40
1.0
 40
1.0
 40
1.0
 40
1.0
 10
222.6620433467
 20
213.3190373761
 30
0.0
 10
222.6977837981
 20
213.5577184527
 30
0.0
 10
222.7206277747
 20
213.9439732212
 30
0.0
 10
222.5936784506
 20
214.4598902798
 30
0.0
 10
222.465549542
 20
214.7159637455
 30
0.0
 10
222.3982229094
 20
214.8461008972
 30
0.0
  0
SPLINE
  5
534
100
AcDbEntity
  8
0
100
AcDbSpline
 62
7
  6
BYLAYER
 70
0
 71
3
 72
9
 73
5
 74
0
 42
0.0000001
 43
0.0000001
 44
0.0000000001
 40
0.0
 40
0.0
 40
0.0
 40
0.0
 40
0.2906207678
 40
1.0
 40
1.0
 40
1.0
 40
1.0
 10
92.1822094424
 20
507.2505833643
 30
0.0
 10
92.2218387788
 20
507.2297111589
 30
0.0
 10
92.3568782177
 20
507.1587431571
 30
0.0
 10
92.5283947604
 20
507.1364149121
 30
0.0
 10
92.6308934925
 20
507.1744496146
 30
0.0
  0
SPLINE
  5
535
100
AcDbEntity
  8
0
100
AcDbSpline
 62
7
  6
BYLAYER
 70
0
 71
3
 72
9
 73
5
 74
0
 42
0.0000001
 43
0.0000001
 44
0.0000000001
 40
0.0
 40
0.0
 40
0.0
 40
0.0
 40
0.4889705589
 40
1.0
 40
1.0
 40
1.0
 40
1.0
 10
91.4472020289
 20
508.7370215271
 30
0.0
 10
91.4517449845
 20
508.457419326
 30
0.0
 10
91.5365180006
 20
507.8753838439
 30
0.0
 10
91.9312476585
 20
507.4003526515
 30
0.0
 10
92.1822094424
 20
507.2505833643
 30
0.0
  0
SPLINE
  5
536
100
AcDbEntity
  8
0
100
AcDbSpline
 62
7
  6
BYLAYER
 70
0
 71
3
 72
9
 73
5
 74
0
 42
0.0000001
 43
0.0000001
 44
0.0000000001
 40
0.0
 40
0.0
 40
0.0
 40
0.0
 40
0.4555735489
 40
1.0
 40
1.0
 40
1.0
 40
1.0
 10
395.4239975007
 20
102.7313672737
 30
0.0
 10
395.550504312
 20
102.8044055588
 30
0.0
 10
395.7744190989
 20
103.0620070933
 30
0.0
 10
395.8409055672
 20
103.3856193877
 30
0.0
 10
395.85335023
 20
103.5597427109
 30
0.0
  0
SPLINE
  5
537
100
AcDbEntity
  8
0
100
AcDbSpline
 62
7
  6
BYLAYER
 70
0
 71
3
 72
8
 73
4
 74
0
 42
0.0000001
 43
0.0000001
 44
0.0000000001
 40
0.0
 40
0.0
 40
0.0
 40
0.0
 40
1.0
 40
1.0
 40
1.0
 40
1.0
 10
222.4208705089
 20
212.7284045273
 30
0.0
 10
222.4759670456
 20
212.8151637716
 30
0.0
 10
222.5232905044
 20
212.9071977919
 30
0.0
 10
222.5632612659
 20
213.0018821784
 30
0.0
  0
SPLINE
  5
538
100
AcDbEntity
  8
0
100
AcDbSpline
 62
7
  6
BYLAYER
 70
0
 71
3
 72
8
 73
4
 74
0
 42
0.0000001
 43
0.0000001
 44
0.0000000001
 40
0.0
 40
0.0
 40
0.0
 40
0.0
 40
1.0
 40
1.0
 40
1.0
 40
1.0
 10
88.0138534444
 20
510.7437823666
 30
0.0
 10
87.8911559281
 20
510.7808403526
 30
0.0
 10
87.7563879704
 20
510.8068344291
 30
0.0
 10
87.6310506722
 20
510.780028898
 30
0.0
  0
SPLINE
  5
539
100
AcDbEntity
  8
0
100
AcDbSpline
 62
7
  6
BYLAYER
 70
0
 71
3
 72
8
 73
4
 74
0
 42
0.0000001
 43
0.0000001
 44
0.0000000001
 40
0.0
 40
0.0
 40
0.0
 40
0.0
 40
1.0
 40
1.0
 40
1.0
 40
1.0
 10
87.6310506722
 20
510.780028898
 30
0.0
 10
87.5927934127
 20
510.7718469268
 30
0.0
 10
87.5552246169
 20
510.7578840052
 30
0.0
 10
87.521343254
 20
510.7383234376
 30
0.0
  0
SPLINE
  5
53A
100
AcDbEntity
  8
0
100
AcDbSpline
 62
7
  6
BYLAYER
 70
0
 71
3
 72
9
 73
5
 74
0
 42
0.0000001
 43
0.0000001
 44
0.0000000001
 40
0.0
 40
0.0
 40
0.0
 40
0.0
 40
0.5088202198
 40
1.0
 40
1.0
 40
1.0
 40
1.0
 10
89.3081956991
 20
510.359152316
 30
0.0
 10
89.0852395871
 20
510.4118167688
 30
0.0
 10
88.6494990797
 20
510.5272612936
 30
0.0
 10
88.2248757678
 20
510.6776269562
 30
0.0
 10
88.0138534444
 20
510.7437823666
 30
0.0
  0
SPLINE
  5
53B
100
AcDbEntity
  8
0
100
AcDbSpline
 62
7
  6
BYLAYER
 70
0
 71
3
 72
9
 73
5
 74
0
 42
0.0000001
 43
0.0000001
 44
0.0000000001
 40
0.0
 40
0.0
 40
0.0
 40
0.0
 40
0.5027667319
 40
1.0
 40
1.0
 40
1.0
 40
1.0
 10
221.8139630361
 20
212.1536239576
 30
0.0
 10
221.8878976666
 20
212.1984649268
 30
0.0
 10
222.0359500262
 20
212.2879601146
 30
0.0
 10
222.1586193358
 20
212.4100439737
 30
0.0
 10
222.2186081734
 20
212.4709923302
 30
0.0
  0
SPLINE
  5
53C
100
AcDbEntity
  8
0
100
AcDbSpline
 62
7
  6
BYLAYER
 70
0
 71
3
 72
9
 73
5
 74
0
 42
0.0000001
 43
0.0000001
 44
0.0000000001
 40
0.0
 40
0.0
 40
0.0
 40
0.0
 40
0.5519281318
 40
1.0
 40
1.0
 40
1.0
 40
1.0
 10
88.752175434
 20
511.9661548097
 30
0.0
 10
88.5641734699
 20
512.0709842916
 30
0.0
 10
88.2267764659
 20
512.2523521547
 30
0.0
 10
87.7889379292
 20
512.2863997145
 30
0.0
 10
87.6376022082
 20
512.1990227497
 30
0.0
  0
SPLINE
  5
53D
100
AcDbEntity
  8
0
100
AcDbSpline
 62
7
  6
BYLAYER
 70
0
 71
3
 72
10
 73
6
 74
0
 42
0.0000001
 43
0.0000001
 44
0.0000000001
 40
0.0
 40
0.0
 40
0.0
 40
0.0
 40
0.2364994912
 40
0.5115390447
 40
1.0
 40
1.0
 40
1.0
 40
1.0
 10
90.0564643011
 20
509.8663388328
 30
0.0
 10
90.0553582889
 20
510.0720097739
 30
0.0
 10
90.02837335
 20
510.5187284595
 30
0.0
 10
89.6974276066
 20
511.3526716791
 30
0.0
 10
89.1190588928
 20
511.7520359807
 30
0.0
 10
88.752175434
 20
511.9661548097
 30
0.0
  0
SPLINE
  5
53E
100
AcDbEntity
  8
0
100
AcDbSpline
 62
7
  6
BYLAYER
 70
0
 71
3
 72
8
 73
4
 74
0
 42
0.0000001
 43
0.0000001
 44
0.0000000001
 40
0.0
 40
0.0
 40
0.0
 40
0.0
 40
1.0
 40
1.0
 40
1.0
 40
1.0
 10
90.1931877145
 20
507.9364496341
 30
0.0
 10
90.1839138773
 20
508.0828500541
 30
0.0
 10
90.1420463478
 20
508.2254086582
 30
0.0
 10
90.1113531338
 20
508.3688555601
 30
0.0
  0
SPLINE
  5
53F
100
AcDbEntity
  8
0
100
AcDbSpline
 62
7
  6
BYLAYER
 70
0
 71
3
 72
9
 73
5
 74
0
 42
0.0000001
 43
0.0000001
 44
0.0000000001
 40
0.0
 40
0.0
 40
0.0
 40
0.0
 40
0.2646121967
 40
1.0
 40
1.0
 40
1.0
 40
1.0
 10
90.1113531338
 20
508.3688555601
 30
0.0
 10
90.1019686186
 20
508.412714754
 30
0.0
 10
90.0677606519
 20
508.5787389266
 30
0.0
 10
90.0525642596
 20
508.74855846
 30
0.0
 10
90.0506609112
 20
508.8731926862
 30
0.0
  0
SPLINE
  5
540
100
AcDbEntity
  8
0
100
AcDbSpline
 62
7
  6
BYLAYER
 70
0
 71
3
 72
9
 73
5
 74
0
 42
0.0000001
 43
0.0000001
 44
0.0000000001
 40
0.0
 40
0.0
 40
0.0
 40
0.0
 40
0.296528201
 40
1.0
 40
1.0
 40
1.0
 40
1.0
 10
88.0353981931
 20
509.88454147
 30
0.0
 10
88.0361650755
 20
509.9066324259
 30
0.0
 10
88.0369098712
 20
509.979833194
 30
0.0
 10
88.0731484953
 20
510.0606328418
 30
0.0
 10
88.1185622444
 20
510.0868524826
 30
0.0
  0
SPLINE
  5
541
100
AcDbEntity
  8
0
100
AcDbSpline
 62
7
  6
BYLAYER
 70
0
 71
3
 72
9
 73
5
 74
0
 42
0.0000001
 43
0.0000001
 44
0.0000000001
 40
0.0
 40
0.0
 40
0.0
 40
0.0
 40
0.4924806627
 40
1.0
 40
1.0
 40
1.0
 40
1.0
 10
88.5085540373
 20
509.1673978059
 30
0.0
 10
88.3846937564
 20
509.243249573
 30
0.0
 10
88.1563350807
 20
509.4424364184
 30
0.0
 10
88.0427693306
 20
509.7350472347
 30
0.0
 10
88.0353981931
 20
509.88454147
 30
0.0
  0
SPLINE
  5
542
100
AcDbEntity
  8
0
100
AcDbSpline
 62
7
  6
BYLAYER
 70
0
 71
3
 72
8
 73
4
 74
0
 42
0.0000001
 43
0.0000001
 44
0.0000000001
 40
0.0
 40
0.0
 40
0.0
 40
0.0
 40
1.0
 40
1.0
 40
1.0
 40
1.0
 10
204.3527092576
 20
231.998673012
 30
0.0
 10
204.4576304691
 20
232.0592489156
 30
0.0
 10
204.5718340549
 20
232.1057327189
 30
0.0
 10
204.6890051319
 20
232.1365359559
 30
0.0
  0
SPLINE
  5
543
100
AcDbEntity
  8
0
100
AcDbSpline
 62
7
  6
BYLAYER
 70
0
 71
3
 72
9
 73
5
 74
0
 42
0.0000001
 43
0.0000001
 44
0.0000000001
 40
0.0
 40
0.0
 40
0.0
 40
0.0
 40
0.2215001302
 40
1.0
 40
1.0
 40
1.0
 40
1.0
 10
204.6890051319
 20
232.1365359559
 30
0.0
 10
204.8120587287
 20
232.1688856551
 30
0.0
 10
205.3886072025
 20
232.2394375161
 30
0.0
 10
205.9652384729
 20
232.02443677
 30
0.0
 10
206.3525305989
 20
231.8008698343
 30
0.0
  0
SPLINE
  5
544
100
AcDbEntity
  8
0
100
AcDbSpline
 62
7
  6
BYLAYER
 70
0
 71
3
 72
9
 73
5
 74
0
 42
0.0000001
 43
0.0000001
 44
0.0000000001
 40
0.0
 40
0.0
 40
0.0
 40
0.0
 40
0.7359148026
 40
1.0
 40
1.0
 40
1.0
 40
1.0
 10
395.8625459014
 20
102.4616774654
 30
0.0
 10
395.7711815706
 20
102.4089285741
 30
0.0
 10
395.6270780614
 20
102.3679558103
 30
0.0
 10
395.4837239991
 20
102.3672380357
 30
0.0
 10
395.4459220595
 20
102.3693042844
 30
0.0
  0
SPLINE
  5
545
100
AcDbEntity
  8
0
100
AcDbSpline
 62
7
  6
BYLAYER
 70
0
 71
3
 72
9
 73
5
 74
0
 42
0.0000001
 43
0.0000001
 44
0.0000000001
 40
0.0
 40
0.0
 40
0.0
 40
0.0
 40
0.2290573435
 40
1.0
 40
1.0
 40
1.0
 40
1.0
 10
395.4459220595
 20
102.3693042844
 30
0.0
 10
395.3988652392
 20
102.3718764034
 30
0.0
 10
395.1942898873
 20
102.3990994485
 30
0.0
 10
394.9999387271
 20
102.4813815685
 30
0.0
 10
394.8625720711
 20
102.5606884501
 30
0.0
  0
SPLINE
  5
546
100
AcDbEntity
  8
0
100
AcDbSpline
 62
7
  6
BYLAYER
 70
0
 71
3
 72
8
 73
4
 74
0
 42
0.0000001
 43
0.0000001
 44
0.0000000001
 40
0.0
 40
0.0
 40
0.0
 40
0.0
 40
1.0
 40
1.0
 40
1.0
 40
1.0
 10
222.3982229094
 20
214.8461008972
 30
0.0
 10
222.3699534936
 20
214.887110716
 30
0.0
 10
222.3417411622
 20
214.9281608456
 30
0.0
 10
222.3132136677
 20
214.9689915591
 30
0.0
  0
SPLINE
  5
547
100
AcDbEntity
  8
0
100
AcDbSpline
 62
7
  6
BYLAYER
 70
0
 71
3
 72
9
 73
5
 74
0
 42
0.0000001
 43
0.0000001
 44
0.0000000001
 40
0.0
 40
0.0
 40
0.0
 40
0.0
 40
0.5293791003
 40
1.0
 40
1.0
 40
1.0
 40
1.0
 10
222.3132136677
 20
214.9689915591
 30
0.0
 10
222.1865618944
 20
215.1502651818
 30
0.0
 10
221.9263127625
 20
215.4843374184
 30
0.0
 10
221.5686262551
 20
215.7136118686
 30
0.0
 10
221.3926047817
 20
215.8011575217
 30
0.0
  0
SPLINE
  5
548
100
AcDbEntity
  8
0
100
AcDbSpline
 62
7
  6
BYLAYER
 70
0
 71
3
 72
8
 73
4
 74
0
 42
0.0000001
 43
0.0000001
 44
0.0000000001
 40
0.0
 40
0.0
 40
0.0
 40
0.0
 40
1.0
 40
1.0
 40
1.0
 40
1.0
 10
221.3926047817
 20
215.8011575217
 30
0.0
 10
221.2967310286
 20
215.8488410809
 30
0.0
 10
221.197673933
 20
215.890772697
 30
0.0
 10
221.0962531079
 20
215.925113847
 30
0.0
  0
SPLINE
  5
549
100
AcDbEntity
  8
0
100
AcDbSpline
 62
7
  6
BYLAYER
 70
0
 71
3
 72
9
 73
5
 74
0
 42
0.0000001
 43
0.0000001
 44
0.0000000001
 40
0.0
 40
0.0
 40
0.0
 40
0.0
 40
0.2648523212
 40
1.0
 40
1.0
 40
1.0
 40
1.0
 10
221.0962531079
 20
215.925113847
 30
0.0
 10
221.039017927
 20
215.9444937123
 30
0.0
 10
220.8200695622
 20
216.0086288467
 30
0.0
 10
220.5891915739
 20
216.0348265733
 30
0.0
 10
220.4216427649
 20
216.0270953975
 30
0.0
  0
SPLINE
  5
54A
100
AcDbEntity
  8
0
100
AcDbSpline
 62
7
  6
BYLAYER
 70
0
 71
3
 72
9
 73
5
 74
0
 42
0.0000001
 43
0.0000001
 44
0.0000000001
 40
0.0
 40
0.0
 40
0.0
 40
0.0
 40
0.2591759875
 40
1.0
 40
1.0
 40
1.0
 40
1.0
 10
220.4216427649
 20
216.0270953975
 30
0.0
 10
220.3582820979
 20
216.0241717572
 30
0.0
 10
220.1138478042
 20
215.9981389704
 30
0.0
 10
219.8830210798
 20
215.9076276383
 30
0.0
 10
219.7140005407
 20
215.842035229
 30
0.0
  0
SPLINE
  5
54B
100
AcDbEntity
  8
0
100
AcDbSpline
 62
7
  6
BYLAYER
 70
0
 71
3
 72
8
 73
4
 74
0
 42
0.0000001
 43
0.0000001
 44
0.0000000001
 40
0.0
 40
0.0
 40
0.0
 40
0.0
 40
1.0
 40
1.0
 40
1.0
 40
1.0
 10
222.2893185571
 20
212.5118167456
 30
0.0
 10
222.2085124422
 20
212.4297181403
 30
0.0
 10
222.1237048124
 20
212.3498960655
 30
0.0
 10
222.0283341212
 20
212.2852877034
 30
0.0
  0
SPLINE
  5
54C
100
AcDbEntity
  8
0
100
AcDbSpline
 62
7
  6
BYLAYER
 70
0
 71
3
 72
8
 73
4
 74
0
 42
0.0000001
 43
0.0000001
 44
0.0000000001
 40
0.0
 40
0.0
 40
0.0
 40
0.0
 40
1.0
 40
1.0
 40
1.0
 40
1.0
 10
222.0283341212
 20
212.2852877034
 30
0.0
 10
221.9814272496
 20
212.2535108954
 30
0.0
 10
221.9331170712
 20
212.2238291958
 30
0.0
 10
221.8846734198
 20
212.1944483729
 30
0.0
  0
SPLINE
  5
54D
100
AcDbEntity
  8
0
100
AcDbSpline
 62
7
  6
BYLAYER
 70
0
 71
3
 72
9
 73
5
 74
0
 42
0.0000001
 43
0.0000001
 44
0.0000000001
 40
0.0
 40
0.0
 40
0.0
 40
0.0
 40
0.2254572171
 40
1.0
 40
1.0
 40
1.0
 40
1.0
 10
88.1061085768
 20
509.9253658854
 30
0.0
 10
88.1082792729
 20
509.8813419402
 30
0.0
 10
88.1296289724
 20
509.6859288583
 30
0.0
 10
88.2406877556
 20
509.5086520587
 30
0.0
 10
88.342934193
 20
509.39695967
 30
0.0
  0
SPLINE
  5
54E
100
AcDbEntity
  8
0
100
AcDbSpline
 62
7
  6
BYLAYER
 70
0
 71
3
 72
9
 73
5
 74
0
 42
0.0000001
 43
0.0000001
 44
0.0000000001
 40
0.0
 40
0.0
 40
0.0
 40
0.0
 40
0.2697717125
 40
1.0
 40
1.0
 40
1.0
 40
1.0
 10
88.342934193
 20
509.39695967
 30
0.0
 10
88.3613426107
 20
509.3768506062
 30
0.0
 10
88.4324066666
 20
509.3047636155
 30
0.0
 10
88.5163323863
 20
509.2467616627
 30
0.0
 10
88.579264421
 20
509.2082222212
 30
0.0
  0
SPLINE
  5
54F
100
AcDbEntity
  8
0
100
AcDbSpline
 62
7
  6
BYLAYER
 70
0
 71
3
 72
8
 73
4
 74
0
 42
0.0000001
 43
0.0000001
 44
0.0000000001
 40
0.0
 40
0.0
 40
0.0
 40
0.0
 40
1.0
 40
1.0
 40
1.0
 40
1.0
 10
74.7766856881
 20
549.9858069676
 30
0.0
 10
74.9103718577
 20
550.0638028977
 30
0.0
 10
75.0569275104
 20
550.1222904043
 30
0.0
 10
75.2069398753
 20
550.1603908955
 30
0.0
  0
SPLINE
  5
550
100
AcDbEntity
  8
0
100
AcDbSpline
 62
7
  6
BYLAYER
 70
0
 71
3
 72
9
 73
5
 74
0
 42
0.0000001
 43
0.0000001
 44
0.0000000001
 40
0.0
 40
0.0
 40
0.0
 40
0.0
 40
0.2250775717
 40
1.0
 40
1.0
 40
1.0
 40
1.0
 10
75.2069398753
 20
550.1603908955
 30
0.0
 10
75.3448365512
 20
550.1954142156
 30
0.0
 10
75.9768015095
 20
550.2776850612
 30
0.0
 10
76.6180427639
 20
550.0848309742
 30
0.0
 10
77.0565155706
 20
549.8664628623
 30
0.0
  0
SPLINE
  5
551
100
AcDbEntity
  8
0
100
AcDbSpline
 62
7
  6
BYLAYER
 70
0
 71
3
 72
9
 73
5
 74
0
 42
0.0000001
 43
0.0000001
 44
0.0000000001
 40
0.0
 40
0.0
 40
0.0
 40
0.0
 40
0.2890644033
 40
1.0
 40
1.0
 40
1.0
 40
1.0
 10
88.579264421
 20
509.2082222212
 30
0.0
 10
88.6255681474
 20
509.1829983499
 30
0.0
 10
88.7856488948
 20
509.0987912638
 30
0.0
 10
88.9789123138
 20
509.0557768347
 30
0.0
 10
89.1059168658
 20
509.0819927463
 30
0.0
  0
SPLINE
  5
552
100
AcDbEntity
  8
0
100
AcDbSpline
 62
7
  6
BYLAYER
 70
0
 71
3
 72
8
 73
4
 74
0
 42
0.0000001
 43
0.0000001
 44
0.0000000001
 40
0.0
 40
0.0
 40
0.0
 40
0.0
 40
1.0
 40
1.0
 40
1.0
 40
1.0
 10
89.1059168658
 20
509.0819927463
 30
0.0
 10
89.123501945
 20
509.0856226074
 30
0.0
 10
89.1409263476
 20
509.0904590162
 30
0.0
 10
89.1576608098
 20
509.0969681388
 30
0.0
  0
SPLINE
  5
553
100
AcDbEntity
  8
0
100
AcDbSpline
 62
7
  6
BYLAYER
 70
0
 71
3
 72
9
 73
5
 74
0
 42
0.0000001
 43
0.0000001
 44
0.0000000001
 40
0.0
 40
0.0
 40
0.0
 40
0.0
 40
0.5684688169
 40
1.0
 40
1.0
 40
1.0
 40
1.0
 10
221.5786930298
 20
214.2752816068
 30
0.0
 10
221.560922208
 20
214.2851145134
 30
0.0
 10
221.5296145921
 20
214.309022628
 30
0.0
 10
221.4920946826
 20
214.2970522542
 30
0.0
 10
221.4782686719
 20
214.290230392
 30
0.0
  0
SPLINE
  5
554
100
AcDbEntity
  8
0
100
AcDbSpline
 62
7
  6
BYLAYER
 70
0
 71
3
 72
10
 73
6
 74
0
 42
0.0000001
 43
0.0000001
 44
0.0000000001
 40
0.0
 40
0.0
 40
0.0
 40
0.0
 40
0.2269424894
 40
0.4882290455
 40
1.0
 40
1.0
 40
1.0
 40
1.0
 10
103.3620014864
 20
501.1583984771
 30
0.0
 10
103.3584520349
 20
501.2570556728
 30
0.0
 10
103.3304278424
 20
501.4703655444
 30
0.0
 10
103.147894556
 20
501.8702225695
 30
0.0
 10
102.9360555945
 20
502.1362736398
 30
0.0
 10
102.7837284771
 20
502.2986230255
 30
0.0
  0
SPLINE
  5
555
100
AcDbEntity
  8
0
100
AcDbSpline
 62
7
  6
BYLAYER
 70
0
 71
3
 72
9
 73
5
 74
0
 42
0.0000001
 43
0.0000001
 44
0.0000000001
 40
0.0
 40
0.0
 40
0.0
 40
0.0
 40
0.2600157789
 40
1.0
 40
1.0
 40
1.0
 40
1.0
 10
102.7837284771
 20
502.2986230255
 30
0.0
 10
102.7468145007
 20
502.3379657341
 30
0.0
 10
102.6021468078
 20
502.4867729538
 30
0.0
 10
102.4473573158
 20
502.6253213473
 30
0.0
 10
102.3311680902
 20
502.7256851425
 30
0.0
  0
SPLINE
  5
556
100
AcDbEntity
  8
0
100
AcDbSpline
 62
7
  6
BYLAYER
 70
0
 71
3
 72
9
 73
5
 74
0
 42
0.0000001
 43
0.0000001
 44
0.0000000001
 40
0.0
 40
0.0
 40
0.0
 40
0.0
 40
0.2982979778
 40
1.0
 40
1.0
 40
1.0
 40
1.0
 10
101.0616851618
 20
502.6280688188
 30
0.0
 10
101.039745764
 20
502.6395104932
 30
0.0
 10
100.9681567646
 20
502.6786661798
 30
0.0
 10
100.8705293005
 20
502.6866486312
 30
0.0
 10
100.8201202197
 20
502.6575480593
 30
0.0
  0
SPLINE
  5
557
100
AcDbEntity
  8
0
100
AcDbSpline
 62
7
  6
BYLAYER
 70
0
 71
3
 72
9
 73
5
 74
0
 42
0.0000001
 43
0.0000001
 44
0.0000000001
 40
0.0
 40
0.0
 40
0.0
 40
0.0
 40
0.5239605986
 40
1.0
 40
1.0
 40
1.0
 40
1.0
 10
101.3848564041
 20
502.1898414412
 30
0.0
 10
101.3474023414
 20
502.2790329831
 30
0.0
 10
101.2801301433
 20
502.4545178797
 30
0.0
 10
101.1368595981
 20
502.5825355964
 30
0.0
 10
101.0616851618
 20
502.6280688188
 30
0.0
  0
SPLINE
  5
558
100
AcDbEntity
  8
0
100
AcDbSpline
 62
7
  6
BYLAYER
 70
0
 71
3
 72
9
 73
5
 74
0
 42
0.0000001
 43
0.0000001
 44
0.0000000001
 40
0.0
 40
0.0
 40
0.0
 40
0.0
 40
0.4702865023
 40
1.0
 40
1.0
 40
1.0
 40
1.0
 10
102.1032909327
 20
501.3186503613
 30
0.0
 10
101.9485638888
 20
501.4109720829
 30
0.0
 10
101.6330412596
 20
501.6471949362
 30
0.0
 10
101.4616962258
 20
502.0020057873
 30
0.0
 10
101.3848564041
 20
502.1898414412
 30
0.0
  0
SPLINE
  5
559
100
AcDbEntity
  8
0
100
AcDbSpline
 62
7
  6
BYLAYER
 70
0
 71
3
 72
9
 73
5
 74
0
 42
0.0000001
 43
0.0000001
 44
0.0000000001
 40
0.0
 40
0.0
 40
0.0
 40
0.0
 40
0.2801073905
 40
1.0
 40
1.0
 40
1.0
 40
1.0
 10
220.3688534616
 20
214.666211342
 30
0.0
 10
220.3822309076
 20
214.7058923547
 30
0.0
 10
220.4267843946
 20
214.8469388403
 30
0.0
 10
220.5175384122
 20
214.9843297159
 30
0.0
 10
220.6107417948
 20
215.0381406137
 30
0.0
  0
SPLINE
  5
55A
100
AcDbEntity
  8
0
100
AcDbSpline
 62
7
  6
BYLAYER
 70
0
 71
3
 72
9
 73
5
 74
0
 42
0.0000001
 43
0.0000001
 44
0.0000000001
 40
0.0
 40
0.0
 40
0.0
 40
0.0
 40
0.2879315623
 40
1.0
 40
1.0
 40
1.0
 40
1.0
 10
101.9557922635
 20
504.3432155345
 30
0.0
 10
101.872339168
 20
504.3893569226
 30
0.0
 10
101.5900049032
 20
504.5422511779
 30
0.0
 10
101.1992353162
 20
504.640051456
 30
0.0
 10
100.9949976494
 20
504.5221439945
 30
0.0
  0
SPLINE
  5
55B
100
AcDbEntity
  8
0
100
AcDbSpline
 62
7
  6
BYLAYER
 70
0
 71
3
 72
11
 73
7
 74
0
 42
0.0000001
 43
0.0000001
 44
0.0000000001
 40
0.0
 40
0.0
 40
0.0
 40
0.0
 40
0.2557094025
 40
0.5241935402
 40
0.7638549764
 40
1.0
 40
1.0
 40
1.0
 40
1.0
 10
103.213674173
 20
502.8142057759
 30
0.0
 10
103.2066310604
 20
502.9879734178
 30
0.0
 10
103.0607089853
 20
503.3319845316
 30
0.0
 10
102.7424085156
 20
503.7414218261
 30
0.0
 10
102.3673829557
 20
504.0865441831
 30
0.0
 10
102.0935030603
 20
504.2605746786
 30
0.0
 10
101.9557922635
 20
504.3432155345
 30
0.0
  0
SPLINE
  5
55C
100
AcDbEntity
  8
0
100
AcDbSpline
 62
7
  6
BYLAYER
 70
0
 71
3
 72
9
 73
5
 74
0
 42
0.0000001
 43
0.0000001
 44
0.0000000001
 40
0.0
 40
0.0
 40
0.0
 40
0.0
 40
0.6663262599
 40
1.0
 40
1.0
 40
1.0
 40
1.0
 10
220.1298490105
 20
213.7235100565
 30
0.0
 10
220.1413387134
 20
213.7311886464
 30
0.0
 10
220.1578710779
 20
213.749381489
 30
0.0
 10
220.154296573
 20
213.7708437335
 30
0.0
 10
220.1526683801
 20
213.7775697241
 30
0.0
  0
SPLINE
  5
55D
100
AcDbEntity
  8
0
100
AcDbSpline
 62
7
  6
BYLAYER
 70
0
 71
3
 72
9
 73
5
 74
0
 42
0.0000001
 43
0.0000001
 44
0.0000000001
 40
0.0
 40
0.0
 40
0.0
 40
0.0
 40
0.4959488091
 40
1.0
 40
1.0
 40
1.0
 40
1.0
 10
102.3311680902
 20
502.7256851425
 30
0.0
 10
102.1687625847
 20
502.8652216086
 30
0.0
 10
101.8509658176
 20
503.128598551
 30
0.0
 10
101.514685515
 20
503.4880409703
 30
0.0
 10
101.5058384579
 20
503.7054758412
 30
0.0
  0
SPLINE
  5
55E
100
AcDbEntity
  8
0
100
AcDbSpline
 62
7
  6
BYLAYER
 70
0
 71
3
 72
8
 73
4
 74
0
 42
0.0000001
 43
0.0000001
 44
0.0000000001
 40
0.0
 40
0.0
 40
0.0
 40
0.0
 40
1.0
 40
1.0
 40
1.0
 40
1.0
 10
101.6473708856
 20
503.8940930473
 30
0.0
 10
101.6300255218
 20
503.8840788723
 30
0.0
 10
101.6144851752
 20
503.8698279039
 30
0.0
 10
101.6033921845
 20
503.8531518462
 30
0.0
  0
SPLINE
  5
55F
100
AcDbEntity
  8
0
100
AcDbSpline
 62
7
  6
BYLAYER
 70
0
 71
3
 72
8
 73
4
 74
0
 42
0.0000001
 43
0.0000001
 44
0.0000000001
 40
0.0
 40
0.0
 40
0.0
 40
0.0
 40
1.0
 40
1.0
 40
1.0
 40
1.0
 10
101.6033921845
 20
503.8531518462
 30
0.0
 10
101.5830523697
 20
503.8225750673
 30
0.0
 10
101.5788948841
 20
503.7829491796
 30
0.0
 10
101.5765488416
 20
503.7463002566
 30
0.0
  0
SPLINE
  5
560
100
AcDbEntity
  8
0
100
AcDbSpline
 62
7
  6
BYLAYER
 70
0
 71
3
 72
9
 73
5
 74
0
 42
0.0000001
 43
0.0000001
 44
0.0000000001
 40
0.0
 40
0.0
 40
0.0
 40
0.0
 40
0.4518565405
 40
1.0
 40
1.0
 40
1.0
 40
1.0
 10
103.0960393698
 20
500.5187215708
 30
0.0
 10
103.1896900356
 20
500.5727904818
 30
0.0
 10
103.3468169179
 20
500.7825107926
 30
0.0
 10
103.3579303554
 20
501.0272799673
 30
0.0
 10
103.3620014864
 20
501.1583984771
 30
0.0
  0
SPLINE
  5
561
100
AcDbEntity
  8
0
100
AcDbSpline
 62
7
  6
BYLAYER
 70
0
 71
3
 72
8
 73
4
 74
0
 42
0.0000001
 43
0.0000001
 44
0.0000000001
 40
0.0
 40
0.0
 40
0.0
 40
0.0
 40
1.0
 40
1.0
 40
1.0
 40
1.0
 10
226.1700087733
 20
215.7455903122
 30
0.0
 10
226.2056155205
 20
215.7214439983
 30
0.0
 10
226.2412367828
 20
215.6973175261
 30
0.0
 10
226.2766601985
 20
215.6729030522
 30
0.0
  0
SPLINE
  5
562
100
AcDbEntity
  8
0
100
AcDbSpline
 62
7
  6
BYLAYER
 70
0
 71
3
 72
9
 73
5
 74
0
 42
0.0000001
 43
0.0000001
 44
0.0000000001
 40
0.0
 40
0.0
 40
0.0
 40
0.0
 40
0.4761798538
 40
1.0
 40
1.0
 40
1.0
 40
1.0
 10
226.2766601985
 20
215.6729030522
 30
0.0
 10
226.4390409903
 20
215.5609872042
 30
0.0
 10
226.7671746845
 20
215.302265264
 30
0.0
 10
227.0123830876
 20
214.9617287998
 30
0.0
 10
227.122404401
 20
214.7747543094
 30
0.0
  0
SPLINE
  5
563
100
AcDbEntity
  8
0
100
AcDbSpline
 62
7
  6
BYLAYER
 70
0
 71
3
 72
9
 73
5
 74
0
 42
0.0000001
 43
0.0000001
 44
0.0000000001
 40
0.0
 40
0.0
 40
0.0
 40
0.0
 40
0.5284582676
 40
1.0
 40
1.0
 40
1.0
 40
1.0
 10
227.2413339107
 20
214.5525429291
 30
0.0
 10
227.3467566152
 20
214.3348081278
 30
0.0
 10
227.5045939327
 20
213.8966796739
 30
0.0
 10
227.5239053708
 20
213.4358726902
 30
0.0
 10
227.5286237931
 20
213.2200651141
 30
0.0
  0
SPLINE
  5
564
100
AcDbEntity
  8
0
100
AcDbSpline
 62
7
  6
BYLAYER
 70
0
 71
3
 72
9
 73
5
 74
0
 42
0.0000001
 43
0.0000001
 44
0.0000000001
 40
0.0
 40
0.0
 40
0.0
 40
0.0
 40
0.5453778423
 40
1.0
 40
1.0
 40
1.0
 40
1.0
 10
99.7598851099
 20
506.8969857467
 30
0.0
 10
99.7141725054
 20
506.9205490618
 30
0.0
 10
99.6264923295
 20
506.964244297
 30
0.0
 10
99.5259952563
 20
506.9442002096
 30
0.0
 10
99.4888691332
 20
506.9227641545
 30
0.0
  0
SPLINE
  5
565
100
AcDbEntity
  8
0
100
AcDbSpline
 62
7
  6
BYLAYER
 70
0
 71
3
 72
9
 73
5
 74
0
 42
0.0000001
 43
0.0000001
 44
0.0000000001
 40
0.0
 40
0.0
 40
0.0
 40
0.0
 40
0.729592061
 40
1.0
 40
1.0
 40
1.0
 40
1.0
 10
100.1269744931
 20
506.2583012948
 30
0.0
 10
100.1254224911
 20
506.315539707
 30
0.0
 10
100.1185130166
 20
506.3946220098
 30
0.0
 10
100.0956877899
 20
506.4698785809
 30
0.0
 10
100.0887078802
 20
506.489919902
 30
0.0
  0
SPLINE
  5
566
100
AcDbEntity
  8
0
100
AcDbSpline
 62
7
  6
BYLAYER
 70
0
 71
3
 72
9
 73
5
 74
0
 42
0.0000001
 43
0.0000001
 44
0.0000000001
 40
0.0
 40
0.0
 40
0.0
 40
0.0
 40
0.2672117426
 40
1.0
 40
1.0
 40
1.0
 40
1.0
 10
100.0887078802
 20
506.489919902
 30
0.0
 10
100.0732037371
 20
506.5344367394
 30
0.0
 10
99.999425802
 20
506.6954446217
 30
0.0
 10
99.8693180544
 20
506.8281678109
 30
0.0
 10
99.7598851099
 20
506.8969857467
 30
0.0
  0
SPLINE
  5
567
100
AcDbEntity
  8
0
100
AcDbSpline
 62
7
  6
BYLAYER
 70
0
 71
3
 72
9
 73
5
 74
0
 42
0.0000001
 43
0.0000001
 44
0.0000000001
 40
0.0
 40
0.0
 40
0.0
 40
0.0
 40
0.4943911113
 40
1.0
 40
1.0
 40
1.0
 40
1.0
 10
100.1269744944
 20
504.9034175995
 30
0.0
 10
100.1228509147
 20
505.040472484
 30
0.0
 10
100.0694406613
 20
505.3237803706
 30
0.0
 10
99.8695141275
 20
505.5398847454
 30
0.0
 10
99.7515986671
 20
505.6157785115
 30
0.0
  0
SPLINE
  5
568
100
AcDbEntity
  8
0
100
AcDbSpline
 62
7
  6
BYLAYER
 70
0
 71
3
 72
9
 73
5
 74
0
 42
0.0000001
 43
0.0000001
 44
0.0000000001
 40
0.0
 40
0.0
 40
0.0
 40
0.0
 40
0.2201305683
 40
1.0
 40
1.0
 40
1.0
 40
1.0
 10
89.1213959877
 20
509.0726649982
 30
0.0
 10
89.0809455753
 20
509.0493113383
 30
0.0
 10
88.8667758911
 20
508.9991851787
 30
0.0
 10
88.6538668115
 20
509.0882389347
 30
0.0
 10
88.5085540373
 20
509.1673978059
 30
0.0
  0
SPLINE
  5
569
100
AcDbEntity
  8
0
100
AcDbSpline
 62
7
  6
BYLAYER
 70
0
 71
3
 72
9
 73
5
 74
0
 42
0.0000001
 43
0.0000001
 44
0.0000000001
 40
0.0
 40
0.0
 40
0.0
 40
0.0
 40
0.2801979183
 40
1.0
 40
1.0
 40
1.0
 40
1.0
 10
99.7515986671
 20
505.6157785115
 30
0.0
 10
99.7341721742
 20
505.6247312878
 30
0.0
 10
99.6729330902
 20
505.6569868272
 30
0.0
 10
99.5991725165
 20
505.6757247349
 30
0.0
 10
99.5498204998
 20
505.6658550242
 30
0.0
  0
SPLINE
  5
56A
100
AcDbEntity
  8
0
100
AcDbSpline
 62
7
  6
BYLAYER
 70
0
 71
3
 72
8
 73
4
 74
0
 42
0.0000001
 43
0.0000001
 44
0.0000000001
 40
0.0
 40
0.0
 40
0.0
 40
0.0
 40
1.0
 40
1.0
 40
1.0
 40
1.0
 10
99.5498204998
 20
505.6658550242
 30
0.0
 10
99.5331228877
 20
505.6625157361
 30
0.0
 10
99.5167355103
 20
505.6564305231
 30
0.0
 10
99.5019896092
 20
505.6479146851
 30
0.0
  0
SPLINE
  5
56B
100
AcDbEntity
  8
0
100
AcDbSpline
 62
7
  6
BYLAYER
 70
0
 71
3
 72
8
 73
4
 74
0
 42
0.0000001
 43
0.0000001
 44
0.0000000001
 40
0.0
 40
0.0
 40
0.0
 40
0.0
 40
1.0
 40
1.0
 40
1.0
 40
1.0
 10
88.1892701328
 20
510.1276754573
 30
0.0
 10
88.1729142771
 20
510.1182319932
 30
0.0
 10
88.1580878012
 20
510.1051724316
 30
0.0
 10
88.1471584003
 20
510.0897697947
 30
0.0
  0
SPLINE
  5
56C
100
AcDbEntity
  8
0
100
AcDbSpline
 62
7
  6
BYLAYER
 70
0
 71
3
 72
9
 73
5
 74
0
 42
0.0000001
 43
0.0000001
 44
0.0000000001
 40
0.0
 40
0.0
 40
0.0
 40
0.0
 40
0.7203467682
 40
1.0
 40
1.0
 40
1.0
 40
1.0
 10
88.1471584003
 20
510.0897697947
 30
0.0
 10
88.123437662
 20
510.0563405222
 30
0.0
 10
88.1078681031
 20
509.9978074344
 30
0.0
 10
88.1066606671
 20
509.9412695006
 30
0.0
 10
88.1061085768
 20
509.9253658854
 30
0.0
  0
SPLINE
  5
56D
100
AcDbEntity
  8
0
100
AcDbSpline
 62
7
  6
BYLAYER
 70
0
 71
3
 72
8
 73
4
 74
0
 42
0.0000001
 43
0.0000001
 44
0.0000000001
 40
0.0
 40
0.0
 40
0.0
 40
0.0
 40
1.0
 40
1.0
 40
1.0
 40
1.0
 10
225.6375492599
 20
214.3118528054
 30
0.0
 10
225.6412817068
 20
214.2808236979
 30
0.0
 10
225.6449807346
 20
214.2497894603
 30
0.0
 10
225.6490167173
 20
214.2187983726
 30
0.0
  0
SPLINE
  5
56E
100
AcDbEntity
  8
0
100
AcDbSpline
 62
7
  6
BYLAYER
 70
0
 71
3
 72
9
 73
5
 74
0
 42
0.0000001
 43
0.0000001
 44
0.0000000001
 40
0.0
 40
0.0
 40
0.0
 40
0.0
 40
0.2387859981
 40
1.0
 40
1.0
 40
1.0
 40
1.0
 10
225.6490167173
 20
214.2187983726
 30
0.0
 10
225.653801287
 20
214.1820591133
 30
0.0
 10
225.6753680843
 20
214.0284846333
 30
0.0
 10
225.7190334794
 20
213.8773990427
 30
0.0
 10
225.766682983
 20
213.7693292339
 30
0.0
  0
SPLINE
  5
56F
100
AcDbEntity
  8
0
100
AcDbSpline
 62
7
  6
BYLAYER
 70
0
 71
3
 72
9
 73
5
 74
0
 42
0.0000001
 43
0.0000001
 44
0.0000000001
 40
0.0
 40
0.0
 40
0.0
 40
0.0
 40
0.2748410836
 40
1.0
 40
1.0
 40
1.0
 40
1.0
 10
225.766682983
 20
213.7693292339
 30
0.0
 10
225.8135283264
 20
213.6630832728
 30
0.0
 10
226.0277135071
 20
213.2966213992
 30
0.0
 10
226.3749522559
 20
213.0131956111
 30
0.0
 10
226.6548280044
 20
212.8885787216
 30
0.0
  0
SPLINE
  5
570
100
AcDbEntity
  8
0
100
AcDbSpline
 62
7
  6
BYLAYER
 70
0
 71
3
 72
9
 73
5
 74
0
 42
0.0000001
 43
0.0000001
 44
0.0000000001
 40
0.0
 40
0.0
 40
0.0
 40
0.0
 40
0.5319859246
 40
1.0
 40
1.0
 40
1.0
 40
1.0
 10
226.6548280044
 20
212.8885787216
 30
0.0
 10
226.7914772765
 20
212.8277345529
 30
0.0
 10
227.072778004
 20
212.7481445355
 30
0.0
 10
227.3534410283
 20
212.8041006466
 30
0.0
 10
227.4822444019
 20
212.8310642416
 30
0.0
  0
SPLINE
  5
571
100
AcDbEntity
  8
0
100
AcDbSpline
 62
7
  6
BYLAYER
 70
0
 71
3
 72
9
 73
5
 74
0
 42
0.0000001
 43
0.0000001
 44
0.0000000001
 40
0.0
 40
0.0
 40
0.0
 40
0.0
 40
0.2942525853
 40
1.0
 40
1.0
 40
1.0
 40
1.0
 10
98.2136350149
 20
507.8509311408
 30
0.0
 10
98.1915476273
 20
507.8623437388
 30
0.0
 10
98.118906424
 20
507.9021416752
 30
0.0
 10
98.0192013039
 20
507.913817294
 30
0.0
 10
97.9675684379
 20
507.8839898021
 30
0.0
  0
SPLINE
  5
572
100
AcDbEntity
  8
0
100
AcDbSpline
 62
7
  6
BYLAYER
 70
0
 71
3
 72
9
 73
5
 74
0
 42
0.0000001
 43
0.0000001
 44
0.0000000001
 40
0.0
 40
0.0
 40
0.0
 40
0.0
 40
0.4967000666
 40
1.0
 40
1.0
 40
1.0
 40
1.0
 10
98.5890108417
 20
507.0974261582
 30
0.0
 10
98.5850439467
 20
507.2417232475
 30
0.0
 10
98.5457023415
 20
507.5406413533
 30
0.0
 10
98.3370145851
 20
507.7723671704
 30
0.0
 10
98.2136350149
 20
507.8509311408
 30
0.0
  0
SPLINE
  5
573
100
AcDbEntity
  8
0
100
AcDbSpline
 62
7
  6
BYLAYER
 70
0
 71
3
 72
8
 73
4
 74
0
 42
0.0000001
 43
0.0000001
 44
0.0000000001
 40
0.0
 40
0.0
 40
0.0
 40
0.0
 40
1.0
 40
1.0
 40
1.0
 40
1.0
 10
87.5920442067
 20
510.779142408
 30
0.0
 10
87.6324366353
 20
510.8024635401
 30
0.0
 10
87.6781836548
 20
510.8175553483
 30
0.0
 10
87.7242152382
 20
510.8250731147
 30
0.0
  0
SPLINE
  5
574
100
AcDbEntity
  8
0
100
AcDbSpline
 62
7
  6
BYLAYER
 70
0
 71
3
 72
8
 73
4
 74
0
 42
0.0000001
 43
0.0000001
 44
0.0000000001
 40
0.0
 40
0.0
 40
0.0
 40
0.0
 40
1.0
 40
1.0
 40
1.0
 40
1.0
 10
87.7242152382
 20
510.8250731147
 30
0.0
 10
87.7853102419
 20
510.8350510023
 30
0.0
 10
87.8486215685
 20
510.834468771
 30
0.0
 10
87.9099267734
 20
510.8258763574
 30
0.0
  0
SPLINE
  5
575
100
AcDbEntity
  8
0
100
AcDbSpline
 62
7
  6
BYLAYER
 70
0
 71
3
 72
8
 73
4
 74
0
 42
0.0000001
 43
0.0000001
 44
0.0000000001
 40
0.0
 40
0.0
 40
0.0
 40
0.0
 40
1.0
 40
1.0
 40
1.0
 40
1.0
 10
87.9099267734
 20
510.8258763574
 30
0.0
 10
87.935764961
 20
510.8222549292
 30
0.0
 10
87.9614231576
 20
510.8172336522
 30
0.0
 10
87.9868278356
 20
510.81128983
 30
0.0
  0
SPLINE
  5
576
100
AcDbEntity
  8
0
100
AcDbSpline
 62
7
  6
BYLAYER
 70
0
 71
3
 72
8
 73
4
 74
0
 42
0.0000001
 43
0.0000001
 44
0.0000000001
 40
0.0
 40
0.0
 40
0.0
 40
0.0
 40
1.0
 40
1.0
 40
1.0
 40
1.0
 10
87.9868278356
 20
510.81128983
 30
0.0
 10
88.0197107965
 20
510.8035963465
 30
0.0
 10
88.0522351932
 20
510.7943709088
 30
0.0
 10
88.0845638281
 20
510.784606782
 30
0.0
  0
SPLINE
  5
577
100
AcDbEntity
  8
0
100
AcDbSpline
 62
7
  6
BYLAYER
 70
0
 71
3
 72
9
 73
5
 74
0
 42
0.0000001
 43
0.0000001
 44
0.0000000001
 40
0.0
 40
0.0
 40
0.0
 40
0.0
 40
0.5538602047
 40
1.0
 40
1.0
 40
1.0
 40
1.0
 10
83.189486867
 20
516.4024555231
 30
0.0
 10
83.1194496766
 20
516.4406926111
 30
0.0
 10
82.9958313492
 20
516.5053638807
 30
0.0
 10
82.8334900223
 20
516.5280824094
 30
0.0
 10
82.7778414192
 20
516.4959169191
 30
0.0
  0
SPLINE
  5
578
100
AcDbEntity
  8
0
100
AcDbSpline
 62
7
  6
BYLAYER
 70
0
 71
3
 72
11
 73
7
 74
0
 42
0.0000001
 43
0.0000001
 44
0.0000000001
 40
0.0
 40
0.0
 40
0.0
 40
0.0
 40
0.2401070109
 40
0.5027674848
 40
0.765020238
 40
1.0
 40
1.0
 40
1.0
 40
1.0
 10
84.0429904047
 20
515.2848804068
 30
0.0
 10
84.0240992185
 20
515.3787537657
 30
0.0
 10
83.9805454459
 20
515.5732286306
 30
0.0
 10
83.9085382169
 20
515.8759096441
 30
0.0
 10
83.6959676166
 20
516.1082079176
 30
0.0
 10
83.5245339188
 20
516.2078695903
 30
0.0
 10
83.4438806176
 20
516.2555845453
 30
0.0
  0
SPLINE
  5
579
100
AcDbEntity
  8
0
100
AcDbSpline
 62
7
  6
BYLAYER
 70
0
 71
3
 72
10
 73
6
 74
0
 42
0.0000001
 43
0.0000001
 44
0.0000000001
 40
0.0
 40
0.0
 40
0.0
 40
0.0
 40
0.2367868332
 40
0.5050258576
 40
1.0
 40
1.0
 40
1.0
 40
1.0
 10
86.6035009999
 20
513.9089841596
 30
0.0
 10
86.6014217463
 20
513.989155994
 30
0.0
 10
86.591471827
 20
514.1615155173
 30
0.0
 10
86.4509597636
 20
514.4804247739
 30
0.0
 10
86.2329379483
 20
514.6408529667
 30
0.0
 10
86.0897415909
 20
514.7280305578
 30
0.0
  0
SPLINE
  5
57A
100
AcDbEntity
  8
0
100
AcDbSpline
 62
7
  6
BYLAYER
 70
0
 71
3
 72
8
 73
4
 74
0
 42
0.0000001
 43
0.0000001
 44
0.0000000001
 40
0.0
 40
0.0
 40
0.0
 40
0.0
 40
1.0
 40
1.0
 40
1.0
 40
1.0
 10
87.9166026569
 20
511.2105510619
 30
0.0
 10
87.9413109139
 20
511.2248337839
 30
0.0
 10
87.9592080349
 20
511.2487212899
 30
0.0
 10
87.9781538089
 20
511.2700649484
 30
0.0
  0
SPLINE
  5
57B
100
AcDbEntity
  8
0
100
AcDbSpline
 62
7
  6
BYLAYER
 70
0
 71
3
 72
8
 73
4
 74
0
 42
0.0000001
 43
0.0000001
 44
0.0000000001
 40
0.0
 40
0.0
 40
0.0
 40
0.0
 40
1.0
 40
1.0
 40
1.0
 40
1.0
 10
87.9781538089
 20
511.2700649484
 30
0.0
 10
88.0386076052
 20
511.3381701197
 30
0.0
 10
88.0908595262
 20
511.4193072243
 30
0.0
 10
88.1697248987
 20
511.4648399474
 30
0.0
  0
SPLINE
  5
57C
100
AcDbEntity
  8
0
100
AcDbSpline
 62
7
  6
BYLAYER
 70
0
 71
3
 72
8
 73
4
 74
0
 42
0.0000001
 43
0.0000001
 44
0.0000000001
 40
0.0
 40
0.0
 40
0.0
 40
0.0
 40
1.0
 40
1.0
 40
1.0
 40
1.0
 10
88.2404354123
 20
511.5056644378
 30
0.0
 10
88.1480363423
 20
511.4523181198
 30
0.0
 10
88.0922953453
 20
511.3520726497
 30
0.0
 10
88.0172985294
 20
511.2761852637
 30
0.0
  0
SPLINE
  5
57D
100
AcDbEntity
  8
0
100
AcDbSpline
 62
7
  6
BYLAYER
 70
0
 71
3
 72
9
 73
5
 74
0
 42
0.0000001
 43
0.0000001
 44
0.0000000001
 40
0.0
 40
0.0
 40
0.0
 40
0.0
 40
0.50332916
 40
1.0
 40
1.0
 40
1.0
 40
1.0
 10
88.0172985294
 20
511.2761852637
 30
0.0
 10
88.0126931855
 20
511.2715252324
 30
0.0
 10
88.0033205574
 20
511.2624903625
 30
0.0
 10
87.9928678397
 20
511.2545815676
 30
0.0
 10
87.9872685221
 20
511.2513497626
 30
0.0
  0
SPLINE
  5
57E
100
AcDbEntity
  8
0
100
AcDbSpline
 62
7
  6
BYLAYER
 70
0
 71
3
 72
8
 73
4
 74
0
 42
0.0000001
 43
0.0000001
 44
0.0000000001
 40
0.0
 40
0.0
 40
0.0
 40
0.0
 40
1.0
 40
1.0
 40
1.0
 40
1.0
 10
87.7083146777
 20
512.2398483694
 30
0.0
 10
87.7648057293
 20
512.2724642483
 30
0.0
 10
87.8302785513
 20
512.2908278228
 30
0.0
 10
87.8950836728
 20
512.2982662833
 30
0.0
  0
SPLINE
  5
57F
100
AcDbEntity
  8
0
100
AcDbSpline
 62
7
  6
BYLAYER
 70
0
 71
3
 72
9
 73
5
 74
0
 42
0.0000001
 43
0.0000001
 44
0.0000000001
 40
0.0
 40
0.0
 40
0.0
 40
0.0
 40
0.2313918181
 40
1.0
 40
1.0
 40
1.0
 40
1.0
 10
87.8950836728
 20
512.2982662833
 30
0.0
 10
87.9322185427
 20
512.3025286974
 30
0.0
 10
88.0943831133
 20
512.3064916661
 30
0.0
 10
88.2545401466
 20
512.265996774
 30
0.0
 10
88.3713850191
 20
512.2240093928
 30
0.0
  0
SPLINE
  5
580
100
AcDbEntity
  8
0
100
AcDbSpline
 62
7
  6
BYLAYER
 70
0
 71
3
 72
8
 73
4
 74
0
 42
0.0000001
 43
0.0000001
 44
0.0000000001
 40
0.0
 40
0.0
 40
0.0
 40
0.0
 40
1.0
 40
1.0
 40
1.0
 40
1.0
 10
88.3713850191
 20
512.2240093928
 30
0.0
 10
88.5285317183
 20
512.1675398344
 30
0.0
 10
88.6770415345
 20
512.0883016768
 30
0.0
 10
88.8228858178
 20
512.006979225
 30
0.0
  0
SPLINE
  5
581
100
AcDbEntity
  8
0
100
AcDbSpline
 62
7
  6
BYLAYER
 70
0
 71
3
 72
9
 73
5
 74
0
 42
0.0000001
 43
0.0000001
 44
0.0000000001
 40
0.0
 40
0.0
 40
0.0
 40
0.0
 40
0.450091816
 40
1.0
 40
1.0
 40
1.0
 40
1.0
 10
90.1063164728
 20
507.7676659805
 30
0.0
 10
90.1320092534
 20
507.7825086553
 30
0.0
 10
90.1837537265
 20
507.8308345642
 30
0.0
 10
90.1910420297
 20
507.9002609363
 30
0.0
 10
90.1931877145
 20
507.9364496341
 30
0.0
  0
SPLINE
  5
582
100
AcDbEntity
  8
0
100
AcDbSpline
 62
7
  6
BYLAYER
 70
0
 71
3
 72
9
 73
5
 74
0
 42
0.0000001
 43
0.0000001
 44
0.0000000001
 40
0.0
 40
0.0
 40
0.0
 40
0.0
 40
0.5475721635
 40
1.0
 40
1.0
 40
1.0
 40
1.0
 10
220.2195930151
 20
213.0938606258
 30
0.0
 10
220.3540923039
 20
213.027969657
 30
0.0
 10
220.6015554262
 20
212.9040534243
 30
0.0
 10
220.8941893624
 20
212.9118150076
 30
0.0
 10
221.008951019
 20
212.9581116133
 30
0.0
  0
SPLINE
  5
583
100
AcDbEntity
  8
0
100
AcDbSpline
 62
7
  6
BYLAYER
 70
0
 71
3
 72
8
 73
4
 74
0
 42
0.0000001
 43
0.0000001
 44
0.0000000001
 40
0.0
 40
0.0
 40
0.0
 40
0.0
 40
1.0
 40
1.0
 40
1.0
 40
1.0
 10
220.2310372804
 20
213.8168461202
 30
0.0
 10
220.2279299829
 20
213.7992458141
 30
0.0
 10
220.2155479703
 20
213.7713508732
 30
0.0
 10
220.1979793007
 20
213.7746323238
 30
0.0
  0
SPLINE
  5
584
100
AcDbEntity
  8
0
100
AcDbSpline
 62
7
  6
BYLAYER
 70
0
 71
3
 72
9
 73
5
 74
0
 42
0.0000001
 43
0.0000001
 44
0.0000000001
 40
0.0
 40
0.0
 40
0.0
 40
0.0
 40
0.4315522065
 40
1.0
 40
1.0
 40
1.0
 40
1.0
 10
221.5486888934
 20
214.3309117128
 30
0.0
 10
221.5625605557
 20
214.3377488177
 30
0.0
 10
221.6001259749
 20
214.3499933505
 30
0.0
 10
221.631579155
 20
214.3259684963
 30
0.0
 10
221.6494034135
 20
214.3161060222
 30
0.0
  0
SPLINE
  5
585
100
AcDbEntity
  8
0
100
AcDbSpline
 62
7
  6
BYLAYER
 70
0
 71
3
 72
9
 73
5
 74
0
 42
0.0000001
 43
0.0000001
 44
0.0000000001
 40
0.0
 40
0.0
 40
0.0
 40
0.0
 40
0.4712924147
 40
1.0
 40
1.0
 40
1.0
 40
1.0
 10
227.4579134094
 20
213.1792406988
 30
0.0
 10
227.4531128023
 20
213.3988071794
 30
0.0
 10
227.4326069631
 20
213.8680030935
 30
0.0
 10
227.2688523605
 20
214.3131294651
 30
0.0
 10
227.1597184104
 20
214.5340139124
 30
0.0
  0
SPLINE
  5
586
100
AcDbEntity
  8
0
100
AcDbSpline
 62
7
  6
BYLAYER
 70
0
 71
3
 72
9
 73
5
 74
0
 42
0.0000001
 43
0.0000001
 44
0.0000000001
 40
0.0
 40
0.0
 40
0.0
 40
0.0
 40
0.526452456
 40
1.0
 40
1.0
 40
1.0
 40
1.0
 10
227.1121434743
 20
214.6263878755
 30
0.0
 10
226.9882646188
 20
214.8573602703
 30
0.0
 10
226.7014646382
 20
215.2767779971
 30
0.0
 10
226.2944207843
 20
215.5724458466
 30
0.0
 10
226.0992983896
 20
215.7047658968
 30
0.0
  0
SPLINE
  5
587
100
AcDbEntity
  8
0
100
AcDbSpline
 62
7
  6
BYLAYER
 70
0
 71
3
 72
12
 73
8
 74
0
 42
0.0000001
 43
0.0000001
 44
0.0000000001
 40
0.0
 40
0.0
 40
0.0
 40
0.0
 40
0.189586436
 40
0.4208366726
 40
0.7083643039
 40
0.8610022193
 40
1.0
 40
1.0
 40
1.0
 40
1.0
 10
227.4115340182
 20
212.7902398262
 30
0.0
 10
227.2463687303
 20
212.7556642572
 30
0.0
 10
226.8626564917
 20
212.6994990419
 30
0.0
 10
226.2682587696
 20
212.9826923423
 30
0.0
 10
225.8362566956
 20
213.4138416081
 30
0.0
 10
225.6152314049
 20
213.8887798837
 30
0.0
 10
225.5816142232
 20
214.1481958792
 30
0.0
 10
225.5668388762
 20
214.2710283901
 30
0.0
  0
SPLINE
  5
588
100
AcDbEntity
  8
0
100
AcDbSpline
 62
7
  6
BYLAYER
 70
0
 71
3
 72
9
 73
5
 74
0
 42
0.0000001
 43
0.0000001
 44
0.0000000001
 40
0.0
 40
0.0
 40
0.0
 40
0.0
 40
0.5510403903
 40
1.0
 40
1.0
 40
1.0
 40
1.0
 10
226.0992983896
 20
215.7047658968
 30
0.0
 10
225.9267858405
 20
215.7898485592
 30
0.0
 10
225.6110974296
 20
215.955924211
 30
0.0
 10
225.2312934222
 20
215.910004908
 30
0.0
 10
225.0955703387
 20
215.8316455129
 30
0.0
  0
SPLINE
  5
589
100
AcDbEntity
  8
0
100
AcDbSpline
 62
7
  6
BYLAYER
 70
0
 71
3
 72
9
 73
5
 74
0
 42
0.0000001
 43
0.0000001
 44
0.0000000001
 40
0.0
 40
0.0
 40
0.0
 40
0.0
 40
0.2853213847
 40
1.0
 40
1.0
 40
1.0
 40
1.0
 10
225.5845473724
 20
214.7649121349
 30
0.0
 10
225.5906938108
 20
214.8057702307
 30
0.0
 10
225.6092146472
 20
214.946039237
 30
0.0
 10
225.6726230308
 20
215.1030972389
 30
0.0
 10
225.7622502239
 20
215.15484579
 30
0.0
  0
SPLINE
  5
58A
100
AcDbEntity
  8
0
100
AcDbSpline
 62
7
  6
BYLAYER
 70
0
 71
3
 72
8
 73
4
 74
0
 42
0.0000001
 43
0.0000001
 44
0.0000000001
 40
0.0
 40
0.0
 40
0.0
 40
0.0
 40
1.0
 40
1.0
 40
1.0
 40
1.0
 10
91.6950367959
 20
509.4563018295
 30
0.0
 10
91.6704019238
 20
509.44207884
 30
0.0
 10
91.6474423805
 20
509.424568207
 30
0.0
 10
91.6270069729
 20
509.4047802191
 30
0.0
  0
SPLINE
  5
58B
100
AcDbEntity
  8
0
100
AcDbSpline
 62
7
  6
BYLAYER
 70
0
 71
3
 72
9
 73
5
 74
0
 42
0.0000001
 43
0.0000001
 44
0.0000000001
 40
0.0
 40
0.0
 40
0.0
 40
0.0
 40
0.2190489467
 40
1.0
 40
1.0
 40
1.0
 40
1.0
 10
91.6270069729
 20
509.4047802191
 30
0.0
 10
91.5901128481
 20
509.3690549472
 30
0.0
 10
91.4589016881
 20
509.1678236163
 30
0.0
 10
91.4501968509
 20
508.9200920535
 30
0.0
 10
91.4472020289
 20
508.7370215271
 30
0.0
  0
SPLINE
  5
58C
100
AcDbEntity
  8
0
100
AcDbSpline
 62
7
  6
BYLAYER
 70
0
 71
3
 72
9
 73
5
 74
0
 42
0.0000001
 43
0.0000001
 44
0.0000000001
 40
0.0
 40
0.0
 40
0.0
 40
0.0
 40
0.4453322673
 40
1.0
 40
1.0
 40
1.0
 40
1.0
 10
93.2619445789
 20
504.8668702229
 30
0.0
 10
93.4119008792
 20
504.9534339729
 30
0.0
 10
93.5963668401
 20
505.35248666
 30
0.0
 10
93.6010620124
 20
505.7335063192
 30
0.0
 10
93.6038872794
 20
505.9491459339
 30
0.0
  0
SPLINE
  5
58D
100
AcDbEntity
  8
0
100
AcDbSpline
 62
7
  6
BYLAYER
 70
0
 71
3
 72
8
 73
4
 74
0
 42
0.0000001
 43
0.0000001
 44
0.0000000001
 40
0.0
 40
0.0
 40
0.0
 40
0.0
 40
1.0
 40
1.0
 40
1.0
 40
1.0
 10
90.890788736
 20
507.0946885531
 30
0.0
 10
90.9077964462
 20
507.1045079154
 30
0.0
 10
90.9271557335
 20
507.1108117106
 30
0.0
 10
90.9466014783
 20
507.1135585436
 30
0.0
  0
SPLINE
  5
58E
100
AcDbEntity
  8
0
100
AcDbSpline
 62
7
  6
BYLAYER
 70
0
 71
3
 72
9
 73
5
 74
0
 42
0.0000001
 43
0.0000001
 44
0.0000000001
 40
0.0
 40
0.0
 40
0.0
 40
0.0
 40
0.7180587211
 40
1.0
 40
1.0
 40
1.0
 40
1.0
 10
90.9466014783
 20
507.1135585436
 30
0.0
 10
90.9877062425
 20
507.1193648483
 30
0.0
 10
91.0482512813
 20
507.1065995542
 30
0.0
 10
91.0988197921
 20
507.0792023202
 30
0.0
 10
91.1132584126
 20
507.0716387115
 30
0.0
  0
SPLINE
  5
58F
100
AcDbEntity
  8
0
100
AcDbSpline
 62
7
  6
BYLAYER
 70
0
 71
3
 72
11
 73
7
 74
0
 42
0.0000001
 43
0.0000001
 44
0.0000000001
 40
0.0
 40
0.0
 40
0.0
 40
0.0
 40
0.2375797407
 40
0.4999990468
 40
0.7624188832
 40
1.0
 40
1.0
 40
1.0
 40
1.0
 10
406.5723637107
 20
359.6339713341
 30
0.0
 10
407.0731075068
 20
359.34479853
 30
0.0
 10
408.0147251095
 20
358.5433639832
 30
0.0
 10
409.1264245483
 20
357.0404659281
 30
0.0
 10
409.8721296759
 20
355.3262562943
 30
0.0
 10
410.0953904705
 20
354.1100712171
 30
0.0
 10
410.0954540465
 20
353.5318246178
 30
0.0
  0
SPLINE
  5
590
100
AcDbEntity
  8
0
100
AcDbSpline
 62
7
  6
BYLAYER
 70
0
 71
3
 72
9
 73
5
 74
0
 42
0.0000001
 43
0.0000001
 44
0.0000000001
 40
0.0
 40
0.0
 40
0.0
 40
0.0
 40
0.2090171355
 40
1.0
 40
1.0
 40
1.0
 40
1.0
 10
92.656215423
 20
505.6345668761
 30
0.0
 10
92.6179981885
 20
505.6125098436
 30
0.0
 10
92.4007745529
 20
505.5692197157
 30
0.0
 10
92.2024164289
 20
505.6898851291
 30
0.0
 10
92.0568085416
 20
505.7716294685
 30
0.0
  0
SPLINE
  5
591
100
AcDbEntity
  8
0
100
AcDbSpline
 62
7
  6
BYLAYER
 70
0
 71
3
 72
9
 73
5
 74
0
 42
0.0000001
 43
0.0000001
 44
0.0000000001
 40
0.0
 40
0.0
 40
0.0
 40
0.0
 40
0.3129604601
 40
1.0
 40
1.0
 40
1.0
 40
1.0
 10
229.942403229
 20
208.8800359629
 30
0.0
 10
229.8628833246
 20
208.9581800715
 30
0.0
 10
229.6308361639
 20
209.1994960781
 30
0.0
 10
229.2072411442
 20
209.4416526389
 30
0.0
 10
228.9952830366
 20
209.319270711
 30
0.0
  0
SPLINE
  5
592
100
AcDbEntity
  8
0
100
AcDbSpline
 62
7
  6
BYLAYER
 70
0
 71
3
 72
9
 73
5
 74
0
 42
0.0000001
 43
0.0000001
 44
0.0000000001
 40
0.0
 40
0.0
 40
0.0
 40
0.0
 40
0.4559506703
 40
1.0
 40
1.0
 40
1.0
 40
1.0
 10
229.9752904342
 20
207.6220628445
 30
0.0
 10
229.8802702872
 20
207.6339437833
 30
0.0
 10
229.6694826954
 20
207.6656800242
 30
0.0
 10
229.4883616721
 20
207.7868259001
 30
0.0
 10
229.4040052071
 20
207.8638970788
 30
0.0
  0
SPLINE
  5
593
100
AcDbEntity
  8
0
100
AcDbSpline
 62
7
  6
BYLAYER
 70
0
 71
3
 72
9
 73
5
 74
0
 42
0.0000001
 43
0.0000001
 44
0.0000000001
 40
0.0
 40
0.0
 40
0.0
 40
0.0
 40
0.5851217375
 40
1.0
 40
1.0
 40
1.0
 40
1.0
 10
229.1989592944
 20
208.123192131
 30
0.0
 10
229.1152786011
 20
208.2736430517
 30
0.0
 10
229.0328364082
 20
208.5544242982
 30
0.0
 10
229.1128249881
 20
208.9000324022
 30
0.0
 10
229.218537523
 20
208.9610670158
 30
0.0
  0
SPLINE
  5
594
100
AcDbEntity
  8
0
100
AcDbSpline
 62
7
  6
BYLAYER
 70
0
 71
3
 72
9
 73
5
 74
0
 42
0.0000001
 43
0.0000001
 44
0.0000000001
 40
0.0
 40
0.0
 40
0.0
 40
0.0
 40
0.2298907751
 40
1.0
 40
1.0
 40
1.0
 40
1.0
 10
231.3549838656
 20
207.0395882375
 30
0.0
 10
231.3562728409
 20
207.0141654705
 30
0.0
 10
231.3624092413
 20
206.9036174856
 30
0.0
 10
231.4158083271
 20
206.7963027047
 30
0.0
 10
231.4734002964
 20
206.7334168199
 30
0.0
  0
SPLINE
  5
595
100
AcDbEntity
  8
0
100
AcDbSpline
 62
7
  6
BYLAYER
 70
0
 71
3
 72
8
 73
4
 74
0
 42
0.0000001
 43
0.0000001
 44
0.0000000001
 40
0.0
 40
0.0
 40
0.0
 40
0.0
 40
1.0
 40
1.0
 40
1.0
 40
1.0
 10
231.4734002964
 20
206.7334168199
 30
0.0
 10
231.511430088
 20
206.6918912892
 30
0.0
 10
231.5578712672
 20
206.6563168095
 30
0.0
 10
231.6089393363
 20
206.6325957837
 30
0.0
  0
SPLINE
  5
596
100
AcDbEntity
  8
0
100
AcDbSpline
 62
7
  6
BYLAYER
 70
0
 71
3
 72
9
 73
5
 74
0
 42
0.0000001
 43
0.0000001
 44
0.0000000001
 40
0.0
 40
0.0
 40
0.0
 40
0.0
 40
0.2734364094
 40
1.0
 40
1.0
 40
1.0
 40
1.0
 10
231.6089393363
 20
206.6325957837
 30
0.0
 10
231.6337361385
 20
206.6210777139
 30
0.0
 10
231.7289851866
 20
206.5880099324
 30
0.0
 10
231.8310806514
 20
206.5876420415
 30
0.0
 10
231.9037062824
 20
206.5895301587
 30
0.0
  0
SPLINE
  5
597
100
AcDbEntity
  8
0
100
AcDbSpline
 62
7
  6
BYLAYER
 70
0
 71
3
 72
9
 73
5
 74
0
 42
0.0000001
 43
0.0000001
 44
0.0000000001
 40
0.0
 40
0.0
 40
0.0
 40
0.0
 40
0.4276625976
 40
1.0
 40
1.0
 40
1.0
 40
1.0
 10
231.8329958986
 20
206.5487057434
 30
0.0
 10
231.7465487834
 20
206.5464582959
 30
0.0
 10
231.5372135512
 20
206.547626656
 30
0.0
 10
231.3693960927
 20
206.7092215917
 30
0.0
 10
231.3225424276
 20
206.8150436041
 30
0.0
  0
SPLINE
  5
598
100
AcDbEntity
  8
0
100
AcDbSpline
 62
7
  6
BYLAYER
 70
0
 71
3
 72
8
 73
4
 74
0
 42
0.0000001
 43
0.0000001
 44
0.0000000001
 40
0.0
 40
0.0
 40
0.0
 40
0.0
 40
1.0
 40
1.0
 40
1.0
 40
1.0
 10
231.3225424276
 20
206.8150436041
 30
0.0
 10
231.297217145
 20
206.8722423817
 30
0.0
 10
231.2874410291
 20
206.9362895339
 30
0.0
 10
231.2842734819
 20
206.9987638225
 30
0.0
  0
SPLINE
  5
599
100
AcDbEntity
  8
0
100
AcDbSpline
 62
7
  6
BYLAYER
 70
0
 71
3
 72
9
 73
5
 74
0
 42
0.0000001
 43
0.0000001
 44
0.0000000001
 40
0.0
 40
0.0
 40
0.0
 40
0.0
 40
0.3198585139
 40
1.0
 40
1.0
 40
1.0
 40
1.0
 10
234.8328359348
 20
206.8444788237
 30
0.0
 10
234.8369168297
 20
206.8241990374
 30
0.0
 10
234.8508395353
 20
206.7613090608
 30
0.0
 10
234.8169821934
 20
206.6884826781
 30
0.0
 10
234.7788905992
 20
206.6664852464
 30
0.0
  0
SPLINE
  5
59A
100
AcDbEntity
  8
0
100
AcDbSpline
 62
7
  6
BYLAYER
 70
0
 71
3
 72
9
 73
5
 74
0
 42
0.0000001
 43
0.0000001
 44
0.0000000001
 40
0.0
 40
0.0
 40
0.0
 40
0.0
 40
0.7346806506
 40
1.0
 40
1.0
 40
1.0
 40
1.0
 10
91.1038394052
 20
510.2954043696
 30
0.0
 10
91.183898742
 20
510.3416265076
 30
0.0
 10
91.3108811578
 20
510.3783685775
 30
0.0
 10
91.4367983065
 20
510.3744137679
 30
0.0
 10
91.4700331114
 20
510.3712505759
 30
0.0
  0
SPLINE
  5
59B
100
AcDbEntity
  8
0
100
AcDbSpline
 62
7
  6
BYLAYER
 70
0
 71
3
 72
9
 73
5
 74
0
 42
0.0000001
 43
0.0000001
 44
0.0000000001
 40
0.0
 40
0.0
 40
0.0
 40
0.0
 40
0.2272133977
 40
1.0
 40
1.0
 40
1.0
 40
1.0
 10
91.4700331114
 20
510.3712505759
 30
0.0
 10
91.5093959854
 20
510.3675041321
 30
0.0
 10
91.6816718358
 20
510.3382902257
 30
0.0
 10
91.8415421661
 20
510.2611548528
 30
0.0
 10
91.9593041501
 20
510.1962082225
 30
0.0
  0
SPLINE
  5
59C
100
AcDbEntity
  8
0
100
AcDbSpline
 62
7
  6
BYLAYER
 70
0
 71
3
 72
9
 73
5
 74
0
 42
0.0000001
 43
0.0000001
 44
0.0000000001
 40
0.0
 40
0.0
 40
0.0
 40
0.0
 40
0.2133334705
 40
1.0
 40
1.0
 40
1.0
 40
1.0
 10
234.6235865738
 20
207.0079907373
 30
0.0
 10
234.6363669121
 20
207.0079144027
 30
0.0
 10
234.6964969395
 20
207.0076639625
 30
0.0
 10
234.753598229
 20
206.9712240124
 30
0.0
 10
234.7843547047
 20
206.9355152485
 30
0.0
  0
SPLINE
  5
59D
100
AcDbEntity
  8
0
100
AcDbSpline
 62
7
  6
BYLAYER
 70
0
 71
3
 72
8
 73
4
 74
0
 42
0.0000001
 43
0.0000001
 44
0.0000000001
 40
0.0
 40
0.0
 40
0.0
 40
0.0
 40
1.0
 40
1.0
 40
1.0
 40
1.0
 10
234.7843547047
 20
206.9355152485
 30
0.0
 10
234.8067917037
 20
206.9094655311
 30
0.0
 10
234.8223052953
 20
206.8772066762
 30
0.0
 10
234.8328359348
 20
206.8444788237
 30
0.0
  0
SPLINE
  5
59E
100
AcDbEntity
  8
0
100
AcDbSpline
 62
7
  6
BYLAYER
 70
0
 71
3
 72
8
 73
4
 74
0
 42
0.0000001
 43
0.0000001
 44
0.0000000001
 40
0.0
 40
0.0
 40
0.0
 40
0.0
 40
1.0
 40
1.0
 40
1.0
 40
1.0
 10
93.0753887637
 20
509.450217412
 30
0.0
 10
93.088974206
 20
509.4580606894
 30
0.0
 10
93.1039426969
 20
509.4638276496
 30
0.0
 10
93.1192415262
 20
509.4672956557
 30
0.0
  0
SPLINE
  5
59F
100
AcDbEntity
  8
0
100
AcDbSpline
 62
7
  6
BYLAYER
 70
0
 71
3
 72
9
 73
5
 74
0
 42
0.0000001
 43
0.0000001
 44
0.0000000001
 40
0.0
 40
0.0
 40
0.0
 40
0.0
 40
0.2179018441
 40
1.0
 40
1.0
 40
1.0
 40
1.0
 10
93.1192415262
 20
509.4672956557
 30
0.0
 10
93.1332528384
 20
509.4704718017
 30
0.0
 10
93.199798059
 20
509.4770659112
 30
0.0
 10
93.2635867778
 20
509.4476969844
 30
0.0
 10
93.3091655668
 20
509.4235808715
 30
0.0
  0
SPLINE
  5
5A0
100
AcDbEntity
  8
0
100
AcDbSpline
 62
7
  6
BYLAYER
 70
0
 71
3
 72
11
 73
7
 74
0
 42
0.0000001
 43
0.0000001
 44
0.0000000001
 40
0.0
 40
0.0
 40
0.0
 40
0.0
 40
0.2375778134
 40
0.4999989072
 40
0.7624206023
 40
1.0
 40
1.0
 40
1.0
 40
1.0
 10
395.9872022635
 20
351.7408556242
 30
0.0
 10
396.2686177515
 20
351.5783613076
 30
0.0
 10
396.7978035486
 20
351.127980367
 30
0.0
 10
397.4225679093
 20
350.2833798666
 30
0.0
 10
397.8416364736
 20
349.320017702
 30
0.0
 10
397.9670898487
 20
348.6365370304
 30
0.0
 10
397.9671094939
 20
348.3115747436
 30
0.0
  0
SPLINE
  5
5A1
100
AcDbEntity
  8
0
100
AcDbSpline
 62
7
  6
BYLAYER
 70
0
 71
3
 72
9
 73
5
 74
0
 42
0.0000001
 43
0.0000001
 44
0.0000000001
 40
0.0
 40
0.0
 40
0.0
 40
0.0
 40
0.5399170214
 40
1.0
 40
1.0
 40
1.0
 40
1.0
 10
233.6769682445
 20
206.6428358569
 30
0.0
 10
233.6183847513
 20
206.7364295901
 30
0.0
 10
233.5087856143
 20
206.9058414773
 30
0.0
 10
233.345072609
 20
207.0508815768
 30
0.0
 10
233.254437399
 20
207.0761437888
 30
0.0
  0
SPLINE
  5
5A2
100
AcDbEntity
  8
0
100
AcDbSpline
 62
7
  6
BYLAYER
 70
0
 71
3
 72
9
 73
5
 74
0
 42
0.0000001
 43
0.0000001
 44
0.0000000001
 40
0.0
 40
0.0
 40
0.0
 40
0.0
 40
0.2754214789
 40
1.0
 40
1.0
 40
1.0
 40
1.0
 10
233.254437399
 20
207.0761437888
 30
0.0
 10
233.2377287501
 20
207.0808008909
 30
0.0
 10
233.1752652406
 20
207.0923712656
 30
0.0
 10
233.110253127
 20
207.0727985977
 30
0.0
 10
233.0707353834
 20
207.0499801143
 30
0.0
  0
SPLINE
  5
5A3
100
AcDbEntity
  8
0
100
AcDbSpline
 62
7
  6
BYLAYER
 70
0
 71
3
 72
9
 73
5
 74
0
 42
0.0000001
 43
0.0000001
 44
0.0000000001
 40
0.0
 40
0.0
 40
0.0
 40
0.0
 40
0.7711315595
 40
1.0
 40
1.0
 40
1.0
 40
1.0
 10
232.8834590103
 20
206.4413341302
 30
0.0
 10
232.8883657589
 20
206.5049917391
 30
0.0
 10
232.8943991628
 20
206.5887345429
 30
0.0
 10
232.9229587846
 20
206.6669753985
 30
0.0
 10
232.931221127
 20
206.6840285855
 30
0.0
  0
SPLINE
  5
5A4
100
AcDbEntity
  8
0
100
AcDbSpline
 62
7
  6
BYLAYER
 70
0
 71
3
 72
8
 73
4
 74
0
 42
0.0000001
 43
0.0000001
 44
0.0000000001
 40
0.0
 40
0.0
 40
0.0
 40
0.0
 40
1.0
 40
1.0
 40
1.0
 40
1.0
 10
232.931221127
 20
206.6840285855
 30
0.0
 10
232.9403542335
 20
206.7028789995
 30
0.0
 10
232.9516304071
 20
206.7209251211
 30
0.0
 10
232.9651664239
 20
206.7369103641
 30
0.0
  0
SPLINE
  5
5A5
100
AcDbEntity
  8
0
100
AcDbSpline
 62
7
  6
BYLAYER
 70
0
 71
3
 72
8
 73
4
 74
0
 42
0.0000001
 43
0.0000001
 44
0.0000000001
 40
0.0
 40
0.0
 40
0.0
 40
0.0
 40
1.0
 40
1.0
 40
1.0
 40
1.0
 10
232.9651664239
 20
206.7369103641
 30
0.0
 10
232.979585533
 20
206.7539384874
 30
0.0
 10
232.9969975135
 20
206.7689273561
 30
0.0
 10
233.0163198085
 20
206.7800860572
 30
0.0
  0
SPLINE
  5
5A6
100
AcDbEntity
  8
0
100
AcDbSpline
 62
7
  6
BYLAYER
 70
0
 71
3
 72
8
 73
4
 74
0
 42
0.0000001
 43
0.0000001
 44
0.0000000001
 40
0.0
 40
0.0
 40
0.0
 40
0.0
 40
1.0
 40
1.0
 40
1.0
 40
1.0
 10
95.3369103743
 20
507.4258431965
 30
0.0
 10
95.3207808636
 20
507.4165308104
 30
0.0
 10
95.3055409138
 20
507.4055321082
 30
0.0
 10
95.2914699764
 20
507.3933300441
 30
0.0
  0
SPLINE
  5
5A7
100
AcDbEntity
  8
0
100
AcDbSpline
 62
7
  6
BYLAYER
 70
0
 71
3
 72
9
 73
5
 74
0
 42
0.0000001
 43
0.0000001
 44
0.0000000001
 40
0.0
 40
0.0
 40
0.0
 40
0.0
 40
0.2292195135
 40
1.0
 40
1.0
 40
1.0
 40
1.0
 10
95.2914699764
 20
507.3933300441
 30
0.0
 10
95.2610956489
 20
507.366989973
 30
0.0
 10
95.1499645124
 20
507.2267014187
 30
0.0
 10
95.1224124918
 20
507.0437659891
 30
0.0
 10
95.1064948558
 20
506.9095135755
 30
0.0
  0
SPLINE
  5
5A8
100
AcDbEntity
  8
0
100
AcDbSpline
 62
7
  6
BYLAYER
 70
0
 71
3
 72
9
 73
5
 74
0
 42
0.0000001
 43
0.0000001
 44
0.0000000001
 40
0.0
 40
0.0
 40
0.0
 40
0.0
 40
0.4672054065
 40
1.0
 40
1.0
 40
1.0
 40
1.0
 10
96.8950317356
 20
504.1690673416
 30
0.0
 10
96.9538192562
 20
504.2030081893
 30
0.0
 10
97.0667686474
 20
504.3043156714
 30
0.0
 10
97.1099353807
 20
504.4519455569
 30
0.0
 10
97.1140241494
 20
504.5292490928
 30
0.0
  0
SPLINE
  5
5A9
100
AcDbEntity
  8
0
100
AcDbSpline
 62
7
  6
BYLAYER
 70
0
 71
3
 72
9
 73
5
 74
0
 42
0.0000001
 43
0.0000001
 44
0.0000000001
 40
0.0
 40
0.0
 40
0.0
 40
0.0
 40
0.2316795299
 40
1.0
 40
1.0
 40
1.0
 40
1.0
 10
395.8559280003
 20
347.840858003
 30
0.0
 10
395.8511224061
 20
347.9466659509
 30
0.0
 10
395.7948241888
 20
348.4015280555
 30
0.0
 10
395.621032498
 20
348.8376434745
 30
0.0
 10
395.4454050806
 20
349.141837396
 30
0.0
  0
SPLINE
  5
5AA
100
AcDbEntity
  8
0
100
AcDbSpline
 62
7
  6
BYLAYER
 70
0
 71
3
 72
9
 73
5
 74
0
 42
0.0000001
 43
0.0000001
 44
0.0000000001
 40
0.0
 40
0.0
 40
0.0
 40
0.0
 40
0.2646674827
 40
1.0
 40
1.0
 40
1.0
 40
1.0
 10
395.4454050806
 20
349.141837396
 30
0.0
 10
395.3849329137
 20
349.2465776799
 30
0.0
 10
395.1361085715
 20
349.6293286067
 30
0.0
 10
394.8070648105
 20
349.9668032383
 30
0.0
 10
394.5239825798
 20
350.1478413949
 30
0.0
  0
SPLINE
  5
5AB
100
AcDbEntity
  8
0
100
AcDbSpline
 62
7
  6
BYLAYER
 70
0
 71
3
 72
8
 73
4
 74
0
 42
0.0000001
 43
0.0000001
 44
0.0000000001
 40
0.0
 40
0.0
 40
0.0
 40
0.0
 40
1.0
 40
1.0
 40
1.0
 40
1.0
 10
234.7621255511
 20
206.8036544083
 30
0.0
 10
234.7512767896
 20
206.8373709426
 30
0.0
 10
234.7350038601
 20
206.8705645018
 30
0.0
 10
234.7115427776
 20
206.8970989684
 30
0.0
  0
SPLINE
  5
5AC
100
AcDbEntity
  8
0
100
AcDbSpline
 62
7
  6
BYLAYER
 70
0
 71
3
 72
8
 73
4
 74
0
 42
0.0000001
 43
0.0000001
 44
0.0000000001
 40
0.0
 40
0.0
 40
0.0
 40
0.0
 40
1.0
 40
1.0
 40
1.0
 40
1.0
 10
234.7115427776
 20
206.8970989684
 30
0.0
 10
234.6857639673
 20
206.9262547833
 30
0.0
 10
234.6516065599
 20
206.9514248283
 30
0.0
 10
234.6139212096
 20
206.9611419765
 30
0.0
  0
SPLINE
  5
5AD
100
AcDbEntity
  8
0
100
AcDbSpline
 62
7
  6
BYLAYER
 70
0
 71
3
 72
8
 73
4
 74
0
 42
0.0000001
 43
0.0000001
 44
0.0000000001
 40
0.0
 40
0.0
 40
0.0
 40
0.0
 40
1.0
 40
1.0
 40
1.0
 40
1.0
 10
234.6139212096
 20
206.9611419765
 30
0.0
 10
234.5941216323
 20
206.9662472873
 30
0.0
 10
234.5733230125
 20
206.9670441967
 30
0.0
 10
234.5528761901
 20
206.967166322
 30
0.0
  0
SPLINE
  5
5AE
100
AcDbEntity
  8
0
100
AcDbSpline
 62
7
  6
BYLAYER
 70
0
 71
3
 72
9
 73
5
 74
0
 42
0.0000001
 43
0.0000001
 44
0.0000000001
 40
0.0
 40
0.0
 40
0.0
 40
0.0
 40
0.2207970751
 40
1.0
 40
1.0
 40
1.0
 40
1.0
 10
83.3014538347
 20
511.6734923774
 30
0.0
 10
83.3263299654
 20
511.6878552154
 30
0.0
 10
83.4186029352
 20
511.7881319703
 30
0.0
 10
83.4188237564
 20
511.9312407682
 30
0.0
 10
83.4215072367
 20
512.0325762997
 30
0.0
  0
SPLINE
  5
5AF
100
AcDbEntity
  8
0
100
AcDbSpline
 62
7
  6
BYLAYER
 70
0
 71
3
 72
9
 73
5
 74
0
 42
0.0000001
 43
0.0000001
 44
0.0000000001
 40
0.0
 40
0.0
 40
0.0
 40
0.0
 40
0.5658163023
 40
1.0
 40
1.0
 40
1.0
 40
1.0
 10
228.7142497049
 20
215.5008074985
 30
0.0
 10
228.7342663933
 20
215.3965090628
 30
0.0
 10
228.7563642812
 20
215.1959823592
 30
0.0
 10
228.6241946925
 20
215.0349541424
 30
0.0
 10
228.5536180534
 20
214.9942067872
 30
0.0
  0
SPLINE
  5
5B0
100
AcDbEntity
  8
0
100
AcDbSpline
 62
7
  6
BYLAYER
 70
0
 71
3
 72
9
 73
5
 74
0
 42
0.0000001
 43
0.0000001
 44
0.0000000001
 40
0.0
 40
0.0
 40
0.0
 40
0.0
 40
0.7280947237
 40
1.0
 40
1.0
 40
1.0
 40
1.0
 10
228.1221595454
 20
215.9632450588
 30
0.0
 10
228.1789152259
 20
215.9626471243
 30
0.0
 10
228.2583260536
 20
215.9604991178
 30
0.0
 10
228.3322400993
 20
215.9343273151
 30
0.0
 10
228.3517489309
 20
215.9260390644
 30
0.0
  0
SPLINE
  5
5B1
100
AcDbEntity
  8
0
100
AcDbSpline
 62
7
  6
BYLAYER
 70
0
 71
3
 72
9
 73
5
 74
0
 42
0.0000001
 43
0.0000001
 44
0.0000000001
 40
0.0
 40
0.0
 40
0.0
 40
0.0
 40
0.2284698475
 40
1.0
 40
1.0
 40
1.0
 40
1.0
 10
228.3517489309
 20
215.9260390644
 30
0.0
 10
228.3705893273
 20
215.9180347957
 30
0.0
 10
228.4508427206
 20
215.8779286189
 30
0.0
 10
228.5215417999
 20
215.819394233
 30
0.0
 10
228.5676309363
 20
215.7678743774
 30
0.0
  0
SPLINE
  5
5B2
100
AcDbEntity
  8
0
100
AcDbSpline
 62
7
  6
BYLAYER
 70
0
 71
3
 72
8
 73
4
 74
0
 42
0.0000001
 43
0.0000001
 44
0.0000000001
 40
0.0
 40
0.0
 40
0.0
 40
0.0
 40
1.0
 40
1.0
 40
1.0
 40
1.0
 10
228.5676309363
 20
215.7678743774
 30
0.0
 10
228.6353414778
 20
215.6921854495
 30
0.0
 10
228.682547855
 20
215.5972881906
 30
0.0
 10
228.7142497049
 20
215.5008074985
 30
0.0
  0
SPLINE
  5
5B3
100
AcDbEntity
  8
0
100
AcDbSpline
 62
7
  6
BYLAYER
 70
0
 71
3
 72
9
 73
5
 74
0
 42
0.0000001
 43
0.0000001
 44
0.0000000001
 40
0.0
 40
0.0
 40
0.0
 40
0.0
 40
0.3129503822
 40
1.0
 40
1.0
 40
1.0
 40
1.0
 10
236.695122236
 20
204.9814400245
 30
0.0
 10
236.6154454168
 20
205.0596908165
 30
0.0
 10
236.3829197764
 20
205.3013738017
 30
0.0
 10
235.9585594214
 20
205.5436646046
 30
0.0
 10
235.7462326916
 20
205.4210784443
 30
0.0
  0
SPLINE
  5
5B4
100
AcDbEntity
  8
0
100
AcDbSpline
 62
7
  6
BYLAYER
 70
0
 71
3
 72
9
 73
5
 74
0
 42
0.0000001
 43
0.0000001
 44
0.0000000001
 40
0.0
 40
0.0
 40
0.0
 40
0.0
 40
0.4570651603
 40
1.0
 40
1.0
 40
1.0
 40
1.0
 10
236.7287322368
 20
203.7230496093
 30
0.0
 10
236.6354919047
 20
203.7349092673
 30
0.0
 10
236.4292615309
 20
203.7655742258
 30
0.0
 10
236.250615929
 20
203.8816889623
 30
0.0
 10
236.1672060892
 20
203.9559082449
 30
0.0
  0
SPLINE
  5
5B5
100
AcDbEntity
  8
0
100
AcDbSpline
 62
7
  6
BYLAYER
 70
0
 71
3
 72
8
 73
4
 74
0
 42
0.0000001
 43
0.0000001
 44
0.0000000001
 40
0.0
 40
0.0
 40
0.0
 40
0.0
 40
1.0
 40
1.0
 40
1.0
 40
1.0
 10
236.1672060892
 20
203.9559082449
 30
0.0
 10
236.0882868459
 20
204.0261317298
 30
0.0
 10
236.019669175
 20
204.109738957
 30
0.0
 10
235.9658664938
 20
204.200650212
 30
0.0
  0
SPLINE
  5
5B6
100
AcDbEntity
  8
0
100
AcDbSpline
 62
7
  6
BYLAYER
 70
0
 71
3
 72
9
 73
5
 74
0
 42
0.0000001
 43
0.0000001
 44
0.0000000001
 40
0.0
 40
0.0
 40
0.0
 40
0.0
 40
0.5855528432
 40
1.0
 40
1.0
 40
1.0
 40
1.0
 10
235.9658664938
 20
204.200650212
 30
0.0
 10
235.8754718233
 20
204.3533915398
 30
0.0
 10
235.7855300794
 20
204.6411852334
 30
0.0
 10
235.8630973023
 20
205.0001600258
 30
0.0
 10
235.9718866662
 20
205.0629754897
 30
0.0
  0
SPLINE
  5
5B7
100
AcDbEntity
  8
0
100
AcDbSpline
 62
7
  6
BYLAYER
 70
0
 71
3
 72
8
 73
4
 74
0
 42
0.0000001
 43
0.0000001
 44
0.0000000001
 40
0.0
 40
0.0
 40
0.0
 40
0.0
 40
1.0
 40
1.0
 40
1.0
 40
1.0
 10
82.8484553422
 20
516.5366855181
 30
0.0
 10
82.8957235108
 20
516.56406687
 30
0.0
 10
82.9585056627
 20
516.5583669134
 30
0.0
 10
83.0119919495
 20
516.5472657732
 30
0.0
  0
SPLINE
  5
5B8
100
AcDbEntity
  8
0
100
AcDbSpline
 62
7
  6
BYLAYER
 70
0
 71
3
 72
8
 73
4
 74
0
 42
0.0000001
 43
0.0000001
 44
0.0000000001
 40
0.0
 40
0.0
 40
0.0
 40
0.0
 40
1.0
 40
1.0
 40
1.0
 40
1.0
 10
83.0119919495
 20
516.5472657732
 30
0.0
 10
83.0998226778
 20
516.5290364048
 30
0.0
 10
83.1814643132
 20
516.4862645048
 30
0.0
 10
83.2601972424
 20
516.4432799431
 30
0.0
  0
SPLINE
  5
5B9
100
AcDbEntity
  8
0
100
AcDbSpline
 62
7
  6
BYLAYER
 70
0
 71
3
 72
9
 73
5
 74
0
 42
0.0000001
 43
0.0000001
 44
0.0000000001
 40
0.0
 40
0.0
 40
0.0
 40
0.0
 40
0.2142593685
 40
1.0
 40
1.0
 40
1.0
 40
1.0
 10
97.0606818008
 20
505.3612936822
 30
0.0
 10
97.0811731424
 20
505.3731236526
 30
0.0
 10
97.1570226031
 20
505.460660195
 30
0.0
 10
97.1572669351
 20
505.5811303207
 30
0.0
 10
97.1587709374
 20
505.6678878904
 30
0.0
  0
SPLINE
  5
5BA
100
AcDbEntity
  8
0
100
AcDbSpline
 62
7
  6
BYLAYER
 70
0
 71
3
 72
11
 73
7
 74
0
 42
0.0000001
 43
0.0000001
 44
0.0000000001
 40
0.0
 40
0.0
 40
0.0
 40
0.0
 40
0.3056355144
 40
0.5904523837
 40
0.8169189938
 40
1.0
 40
1.0
 40
1.0
 40
1.0
 10
237.4669475982
 20
208.8669324682
 30
0.0
 10
237.3902260654
 20
208.974757961
 30
0.0
 10
237.243669423
 20
209.1846251622
 30
0.0
 10
236.9929917553
 20
209.4381703759
 30
0.0
 10
236.7038043735
 20
209.5657080433
 30
0.0
 10
236.5187953743
 20
209.5207775852
 30
0.0
 10
236.450144261
 20
209.4811429514
 30
0.0
  0
SPLINE
  5
5BB
100
AcDbEntity
  8
0
100
AcDbSpline
 62
7
  6
BYLAYER
 70
0
 71
3
 72
9
 73
5
 74
0
 42
0.0000001
 43
0.0000001
 44
0.0000000001
 40
0.0
 40
0.0
 40
0.0
 40
0.0
 40
0.2677274348
 40
1.0
 40
1.0
 40
1.0
 40
1.0
 10
236.0678560173
 20
208.1666697177
 30
0.0
 10
236.0893608103
 20
208.217607822
 30
0.0
 10
236.1693053169
 20
208.404657365
 30
0.0
 10
236.2764991447
 20
208.6052233891
 30
0.0
 10
236.4074743099
 20
208.680827794
 30
0.0
  0
SPLINE
  5
5BC
100
AcDbEntity
  8
0
100
AcDbSpline
 62
7
  6
BYLAYER
 70
0
 71
3
 72
11
 73
7
 74
0
 42
0.0000001
 43
0.0000001
 44
0.0000000001
 40
0.0
 40
0.0
 40
0.0
 40
0.0
 40
0.2372546155
 40
0.4999990758
 40
0.7627440402
 40
1.0
 40
1.0
 40
1.0
 40
1.0
 10
244.5364557568
 20
209.7558690902
 30
0.0
 10
244.9380213009
 20
209.5239979905
 30
0.0
 10
245.6979442598
 20
208.8844776928
 30
0.0
 10
246.5845529803
 20
207.6723597723
 30
0.0
 10
247.1909804755
 20
206.2984753133
 30
0.0
 10
247.3648666247
 20
205.3206005431
 30
0.0
 10
247.3648946574
 20
204.8568964036
 30
0.0
  0
SPLINE
  5
5BD
100
AcDbEntity
  8
0
100
AcDbSpline
 62
7
  6
BYLAYER
 70
0
 71
3
 72
11
 73
7
 74
0
 42
0.0000001
 43
0.0000001
 44
0.0000000001
 40
0.0
 40
0.0
 40
0.0
 40
0.0
 40
0.2372523758
 40
0.4999990758
 40
0.7627462798
 40
1.0
 40
1.0
 40
1.0
 40
1.0
 10
406.4674267367
 20
359.2881836937
 30
0.0
 10
406.9325638082
 20
359.0196427555
 30
0.0
 10
407.8127946518
 20
358.2789244246
 30
0.0
 10
408.8397516799
 20
356.8749559622
 30
0.0
 10
409.5421535633
 20
355.2836010601
 30
0.0
 10
409.7435269148
 20
354.1509372667
 30
0.0
 10
409.7435269148
 20
353.6138432341
 30
0.0
  0
SPLINE
  5
5BE
100
AcDbEntity
  8
0
100
AcDbSpline
 62
7
  6
BYLAYER
 70
0
 71
3
 72
10
 73
6
 74
0
 42
0.0000001
 43
0.0000001
 44
0.0000000001
 40
0.0
 40
0.0
 40
0.0
 40
0.0
 40
0.5656648658
 40
0.8010350349
 40
1.0
 40
1.0
 40
1.0
 40
1.0
 10
228.6435393212
 20
215.4599830831
 30
0.0
 10
228.5963938634
 20
215.6034645017
 30
0.0
 10
228.4687173399
 20
215.7981496132
 30
0.0
 10
228.222351941
 20
215.9186760529
 30
0.0
 10
228.1045684504
 20
215.9218610191
 30
0.0
 10
228.0514491617
 20
215.9224206434
 30
0.0
  0
SPLINE
  5
5BF
100
AcDbEntity
  8
0
100
AcDbSpline
 62
7
  6
BYLAYER
 70
0
 71
3
 72
9
 73
5
 74
0
 42
0.0000001
 43
0.0000001
 44
0.0000000001
 40
0.0
 40
0.0
 40
0.0
 40
0.0
 40
0.2198309148
 40
1.0
 40
1.0
 40
1.0
 40
1.0
 10
86.4849912165
 20
509.8366147451
 30
0.0
 10
86.5095285104
 20
509.8507814896
 30
0.0
 10
86.6005440489
 20
509.950529166
 30
0.0
 10
86.6007405802
 20
510.0921068308
 30
0.0
 10
86.6035009999
 20
510.1926223918
 30
0.0
  0
SPLINE
  5
5C0
100
AcDbEntity
  8
0
100
AcDbSpline
 62
7
  6
BYLAYER
 70
0
 71
3
 72
9
 73
5
 74
0
 42
0.0000001
 43
0.0000001
 44
0.0000000001
 40
0.0
 40
0.0
 40
0.0
 40
0.0
 40
0.4740641362
 40
1.0
 40
1.0
 40
1.0
 40
1.0
 10
223.4930143613
 20
217.2918143035
 30
0.0
 10
223.6301885362
 20
217.200914087
 30
0.0
 10
223.9137999461
 20
216.9948048296
 30
0.0
 10
224.11814304
 20
216.7059631805
 30
0.0
 10
224.206386518
 20
216.5461415214
 30
0.0
  0
SPLINE
  5
5C1
100
AcDbEntity
  8
0
100
AcDbSpline
 62
7
  6
BYLAYER
 70
0
 71
3
 72
9
 73
5
 74
0
 42
0.0000001
 43
0.0000001
 44
0.0000000001
 40
0.0
 40
0.0
 40
0.0
 40
0.0
 40
0.5247711932
 40
1.0
 40
1.0
 40
1.0
 40
1.0
 10
224.206386518
 20
216.5461415214
 30
0.0
 10
224.2920576736
 20
216.3909787091
 30
0.0
 10
224.4207189452
 20
216.0717772527
 30
0.0
 10
224.445895369
 20
215.7322581139
 30
0.0
 10
224.4527666101
 20
215.5718954332
 30
0.0
  0
SPLINE
  5
5C2
100
AcDbEntity
  8
0
100
AcDbSpline
 62
7
  6
BYLAYER
 70
0
 71
3
 72
10
 73
6
 74
0
 42
0.0000001
 43
0.0000001
 44
0.0000000001
 40
0.0
 40
0.0
 40
0.0
 40
0.0
 40
0.2142084671
 40
0.4636064758
 40
1.0
 40
1.0
 40
1.0
 40
1.0
 10
84.9753702813
 20
510.7408722344
 30
0.0
 10
85.0109490161
 20
510.7614136589
 30
0.0
 10
85.0791593716
 20
510.8255831146
 30
0.0
 10
85.1350749064
 20
511.0125513882
 30
0.0
 10
85.1754417175
 20
511.1563789121
 30
0.0
 10
85.2006063513
 20
511.2561279206
 30
0.0
  0
SPLINE
  5
5C3
100
AcDbEntity
  8
0
100
AcDbSpline
 62
7
  6
BYLAYER
 70
0
 71
3
 72
9
 73
5
 74
0
 42
0.0000001
 43
0.0000001
 44
0.0000000001
 40
0.0
 40
0.0
 40
0.0
 40
0.0
 40
0.5543875083
 40
1.0
 40
1.0
 40
1.0
 40
1.0
 10
223.4223039776
 20
217.2509898881
 30
0.0
 10
223.2863919
 20
217.3202804402
 30
0.0
 10
223.0228001808
 20
217.4528956491
 30
0.0
 10
222.7411594758
 20
217.3569845784
 30
0.0
 10
222.6349661378
 20
217.2956704288
 30
0.0
  0
SPLINE
  5
5C4
100
AcDbEntity
  8
0
100
AcDbSpline
 62
7
  6
BYLAYER
 70
0
 71
3
 72
11
 73
7
 74
0
 42
0.0000001
 43
0.0000001
 44
0.0000000001
 40
0.0
 40
0.0
 40
0.0
 40
0.0
 40
0.2350863528
 40
0.4947228304
 40
0.7604703036
 40
1.0
 40
1.0
 40
1.0
 40
1.0
 10
224.3820562264
 20
215.5310710168
 30
0.0
 10
224.3751637806
 20
215.6919285786
 30
0.0
 10
224.3498001136
 20
216.0331783618
 30
0.0
 10
224.1507319753
 20
216.5220389558
 30
0.0
 10
223.8418617621
 20
216.9543843269
 30
0.0
 10
223.5590525939
 20
217.1603716734
 30
0.0
 10
223.4223039776
 20
217.2509898881
 30
0.0
  0
SPLINE
  5
5C5
100
AcDbEntity
  8
0
100
AcDbSpline
 62
7
  6
BYLAYER
 70
0
 71
3
 72
8
 73
4
 74
0
 42
0.0000001
 43
0.0000001
 44
0.0000000001
 40
0.0
 40
0.0
 40
0.0
 40
0.0
 40
1.0
 40
1.0
 40
1.0
 40
1.0
 10
222.5643454593
 20
216.6067934522
 30
0.0
 10
222.6284199269
 20
216.6762732635
 30
0.0
 10
222.6940362558
 20
216.7483392111
 30
0.0
 10
222.7758883978
 20
216.795596046
 30
0.0
  0
SPLINE
  5
5C6
100
AcDbEntity
  8
0
100
AcDbSpline
 62
7
  6
BYLAYER
 70
0
 71
3
 72
9
 73
5
 74
0
 42
0.0000001
 43
0.0000001
 44
0.0000000001
 40
0.0
 40
0.0
 40
0.0
 40
0.0
 40
0.4485981966
 40
1.0
 40
1.0
 40
1.0
 40
1.0
 10
213.1432437604
 20
224.2553384219
 30
0.0
 10
213.3027732289
 20
224.3474389223
 30
0.0
 10
213.759446061
 20
224.3295199427
 30
0.0
 10
214.1248710966
 20
224.1508509844
 30
0.0
 10
214.3214690833
 20
224.0385316984
 30
0.0
  0
SPLINE
  5
5C7
100
AcDbEntity
  8
0
100
AcDbSpline
 62
7
  6
BYLAYER
 70
0
 71
3
 72
9
 73
5
 74
0
 42
0.0000001
 43
0.0000001
 44
0.0000000001
 40
0.0
 40
0.0
 40
0.0
 40
0.0
 40
0.2324808069
 40
1.0
 40
1.0
 40
1.0
 40
1.0
 10
214.3214690833
 20
224.0385316984
 30
0.0
 10
214.4389405649
 20
223.9714185343
 30
0.0
 10
214.928044386
 20
223.6529563143
 30
0.0
 10
215.3394379567
 20
223.2342257365
 30
0.0
 10
215.6556199118
 20
222.91874297
 30
0.0
  0
SPLINE
  5
5C8
100
AcDbEntity
  8
0
100
AcDbSpline
 62
7
  6
BYLAYER
 70
0
 71
3
 72
9
 73
5
 74
0
 42
0.0000001
 43
0.0000001
 44
0.0000000001
 40
0.0
 40
0.0
 40
0.0
 40
0.0
 40
0.4999988718
 40
1.0
 40
1.0
 40
1.0
 40
1.0
 10
104.6701521227
 20
508.1854347411
 30
0.0
 10
105.2997668495
 20
507.8218839794
 30
0.0
 10
106.2945661961
 20
506.6738039336
 30
0.0
 10
106.791437345
 20
505.2382462356
 30
0.0
 10
106.7914812982
 20
504.5112052261
 30
0.0
  0
SPLINE
  5
5C9
100
AcDbEntity
  8
0
100
AcDbSpline
 62
7
  6
BYLAYER
 70
0
 71
3
 72
12
 73
8
 74
0
 42
0.0000001
 43
0.0000001
 44
0.0000000001
 40
0.0
 40
0.0
 40
0.0
 40
0.0
 40
0.0903872879
 40
0.1992664239
 40
0.446702428
 40
0.7189265194
 40
1.0
 40
1.0
 40
1.0
 40
1.0
 10
214.6774464495
 20
220.1310962672
 30
0.0
 10
214.6142382831
 20
220.094603435
 30
0.0
 10
214.4336770335
 20
220.1210984296
 30
0.0
 10
214.1169962762
 20
220.2763204381
 30
0.0
 10
213.6996699418
 20
220.5819446581
 30
0.0
 10
213.2642466034
 20
221.060584313
 30
0.0
 10
212.9936010769
 20
221.416536479
 30
0.0
 10
212.8563556881
 20
221.5973004511
 30
0.0
  0
SPLINE
  5
5CA
100
AcDbEntity
  8
0
100
AcDbSpline
 62
7
  6
BYLAYER
 70
0
 71
3
 72
9
 73
5
 74
0
 42
0.0000001
 43
0.0000001
 44
0.0000000001
 40
0.0
 40
0.0
 40
0.0
 40
0.0
 40
0.4587416455
 40
1.0
 40
1.0
 40
1.0
 40
1.0
 10
215.4493875978
 20
219.165631175
 30
0.0
 10
215.5405971298
 20
219.2182906534
 30
0.0
 10
215.7025989969
 20
219.4020616806
 30
0.0
 10
215.7467075375
 20
219.6344421217
 30
0.0
 10
215.7567785141
 20
219.7582973336
 30
0.0
  0
SPLINE
  5
5CB
100
AcDbEntity
  8
0
100
AcDbSpline
 62
7
  6
BYLAYER
 70
0
 71
3
 72
9
 73
5
 74
0
 42
0.0000001
 43
0.0000001
 44
0.0000000001
 40
0.0
 40
0.0
 40
0.0
 40
0.0
 40
0.4736208269
 40
1.0
 40
1.0
 40
1.0
 40
1.0
 10
215.7567785141
 20
219.7582973336
 30
0.0
 10
215.7822104533
 20
220.0710652382
 30
0.0
 10
215.6275327729
 20
220.7487734662
 30
0.0
 10
215.2363775344
 20
221.2946789655
 30
0.0
 10
215.0057901066
 20
221.556327287
 30
0.0
  0
SPLINE
  5
5CC
100
AcDbEntity
  8
0
100
AcDbSpline
 62
7
  6
BYLAYER
 70
0
 71
3
 72
13
 73
9
 74
0
 42
0.0000001
 43
0.0000001
 44
0.0000000001
 40
0.0
 40
0.0
 40
0.0
 40
0.0
 40
0.2550363072
 40
0.5097966192
 40
0.6445200909
 40
0.7845010293
 40
0.9129130388
 40
1.0
 40
1.0
 40
1.0
 40
1.0
 10
215.0057901066
 20
221.556327287
 30
0.0
 10
214.8847080254
 20
221.6937195274
 30
0.0
 10
214.6255925623
 20
221.9528449797
 30
0.0
 10
214.2924004521
 20
222.2740619555
 30
0.0
 10
214.0383559542
 20
222.5574831226
 30
0.0
 10
213.8637856412
 20
222.7885159923
 30
0.0
 10
213.7458864443
 20
223.0194141425
 30
0.0
 10
213.794056029
 20
223.2030899281
 30
0.0
 10
213.8482121783
 20
223.2343567969
 30
0.0
  0
SPLINE
  5
5CD
100
AcDbEntity
  8
0
100
AcDbSpline
 62
7
  6
BYLAYER
 70
0
 71
3
 72
9
 73
5
 74
0
 42
0.0000001
 43
0.0000001
 44
0.0000000001
 40
0.0
 40
0.0
 40
0.0
 40
0.0
 40
0.2356719109
 40
1.0
 40
1.0
 40
1.0
 40
1.0
 10
221.3460732744
 20
217.2862216819
 30
0.0
 10
221.3432442707
 20
217.3439331559
 30
0.0
 10
221.332925919
 20
217.588654777
 30
0.0
 10
221.2816283356
 20
217.8333033587
 30
0.0
 10
221.2138150067
 20
218.0079968238
 30
0.0
  0
SPLINE
  5
5CE
100
AcDbEntity
  8
0
100
AcDbSpline
 62
7
  6
BYLAYER
 70
0
 71
3
 72
11
 73
7
 74
0
 42
0.0000001
 43
0.0000001
 44
0.0000000001
 40
0.0
 40
0.0
 40
0.0
 40
0.0
 40
0.3008000317
 40
0.5823923171
 40
0.8160721372
 40
1.0
 40
1.0
 40
1.0
 40
1.0
 10
221.2138150067
 20
218.0079968238
 30
0.0
 10
221.1395984805
 20
218.1991855229
 30
0.0
 10
220.9401661048
 20
218.5521934435
 30
0.0
 10
220.5317991889
 20
218.9346395964
 30
0.0
 10
220.1004736174
 20
219.1734047141
 30
0.0
 10
219.7914184244
 20
219.1323801221
 30
0.0
 10
219.6828136297
 20
219.0696816378
 30
0.0
  0
SPLINE
  5
5CF
100
AcDbEntity
  8
0
100
AcDbSpline
 62
7
  6
BYLAYER
 70
0
 71
3
 72
9
 73
5
 74
0
 42
0.0000001
 43
0.0000001
 44
0.0000000001
 40
0.0
 40
0.0
 40
0.0
 40
0.0
 40
0.2211679369
 40
1.0
 40
1.0
 40
1.0
 40
1.0
 10
98.4683384721
 20
502.9198501423
 30
0.0
 10
98.4928546715
 20
502.934004253
 30
0.0
 10
98.5854773044
 20
503.0305846688
 30
0.0
 10
98.5864616111
 20
503.1723296299
 30
0.0
 10
98.5890108417
 20
503.2719847554
 30
0.0
  0
SPLINE
  5
5D0
100
AcDbEntity
  8
0
100
AcDbSpline
 62
7
  6
BYLAYER
 70
0
 71
3
 72
8
 73
4
 74
0
 42
0.0000001
 43
0.0000001
 44
0.0000000001
 40
0.0
 40
0.0
 40
0.0
 40
0.0
 40
1.0
 40
1.0
 40
1.0
 40
1.0
 10
212.9270660719
 20
221.6381248663
 30
0.0
 10
213.0767098079
 20
221.4410312055
 30
0.0
 10
213.2262391248
 20
221.2435103106
 30
0.0
 10
213.3867985701
 20
221.0552025216
 30
0.0
  0
SPLINE
  5
5D1
100
AcDbEntity
  8
0
100
AcDbSpline
 62
7
  6
BYLAYER
 70
0
 71
3
 72
9
 73
5
 74
0
 42
0.0000001
 43
0.0000001
 44
0.0000000001
 40
0.0
 40
0.0
 40
0.0
 40
0.0
 40
0.2606224375
 40
1.0
 40
1.0
 40
1.0
 40
1.0
 10
213.5446714187
 20
220.8774902946
 30
0.0
 10
213.5900552459
 20
220.8286316711
 30
0.0
 10
213.7678069356
 20
220.6447245617
 30
0.0
 10
213.9646825849
 20
220.4779866882
 30
0.0
 10
214.1223337423
 20
220.3734106676
 30
0.0
  0
SPLINE
  5
5D2
100
AcDbEntity
  8
0
100
AcDbSpline
 62
7
  6
BYLAYER
 70
0
 71
3
 72
9
 73
5
 74
0
 42
0.0000001
 43
0.0000001
 44
0.0000000001
 40
0.0
 40
0.0
 40
0.0
 40
0.0
 40
0.5414351438
 40
1.0
 40
1.0
 40
1.0
 40
1.0
 10
214.1223337423
 20
220.3734106676
 30
0.0
 10
214.2173134818
 20
220.3104069868
 30
0.0
 10
214.3948912184
 20
220.2085890565
 30
0.0
 10
214.6124936483
 20
220.132001532
 30
0.0
 10
214.7061779865
 20
220.1552734147
 30
0.0
  0
SPLINE
  5
5D3
100
AcDbEntity
  8
0
100
AcDbSpline
 62
7
  6
BYLAYER
 70
0
 71
3
 72
8
 73
4
 74
0
 42
0.0000001
 43
0.0000001
 44
0.0000000001
 40
0.0
 40
0.0
 40
0.0
 40
0.0
 40
1.0
 40
1.0
 40
1.0
 40
1.0
 10
214.7061779865
 20
220.1552734147
 30
0.0
 10
214.7208021212
 20
220.158906158
 30
0.0
 10
214.735150188
 20
220.1644057431
 30
0.0
 10
214.7481975548
 20
220.1719442018
 30
0.0
  0
SPLINE
  5
5D4
100
AcDbEntity
  8
0
100
AcDbSpline
 62
7
  6
BYLAYER
 70
0
 71
3
 72
9
 73
5
 74
0
 42
0.0000001
 43
0.0000001
 44
0.0000000001
 40
0.0
 40
0.0
 40
0.0
 40
0.0
 40
0.2140457415
 40
1.0
 40
1.0
 40
1.0
 40
1.0
 10
100.0063596235
 20
502.0331534884
 30
0.0
 10
100.0296592662
 20
502.046605348
 30
0.0
 10
100.1221852447
 20
502.1393364656
 30
0.0
 10
100.1242931358
 20
502.2795676646
 30
0.0
 10
100.1269744944
 20
502.3783200737
 30
0.0
  0
SPLINE
  5
5D5
100
AcDbEntity
  8
0
100
AcDbSpline
 62
7
  6
BYLAYER
 70
0
 71
3
 72
11
 73
7
 74
0
 42
0.0000001
 43
0.0000001
 44
0.0000000001
 40
0.0
 40
0.0
 40
0.0
 40
0.0
 40
0.1806674628
 40
0.4483599831
 40
0.7316923146
 40
1.0
 40
1.0
 40
1.0
 40
1.0
 10
213.918941233
 20
223.2751919901
 30
0.0
 10
213.8574018443
 20
223.2396743188
 30
0.0
 10
213.8193494459
 20
223.0203559048
 30
0.0
 10
213.9714093108
 20
222.7754393371
 30
0.0
 10
214.1727390691
 20
222.523012706
 30
0.0
 10
214.3213034091
 20
222.3647670295
 30
0.0
 10
214.3950343101
 20
222.289279111
 30
0.0
  0
SPLINE
  5
5D6
100
AcDbEntity
  8
0
100
AcDbSpline
 62
7
  6
BYLAYER
 70
0
 71
3
 72
8
 73
4
 74
0
 42
0.0000001
 43
0.0000001
 44
0.0000000001
 40
0.0
 40
0.0
 40
0.0
 40
0.0
 40
1.0
 40
1.0
 40
1.0
 40
1.0
 10
214.3950343101
 20
222.289279111
 30
0.0
 10
214.5220789567
 20
222.1592069728
 30
0.0
 10
214.6540211517
 20
222.0340090518
 30
0.0
 10
214.783052947
 20
221.905907923
 30
0.0
  0
SPLINE
  5
5D7
100
AcDbEntity
  8
0
100
AcDbSpline
 62
7
  6
BYLAYER
 70
0
 71
3
 72
8
 73
4
 74
0
 42
0.0000001
 43
0.0000001
 44
0.0000000001
 40
0.0
 40
0.0
 40
0.0
 40
0.0
 40
1.0
 40
1.0
 40
1.0
 40
1.0
 10
214.783052947
 20
221.905907923
 30
0.0
 10
214.8969307198
 20
221.7928515153
 30
0.0
 10
215.0082591552
 20
221.6769255017
 30
0.0
 10
215.1129475163
 20
221.5553103483
 30
0.0
  0
SPLINE
  5
5D8
100
AcDbEntity
  8
0
100
AcDbSpline
 62
7
  6
BYLAYER
 70
0
 71
3
 72
9
 73
5
 74
0
 42
0.0000001
 43
0.0000001
 44
0.0000000001
 40
0.0
 40
0.0
 40
0.0
 40
0.0
 40
0.5380763519
 40
1.0
 40
1.0
 40
1.0
 40
1.0
 10
215.2382734896
 20
221.4029924091
 30
0.0
 10
215.4427937667
 20
221.1422392267
 30
0.0
 10
215.7715870153
 20
220.6088907096
 30
0.0
 10
215.8609249831
 20
219.9689176909
 30
0.0
 10
215.8139136138
 20
219.6883378311
 30
0.0
  0
SPLINE
  5
5D9
100
AcDbEntity
  8
0
100
AcDbSpline
 62
7
  6
BYLAYER
 70
0
 71
3
 72
9
 73
5
 74
0
 42
0.0000001
 43
0.0000001
 44
0.0000000001
 40
0.0
 40
0.0
 40
0.0
 40
0.0
 40
0.2807695009
 40
1.0
 40
1.0
 40
1.0
 40
1.0
 10
215.8139136138
 20
219.6883378311
 30
0.0
 10
215.8050276023
 20
219.6353030891
 30
0.0
 10
215.7628160802
 20
219.4492857614
 30
0.0
 10
215.6394014609
 20
219.2753387067
 30
0.0
 10
215.5201081168
 20
219.2064614422
 30
0.0
  0
SPLINE
  5
5DA
100
AcDbEntity
  8
0
100
AcDbSpline
 62
7
  6
BYLAYER
 70
0
 71
3
 72
9
 73
5
 74
0
 42
0.0000001
 43
0.0000001
 44
0.0000000001
 40
0.0
 40
0.0
 40
0.0
 40
0.0
 40
0.4280136723
 40
1.0
 40
1.0
 40
1.0
 40
1.0
 10
217.0663521124
 20
219.9818112726
 30
0.0
 10
216.9582556865
 20
219.8898870548
 30
0.0
 10
216.867659199
 20
219.5269688692
 30
0.0
 10
216.9308283677
 20
219.2028067558
 30
0.0
 10
216.9931494032
 20
219.0237120555
 30
0.0
  0
SPLINE
  5
5DB
100
AcDbEntity
  8
0
100
AcDbSpline
 62
7
  6
BYLAYER
 70
0
 71
3
 72
8
 73
4
 74
0
 42
0.0000001
 43
0.0000001
 44
0.0000000001
 40
0.0
 40
0.0
 40
0.0
 40
0.0
 40
1.0
 40
1.0
 40
1.0
 40
1.0
 10
216.9931494032
 20
219.0237120555
 30
0.0
 10
217.0620861311
 20
218.8256055487
 30
0.0
 10
217.1730218065
 20
218.6385165298
 30
0.0
 10
217.3112930984
 20
218.4807841288
 30
0.0
  0
SPLINE
  5
5DC
100
AcDbEntity
  8
0
100
AcDbSpline
 62
7
  6
BYLAYER
 70
0
 71
3
 72
9
 73
5
 74
0
 42
0.0000001
 43
0.0000001
 44
0.0000000001
 40
0.0
 40
0.0
 40
0.0
 40
0.0
 40
0.5501083709
 40
1.0
 40
1.0
 40
1.0
 40
1.0
 10
217.3112930984
 20
218.4807841288
 30
0.0
 10
217.4649484813
 20
218.30550239
 30
0.0
 10
217.8260202631
 20
218.0435547124
 30
0.0
 10
218.2496744835
 20
217.9738468975
 30
0.0
 10
218.4383834307
 20
217.9468428764
 30
0.0
  0
SPLINE
  5
5DD
100
AcDbEntity
  8
0
100
AcDbSpline
 62
7
  6
BYLAYER
 70
0
 71
3
 72
8
 73
4
 74
0
 42
0.0000001
 43
0.0000001
 44
0.0000000001
 40
0.0
 40
0.0
 40
0.0
 40
0.0
 40
1.0
 40
1.0
 40
1.0
 40
1.0
 10
218.3274374187
 20
219.9954767604
 30
0.0
 10
218.2145476017
 20
220.0979129886
 30
0.0
 10
218.1015751566
 20
220.2003180115
 30
0.0
 10
217.9858224631
 20
220.2995077568
 30
0.0
  0
SPLINE
  5
5DE
100
AcDbEntity
  8
0
100
AcDbSpline
 62
7
  6
BYLAYER
 70
0
 71
3
 72
9
 73
5
 74
0
 42
0.0000001
 43
0.0000001
 44
0.0000000001
 40
0.0
 40
0.0
 40
0.0
 40
0.0
 40
0.5734121753
 40
1.0
 40
1.0
 40
1.0
 40
1.0
 10
217.9858224631
 20
220.2995077568
 30
0.0
 10
217.7216140552
 20
220.5259108223
 30
0.0
 10
217.250790747
 20
220.9099924848
 30
0.0
 10
216.5555691219
 20
220.9830768843
 30
0.0
 10
216.3313976298
 20
220.8536513208
 30
0.0
  0
SPLINE
  5
5DF
100
AcDbEntity
  8
0
100
AcDbSpline
 62
7
  6
BYLAYER
 70
0
 71
3
 72
12
 73
8
 74
0
 42
0.0000001
 43
0.0000001
 44
0.0000000001
 40
0.0
 40
0.0
 40
0.0
 40
0.0
 40
0.2191676273
 40
0.4950602165
 40
0.6491528699
 40
0.7916737608
 40
1.0
 40
1.0
 40
1.0
 40
1.0
 10
218.367673047
 20
217.906018461
 30
0.0
 10
218.1557270335
 20
217.9363476781
 30
0.0
 10
217.6691470398
 20
218.023772595
 30
0.0
 10
217.1637510928
 20
218.4649247311
 30
0.0
 10
216.907017986
 20
218.9736504671
 30
0.0
 10
216.8027122019
 20
219.4384582575
 30
0.0
 10
216.8636363582
 20
219.8704317139
 30
0.0
 10
217.0398902484
 20
219.9721792044
 30
0.0
  0
SPLINE
  5
5E0
100
AcDbEntity
  8
0
100
AcDbSpline
 62
7
  6
BYLAYER
 70
0
 71
3
 72
9
 73
5
 74
0
 42
0.0000001
 43
0.0000001
 44
0.0000000001
 40
0.0
 40
0.0
 40
0.0
 40
0.0
 40
0.2269218475
 40
1.0
 40
1.0
 40
1.0
 40
1.0
 10
216.4021095401
 20
220.8944766176
 30
0.0
 10
216.4565802557
 20
220.9259251168
 30
0.0
 10
216.7191573647
 20
221.0280208912
 30
0.0
 10
217.0166206671
 20
220.9687566825
 30
0.0
 10
217.2162018835
 20
220.8907651513
 30
0.0
  0
SPLINE
  5
5E1
100
AcDbEntity
  8
0
100
AcDbSpline
 62
7
  6
BYLAYER
 70
0
 71
3
 72
9
 73
5
 74
0
 42
0.0000001
 43
0.0000001
 44
0.0000000001
 40
0.0
 40
0.0
 40
0.0
 40
0.0
 40
0.2327096371
 40
1.0
 40
1.0
 40
1.0
 40
1.0
 10
217.2162018835
 20
220.8907651513
 30
0.0
 10
217.2812357174
 20
220.8653514957
 30
0.0
 10
217.5543328455
 20
220.7393210964
 30
0.0
 10
217.797063019
 20
220.5570431162
 30
0.0
 10
217.9741309799
 20
220.4099091256
 30
0.0
  0
SPLINE
  5
5E2
100
AcDbEntity
  8
0
100
AcDbSpline
 62
7
  6
BYLAYER
 70
0
 71
3
 72
8
 73
4
 74
0
 42
0.0000001
 43
0.0000001
 44
0.0000000001
 40
0.0
 40
0.0
 40
0.0
 40
0.0
 40
1.0
 40
1.0
 40
1.0
 40
1.0
 10
217.9741309799
 20
220.4099091256
 30
0.0
 10
218.1190161615
 20
220.2895173008
 30
0.0
 10
218.2586427386
 20
220.1628880808
 30
0.0
 10
218.3981478024
 20
220.0363011758
 30
0.0
  0
SPLINE
  5
5E3
100
AcDbEntity
  8
0
100
AcDbSpline
 62
7
  6
BYLAYER
 70
0
 71
3
 72
11
 73
7
 74
0
 42
0.0000001
 43
0.0000001
 44
0.0000000001
 40
0.0
 40
0.0
 40
0.0
 40
0.0
 40
0.2947023291
 40
0.5665615256
 40
0.806137667
 40
1.0
 40
1.0
 40
1.0
 40
1.0
 10
215.5849095281
 20
222.8779185547
 30
0.0
 10
215.3779092232
 20
223.0844611097
 30
0.0
 10
214.9844923707
 20
223.4858997439
 30
0.0
 10
214.3398777073
 20
223.9719514837
 30
0.0
 10
213.7183911805
 20
224.2813609465
 30
0.0
 10
213.2391153437
 20
224.3106897064
 30
0.0
 10
213.0725261622
 20
224.2145098414
 30
0.0
  0
SPLINE
  5
5E4
100
AcDbEntity
  8
0
100
AcDbSpline
 62
7
  6
BYLAYER
 70
0
 71
3
 72
11
 73
7
 74
0
 42
0.0000001
 43
0.0000001
 44
0.0000000001
 40
0.0
 40
0.0
 40
0.0
 40
0.0
 40
0.1893352646
 40
0.4176177936
 40
0.6936871893
 40
1.0
 40
1.0
 40
1.0
 40
1.0
 10
219.7535440565
 20
219.1105176237
 30
0.0
 10
219.8431920351
 20
219.1622680621
 30
0.0
 10
220.0821751649
 20
219.2143870312
 30
0.0
 10
220.4471967791
 20
219.0719144962
 30
0.0
 10
220.8038655876
 20
218.8053066929
 30
0.0
 10
221.0089908397
 20
218.5561110685
 30
0.0
 10
221.0987949261
 20
218.414759943
 30
0.0
  0
SPLINE
  5
5E5
100
AcDbEntity
  8
0
100
AcDbSpline
 62
7
  6
BYLAYER
 70
0
 71
3
 72
8
 73
4
 74
0
 42
0.0000001
 43
0.0000001
 44
0.0000000001
 40
0.0
 40
0.0
 40
0.0
 40
0.0
 40
1.0
 40
1.0
 40
1.0
 40
1.0
 10
221.0987949261
 20
218.414759943
 30
0.0
 10
221.1778821458
 20
218.2902771052
 30
0.0
 10
221.24487185
 20
218.1570236155
 30
0.0
 10
221.2959434726
 20
218.0186673559
 30
0.0
  0
SPLINE
  5
5E6
100
AcDbEntity
  8
0
100
AcDbSpline
 62
7
  6
BYLAYER
 70
0
 71
3
 72
9
 73
5
 74
0
 42
0.0000001
 43
0.0000001
 44
0.0000000001
 40
0.0
 40
0.0
 40
0.0
 40
0.0
 40
0.2664345373
 40
1.0
 40
1.0
 40
1.0
 40
1.0
 10
221.2959434726
 20
218.0186673559
 30
0.0
 10
221.3176027856
 20
217.9599909053
 30
0.0
 10
221.3890054601
 20
217.7356685216
 30
0.0
 10
221.408352236
 20
217.4990465064
 30
0.0
 10
221.4167836582
 20
217.3270460965
 30
0.0
  0
SPLINE
  5
5E7
100
AcDbEntity
  8
0
100
AcDbSpline
 62
7
  6
BYLAYER
 70
0
 71
3
 72
8
 73
4
 74
0
 42
0.0000001
 43
0.0000001
 44
0.0000000001
 40
0.0
 40
0.0
 40
0.0
 40
0.0
 40
1.0
 40
1.0
 40
1.0
 40
1.0
 10
99.572721924
 20
505.6887517634
 30
0.0
 10
99.5875759859
 20
505.6973268307
 30
0.0
 10
99.604096681
 20
505.7034346969
 30
0.0
 10
99.6209232805
 20
505.7067574193
 30
0.0
  0
SPLINE
  5
5E8
100
AcDbEntity
  8
0
100
AcDbSpline
 62
7
  6
BYLAYER
 70
0
 71
3
 72
8
 73
4
 74
0
 42
0.0000001
 43
0.0000001
 44
0.0000000001
 40
0.0
 40
0.0
 40
0.0
 40
0.0
 40
1.0
 40
1.0
 40
1.0
 40
1.0
 10
99.6209232805
 20
505.7067574193
 30
0.0
 10
99.6365857022
 20
505.7098502533
 30
0.0
 10
99.6528089051
 20
505.7106343844
 30
0.0
 10
99.6687366373
 20
505.709546073
 30
0.0
  0
SPLINE
  5
5E9
100
AcDbEntity
  8
0
100
AcDbSpline
 62
7
  6
BYLAYER
 70
0
 71
3
 72
8
 73
4
 74
0
 42
0.0000001
 43
0.0000001
 44
0.0000000001
 40
0.0
 40
0.0
 40
0.0
 40
0.0
 40
1.0
 40
1.0
 40
1.0
 40
1.0
 10
99.6687366373
 20
505.709546073
 30
0.0
 10
99.7227580729
 20
505.7058548919
 30
0.0
 10
99.774145849
 20
505.6813465385
 30
0.0
 10
99.8223090508
 20
505.6566029269
 30
0.0
  0
SPLINE
  5
5EA
100
AcDbEntity
  8
0
100
AcDbSpline
 62
7
  6
BYLAYER
 70
0
 71
3
 72
12
 73
8
 74
0
 42
0.0000001
 43
0.0000001
 44
0.0000000001
 40
0.0
 40
0.0
 40
0.0
 40
0.0
 40
0.2600129408
 40
0.5499744376
 40
0.688648489
 40
0.8123846716
 40
1.0
 40
1.0
 40
1.0
 40
1.0
 10
228.0190438204
 20
209.1622465327
 30
0.0
 10
228.0132593831
 20
209.3384417746
 30
0.0
 10
227.9830098629
 20
209.7137404163
 30
0.0
 10
227.7710986865
 20
210.1486420382
 30
0.0
 10
227.4973372971
 20
210.4110611486
 30
0.0
 10
227.2422950304
 20
210.5708701744
 30
0.0
 10
226.9960964599
 20
210.6071194991
 30
0.0
 10
226.8859342441
 20
210.5435176584
 30
0.0
  0
SPLINE
  5
5EB
100
AcDbEntity
  8
0
100
AcDbSpline
 62
7
  6
BYLAYER
 70
0
 71
3
 72
8
 73
4
 74
0
 42
0.0000001
 43
0.0000001
 44
0.0000000001
 40
0.0
 40
0.0
 40
0.0
 40
0.0
 40
1.0
 40
1.0
 40
1.0
 40
1.0
 10
219.7896739394
 20
218.5252290521
 30
0.0
 10
219.7666663288
 20
218.5119453663
 30
0.0
 10
219.7448219391
 20
218.4965628449
 30
0.0
 10
219.7240457595
 20
218.4800051634
 30
0.0
  0
SPLINE
  5
5EC
100
AcDbEntity
  8
0
100
AcDbSpline
 62
7
  6
BYLAYER
 70
0
 71
3
 72
8
 73
4
 74
0
 42
0.0000001
 43
0.0000001
 44
0.0000000001
 40
0.0
 40
0.0
 40
0.0
 40
0.0
 40
1.0
 40
1.0
 40
1.0
 40
1.0
 10
219.7240457595
 20
218.4800051634
 30
0.0
 10
219.6825783183
 20
218.4469574762
 30
0.0
 10
219.6450421175
 20
218.4091631749
 30
0.0
 10
219.6077464383
 20
218.3714705943
 30
0.0
  0
SPLINE
  5
5ED
100
AcDbEntity
  8
0
100
AcDbSpline
 62
7
  6
BYLAYER
 70
0
 71
3
 72
9
 73
5
 74
0
 42
0.0000001
 43
0.0000001
 44
0.0000000001
 40
0.0
 40
0.0
 40
0.0
 40
0.0
 40
0.5000011283
 40
1.0
 40
1.0
 40
1.0
 40
1.0
 10
106.579350147
 20
504.3887319799
 30
0.0
 10
106.5793061938
 20
505.1157735464
 30
0.0
 10
106.0824472469
 20
506.5513377324
 30
0.0
 10
105.0876361806
 20
507.6994104548
 30
0.0
 10
104.4580209716
 20
508.0629614949
 30
0.0
  0
SPLINE
  5
5EE
100
AcDbEntity
  8
0
100
AcDbSpline
 62
7
  6
BYLAYER
 70
0
 71
3
 72
9
 73
5
 74
0
 42
0.0000001
 43
0.0000001
 44
0.0000000001
 40
0.0
 40
0.0
 40
0.0
 40
0.0
 40
0.7313168183
 40
1.0
 40
1.0
 40
1.0
 40
1.0
 10
227.9931436404
 20
208.8665837518
 30
0.0
 10
227.9093695652
 20
208.857564181
 30
0.0
 10
227.7922957331
 20
208.8469330042
 30
0.0
 10
227.6794841428
 20
208.8734200008
 30
0.0
 10
227.6497936143
 20
208.8821811066
 30
0.0
  0
SPLINE
  5
5EF
100
AcDbEntity
  8
0
100
AcDbSpline
 62
7
  6
BYLAYER
 70
0
 71
3
 72
10
 73
6
 74
0
 42
0.0000001
 43
0.0000001
 44
0.0000000001
 40
0.0
 40
0.0
 40
0.0
 40
0.0
 40
0.467897011
 40
0.7423499879
 40
1.0
 40
1.0
 40
1.0
 40
1.0
 10
227.6497936143
 20
208.8821811066
 30
0.0
 10
227.4742997998
 20
208.9339659669
 30
0.0
 10
227.2205584707
 20
209.1166840929
 30
0.0
 10
227.0256152667
 20
209.462138738
 30
0.0
 10
226.9864563529
 20
209.6687450463
 30
0.0
 10
226.9696649018
 20
209.7680920278
 30
0.0
  0
SPLINE
  5
5F0
100
AcDbEntity
  8
0
100
AcDbSpline
 62
7
  6
BYLAYER
 70
0
 71
3
 72
11
 73
7
 74
0
 42
0.0000001
 43
0.0000001
 44
0.0000000001
 40
0.0
 40
0.0
 40
0.0
 40
0.0
 40
0.2372551045
 40
0.5000013743
 40
0.7627468678
 40
1.0
 40
1.0
 40
1.0
 40
1.0
 10
247.1527635062
 20
204.7346069853
 30
0.0
 10
247.1527354751
 20
205.1982845753
 30
0.0
 10
246.9788822422
 20
206.1761127232
 30
0.0
 10
246.3724612114
 20
207.5499158752
 30
0.0
 10
245.48591791
 20
208.7619849191
 30
0.0
 10
244.726018976
 20
209.4014503701
 30
0.0
 10
244.3244774863
 20
209.6333075804
 30
0.0
  0
SPLINE
  5
5F1
100
AcDbEntity
  8
0
100
AcDbSpline
 62
7
  6
BYLAYER
 70
0
 71
3
 72
9
 73
5
 74
0
 42
0.0000001
 43
0.0000001
 44
0.0000000001
 40
0.0
 40
0.0
 40
0.0
 40
0.0
 40
0.2791036527
 40
1.0
 40
1.0
 40
1.0
 40
1.0
 10
226.9750858691
 20
209.9921167108
 30
0.0
 10
226.9807658603
 20
210.0163980411
 30
0.0
 10
227.0013628296
 20
210.1014369705
 30
0.0
 10
227.0421878637
 20
210.1950921571
 30
0.0
 10
227.0979568839
 20
210.2273159447
 30
0.0
  0
SPLINE
  5
5F2
100
AcDbEntity
  8
0
100
AcDbSpline
 62
7
  6
BYLAYER
 70
0
 71
3
 72
9
 73
5
 74
0
 42
0.0000001
 43
0.0000001
 44
0.0000000001
 40
0.0
 40
0.0
 40
0.0
 40
0.0
 40
0.286934313
 40
1.0
 40
1.0
 40
1.0
 40
1.0
 10
97.2294813211
 20
505.7087123057
 30
0.0
 10
97.2289353698
 20
505.6772193986
 30
0.0
 10
97.2261797276
 20
505.5717116064
 30
0.0
 10
97.1971951967
 20
505.4375985285
 30
0.0
 10
97.1283218234
 20
505.4004032352
 30
0.0
  0
SPLINE
  5
5F3
100
AcDbEntity
  8
0
100
AcDbSpline
 62
7
  6
BYLAYER
 70
0
 71
3
 72
8
 73
4
 74
0
 42
0.0000001
 43
0.0000001
 44
0.0000000001
 40
0.0
 40
0.0
 40
0.0
 40
0.0
 40
1.0
 40
1.0
 40
1.0
 40
1.0
 10
95.8224434532
 20
507.9658741628
 30
0.0
 10
95.9197478881
 20
507.9087989105
 30
0.0
 10
96.0145766765
 20
507.8470595589
 30
0.0
 10
96.1049897459
 20
507.7795968704
 30
0.0
  0
SPLINE
  5
5F4
100
AcDbEntity
  8
0
100
AcDbSpline
 62
7
  6
BYLAYER
 70
0
 71
3
 72
9
 73
5
 74
0
 42
0.0000001
 43
0.0000001
 44
0.0000000001
 40
0.0
 40
0.0
 40
0.0
 40
0.0
 40
0.238375653
 40
1.0
 40
1.0
 40
1.0
 40
1.0
 10
96.1049897459
 20
507.7795968704
 30
0.0
 10
96.1755267951
 20
507.7269648891
 30
0.0
 10
96.4597810583
 20
507.4907036988
 30
0.0
 10
96.6942491879
 20
507.1967037876
 30
0.0
 10
96.8402076611
 20
506.9563574847
 30
0.0
  0
SPLINE
  5
5F5
100
AcDbEntity
  8
0
100
AcDbSpline
 62
7
  6
BYLAYER
 70
0
 71
3
 72
9
 73
5
 74
0
 42
0.0000001
 43
0.0000001
 44
0.0000000001
 40
0.0
 40
0.0
 40
0.0
 40
0.0
 40
0.2701649718
 40
1.0
 40
1.0
 40
1.0
 40
1.0
 10
96.8402076611
 20
506.9563574847
 30
0.0
 10
96.9016784918
 20
506.8551349482
 30
0.0
 10
97.1070869186
 20
506.4678109342
 30
0.0
 10
97.2190390107
 20
506.0284622227
 30
0.0
 10
97.2294813211
 20
505.7087123057
 30
0.0
  0
SPLINE
  5
5F6
100
AcDbEntity
  8
0
100
AcDbSpline
 62
7
  6
BYLAYER
 70
0
 71
3
 72
9
 73
5
 74
0
 42
0.0000001
 43
0.0000001
 44
0.0000000001
 40
0.0
 40
0.0
 40
0.0
 40
0.0
 40
0.4739389594
 40
1.0
 40
1.0
 40
1.0
 40
1.0
 10
222.705658237
 20
217.3364842869
 30
0.0
 10
222.7711170438
 20
217.374279901
 30
0.0
 10
222.9170409237
 20
217.4475331287
 30
0.0
 10
223.0836112238
 20
217.4411886542
 30
0.0
 10
223.1657657608
 20
217.4241660876
 30
0.0
  0
SPLINE
  5
5F7
100
AcDbEntity
  8
0
100
AcDbSpline
 62
7
  6
BYLAYER
 70
0
 71
3
 72
8
 73
4
 74
0
 42
0.0000001
 43
0.0000001
 44
0.0000000001
 40
0.0
 40
0.0
 40
0.0
 40
0.0
 40
1.0
 40
1.0
 40
1.0
 40
1.0
 10
223.1657657608
 20
217.4241660876
 30
0.0
 10
223.2809849218
 20
217.400292472
 30
0.0
 10
223.3881851929
 20
217.3452581996
 30
0.0
 10
223.4930143613
 20
217.2918143035
 30
0.0
  0
SPLINE
  5
5F8
100
AcDbEntity
  8
0
100
AcDbSpline
 62
7
  6
BYLAYER
 70
0
 71
3
 72
8
 73
4
 74
0
 42
0.0000001
 43
0.0000001
 44
0.0000000001
 40
0.0
 40
0.0
 40
0.0
 40
0.0
 40
1.0
 40
1.0
 40
1.0
 40
1.0
 10
96.9220543188
 20
505.0106938783
 30
0.0
 10
96.9729757085
 20
504.9792331125
 30
0.0
 10
97.0214289304
 20
504.9416872904
 30
0.0
 10
97.0605161737
 20
504.8963556775
 30
0.0
  0
SPLINE
  5
5F9
100
AcDbEntity
  8
0
100
AcDbSpline
 62
7
  6
BYLAYER
 70
0
 71
3
 72
9
 73
5
 74
0
 42
0.0000001
 43
0.0000001
 44
0.0000000001
 40
0.0
 40
0.0
 40
0.0
 40
0.0
 40
0.264538604
 40
1.0
 40
1.0
 40
1.0
 40
1.0
 10
97.0605161737
 20
504.8963556775
 30
0.0
 10
97.0808661736
 20
504.8727546701
 30
0.0
 10
97.1507312013
 20
504.7773377933
 30
0.0
 10
97.1825722664
 20
504.6566847415
 30
0.0
 10
97.1847345331
 20
504.5700735082
 30
0.0
  0
SPLINE
  5
5FA
100
AcDbEntity
  8
0
100
AcDbSpline
 62
7
  6
BYLAYER
 70
0
 71
3
 72
8
 73
4
 74
0
 42
0.0000001
 43
0.0000001
 44
0.0000000001
 40
0.0
 40
0.0
 40
0.0
 40
0.0
 40
1.0
 40
1.0
 40
1.0
 40
1.0
 10
96.7538395443
 20
505.0504002004
 30
0.0
 10
96.788186128
 20
505.0594962647
 30
0.0
 10
96.8270943554
 20
505.0543193254
 30
0.0
 10
96.8600111385
 20
505.0409435417
 30
0.0
  0
SPLINE
  5
5FB
100
AcDbEntity
  8
0
100
AcDbSpline
 62
7
  6
BYLAYER
 70
0
 71
3
 72
8
 73
4
 74
0
 42
0.0000001
 43
0.0000001
 44
0.0000000001
 40
0.0
 40
0.0
 40
0.0
 40
0.0
 40
1.0
 40
1.0
 40
1.0
 40
1.0
 10
96.8600111385
 20
505.0409435417
 30
0.0
 10
96.881326719
 20
505.0322819239
 30
0.0
 10
96.901757155
 20
505.0215291327
 30
0.0
 10
96.9220543188
 20
505.0106938783
 30
0.0
  0
SPLINE
  5
5FC
100
AcDbEntity
  8
0
100
AcDbSpline
 62
7
  6
BYLAYER
 70
0
 71
3
 72
9
 73
5
 74
0
 42
0.0000001
 43
0.0000001
 44
0.0000000001
 40
0.0
 40
0.0
 40
0.0
 40
0.0
 40
0.2679806021
 40
1.0
 40
1.0
 40
1.0
 40
1.0
 10
95.8564178651
 20
505.0068507691
 30
0.0
 10
95.8833409463
 20
504.9924686174
 30
0.0
 10
95.9834505991
 20
504.9389103526
 30
0.0
 10
96.092563284
 20
504.8965496695
 30
0.0
 10
96.1753629772
 20
504.8867375838
 30
0.0
  0
SPLINE
  5
5FD
100
AcDbEntity
  8
0
100
AcDbSpline
 62
7
  6
BYLAYER
 70
0
 71
3
 72
9
 73
5
 74
0
 42
0.0000001
 43
0.0000001
 44
0.0000000001
 40
0.0
 40
0.0
 40
0.0
 40
0.0
 40
0.2790992086
 40
1.0
 40
1.0
 40
1.0
 40
1.0
 10
96.1753629772
 20
504.8867375838
 30
0.0
 10
96.2315965676
 20
504.8800736845
 30
0.0
 10
96.4381338305
 20
504.8857795398
 30
0.0
 10
96.6230572345
 20
504.9849060123
 30
0.0
 10
96.7538395443
 20
505.0504002004
 30
0.0
  0
SPLINE
  5
5FE
100
AcDbEntity
  8
0
100
AcDbSpline
 62
7
  6
BYLAYER
 70
0
 71
3
 72
9
 73
5
 74
0
 42
0.0000001
 43
0.0000001
 44
0.0000000001
 40
0.0
 40
0.0
 40
0.0
 40
0.0
 40
0.2228242026
 40
1.0
 40
1.0
 40
1.0
 40
1.0
 10
95.110194211
 20
506.3341254859
 30
0.0
 10
95.113591333
 20
506.2768076982
 30
0.0
 10
95.1398389793
 20
506.0204072782
 30
0.0
 10
95.223424946
 20
505.7693239606
 30
0.0
 10
95.3180098483
 20
505.59280125
 30
0.0
  0
SPLINE
  5
5FF
100
AcDbEntity
  8
0
100
AcDbSpline
 62
7
  6
BYLAYER
 70
0
 71
3
 72
8
 73
4
 74
0
 42
0.0000001
 43
0.0000001
 44
0.0000000001
 40
0.0
 40
0.0
 40
0.0
 40
0.0
 40
1.0
 40
1.0
 40
1.0
 40
1.0
 10
95.3180098483
 20
505.59280125
 30
0.0
 10
95.3840375088
 20
505.4695745899
 30
0.0
 10
95.4645518635
 20
505.3527150199
 30
0.0
 10
95.5585464571
 20
505.2492284117
 30
0.0
  0
SPLINE
  5
600
100
AcDbEntity
  8
0
100
AcDbSpline
 62
7
  6
BYLAYER
 70
0
 71
3
 72
9
 73
5
 74
0
 42
0.0000001
 43
0.0000001
 44
0.0000000001
 40
0.0
 40
0.0
 40
0.0
 40
0.0
 40
0.2644735605
 40
1.0
 40
1.0
 40
1.0
 40
1.0
 10
95.5585464571
 20
505.2492284117
 30
0.0
 10
95.5813609337
 20
505.2241100224
 30
0.0
 10
95.6706440737
 20
505.1317070978
 30
0.0
 10
95.7764463023
 20
505.0569537643
 30
0.0
 10
95.8564178651
 20
505.0068507691
 30
0.0
  0
SPLINE
  5
601
100
AcDbEntity
  8
0
100
AcDbSpline
 62
7
  6
BYLAYER
 70
0
 71
3
 72
9
 73
5
 74
0
 42
0.0000001
 43
0.0000001
 44
0.0000000001
 40
0.0
 40
0.0
 40
0.0
 40
0.0
 40
0.2309452242
 40
1.0
 40
1.0
 40
1.0
 40
1.0
 10
93.3091655668
 20
509.4235808715
 30
0.0
 10
93.335029873
 20
509.4077826894
 30
0.0
 10
93.4452667959
 20
509.337145696
 30
0.0
 10
93.5366064117
 20
509.2322539
 30
0.0
 10
93.5783115528
 20
509.1403489286
 30
0.0
  0
SPLINE
  5
602
100
AcDbEntity
  8
0
100
AcDbSpline
 62
7
  6
BYLAYER
 70
0
 71
3
 72
8
 73
4
 74
0
 42
0.0000001
 43
0.0000001
 44
0.0000000001
 40
0.0
 40
0.0
 40
0.0
 40
0.0
 40
1.0
 40
1.0
 40
1.0
 40
1.0
 10
93.5783115528
 20
509.1403489286
 30
0.0
 10
93.6059412301
 20
509.079461838
 30
0.0
 10
93.6252299314
 20
509.0146309351
 30
0.0
 10
93.6393803202
 20
508.9492826117
 30
0.0
  0
SPLINE
  5
603
100
AcDbEntity
  8
0
100
AcDbSpline
 62
7
  6
BYLAYER
 70
0
 71
3
 72
9
 73
5
 74
0
 42
0.0000001
 43
0.0000001
 44
0.0000000001
 40
0.0
 40
0.0
 40
0.0
 40
0.0
 40
0.2654811136
 40
1.0
 40
1.0
 40
1.0
 40
1.0
 10
93.6393803202
 20
508.9492826117
 30
0.0
 10
93.6469772568
 20
508.9141989769
 30
0.0
 10
93.6695757846
 20
508.7806895825
 30
0.0
 10
93.6736317737
 20
508.6449991376
 30
0.0
 10
93.6745976631
 20
508.5456867033
 30
0.0
  0
SPLINE
  5
604
100
AcDbEntity
  8
0
100
AcDbSpline
 62
7
  6
BYLAYER
 70
0
 71
3
 72
8
 73
4
 74
0
 42
0.0000001
 43
0.0000001
 44
0.0000000001
 40
0.0
 40
0.0
 40
0.0
 40
0.0
 40
1.0
 40
1.0
 40
1.0
 40
1.0
 10
222.8466005884
 20
216.8364215046
 30
0.0
 10
222.8238103386
 20
216.8232638428
 30
0.0
 10
222.8021745185
 20
216.8080233757
 30
0.0
 10
222.7815972906
 20
216.7916191921
 30
0.0
  0
SPLINE
  5
605
100
AcDbEntity
  8
0
100
AcDbSpline
 62
7
  6
BYLAYER
 70
0
 71
3
 72
8
 73
4
 74
0
 42
0.0000001
 43
0.0000001
 44
0.0000000001
 40
0.0
 40
0.0
 40
0.0
 40
0.0
 40
1.0
 40
1.0
 40
1.0
 40
1.0
 10
222.7815972906
 20
216.7916191921
 30
0.0
 10
222.7280470694
 20
216.7489289102
 30
0.0
 10
222.6814835471
 20
216.6979622285
 30
0.0
 10
222.6350558431
 20
216.6476178677
 30
0.0
  0
SPLINE
  5
606
100
AcDbEntity
  8
0
100
AcDbSpline
 62
7
  6
BYLAYER
 70
0
 71
3
 72
8
 73
4
 74
0
 42
0.0000001
 43
0.0000001
 44
0.0000000001
 40
0.0
 40
0.0
 40
0.0
 40
0.0
 40
1.0
 40
1.0
 40
1.0
 40
1.0
 10
91.9593041501
 20
510.1962082225
 30
0.0
 10
92.0985880871
 20
510.1111308244
 30
0.0
 10
92.2339580134
 20
510.0165635186
 30
0.0
 10
92.3523516225
 20
509.9042197066
 30
0.0
  0
SPLINE
  5
607
100
AcDbEntity
  8
0
100
AcDbSpline
 62
7
  6
BYLAYER
 70
0
 71
3
 72
8
 73
4
 74
0
 42
0.0000001
 43
0.0000001
 44
0.0000000001
 40
0.0
 40
0.0
 40
0.0
 40
0.0
 40
1.0
 40
1.0
 40
1.0
 40
1.0
 10
92.3523516225
 20
509.9042197066
 30
0.0
 10
92.4163375563
 20
509.8435033913
 30
0.0
 10
92.4762221057
 20
509.7782447219
 30
0.0
 10
92.5319202474
 20
509.7098459815
 30
0.0
  0
SPLINE
  5
608
100
AcDbEntity
  8
0
100
AcDbSpline
 62
7
  6
BYLAYER
 70
0
 71
3
 72
8
 73
4
 74
0
 42
0.0000001
 43
0.0000001
 44
0.0000000001
 40
0.0
 40
0.0
 40
0.0
 40
0.0
 40
1.0
 40
1.0
 40
1.0
 40
1.0
 10
92.5319202474
 20
509.7098459815
 30
0.0
 10
92.5911541121
 20
509.6371052831
 30
0.0
 10
92.6459284073
 20
509.5606391911
 30
0.0
 10
92.6973628347
 20
509.4821894645
 30
0.0
  0
SPLINE
  5
609
100
AcDbEntity
  8
0
100
AcDbSpline
 62
7
  6
BYLAYER
 70
0
 71
3
 72
8
 73
4
 74
0
 42
0.0000001
 43
0.0000001
 44
0.0000000001
 40
0.0
 40
0.0
 40
0.0
 40
0.0
 40
1.0
 40
1.0
 40
1.0
 40
1.0
 10
92.8085996484
 20
509.2995478922
 30
0.0
 10
92.8455979115
 20
509.2340608157
 30
0.0
 10
92.8803822789
 20
509.1673111598
 30
0.0
 10
92.9138875028
 20
509.0999700236
 30
0.0
  0
SPLINE
  5
60A
100
AcDbEntity
  8
0
100
AcDbSpline
 62
7
  6
BYLAYER
 70
0
 71
3
 72
9
 73
5
 74
0
 42
0.0000001
 43
0.0000001
 44
0.0000000001
 40
0.0
 40
0.0
 40
0.0
 40
0.0
 40
0.5508286982
 40
1.0
 40
1.0
 40
1.0
 40
1.0
 10
206.1402402485
 20
231.6784884998
 30
0.0
 10
205.809416192
 20
231.8694588696
 30
0.0
 10
205.1483836948
 20
232.1441791089
 30
0.0
 10
204.4102846111
 20
232.0320346463
 30
0.0
 10
204.1405259709
 20
231.8762900736
 30
0.0
  0
SPLINE
  5
60B
100
AcDbEntity
  8
0
100
AcDbSpline
 62
7
  6
BYLAYER
 70
0
 71
3
 72
8
 73
4
 74
0
 42
0.0000001
 43
0.0000001
 44
0.0000000001
 40
0.0
 40
0.0
 40
0.0
 40
0.0
 40
1.0
 40
1.0
 40
1.0
 40
1.0
 10
92.9180455001
 20
506.7492107275
 30
0.0
 10
92.8987945472
 20
506.7302273752
 30
0.0
 10
92.8793261664
 20
506.7114421453
 30
0.0
 10
92.8591824895
 20
506.6934088668
 30
0.0
  0
SPLINE
  5
60C
100
AcDbEntity
  8
0
100
AcDbSpline
 62
7
  6
BYLAYER
 70
0
 71
3
 72
8
 73
4
 74
0
 42
0.0000001
 43
0.0000001
 44
0.0000000001
 40
0.0
 40
0.0
 40
0.0
 40
0.0
 40
1.0
 40
1.0
 40
1.0
 40
1.0
 10
92.8591824895
 20
506.6934088668
 30
0.0
 10
92.8243995474
 20
506.6622700393
 30
0.0
 10
92.7871314273
 20
506.6333046
 30
0.0
 10
92.7466996231
 20
506.6099647446
 30
0.0
  0
SPLINE
  5
60D
100
AcDbEntity
  8
0
100
AcDbSpline
 62
7
  6
BYLAYER
 70
0
 71
3
 72
8
 73
4
 74
0
 42
0.0000001
 43
0.0000001
 44
0.0000000001
 40
0.0
 40
0.0
 40
0.0
 40
0.0
 40
1.0
 40
1.0
 40
1.0
 40
1.0
 10
92.1275189253
 20
505.8124538839
 30
0.0
 10
92.1601217451
 20
505.7941506449
 30
0.0
 10
92.1928402061
 20
505.7760358435
 30
0.0
 10
92.2259722197
 20
505.7587089254
 30
0.0
  0
SPLINE
  5
60E
100
AcDbEntity
  8
0
100
AcDbSpline
 62
7
  6
BYLAYER
 70
0
 71
3
 72
9
 73
5
 74
0
 42
0.0000001
 43
0.0000001
 44
0.0000000001
 40
0.0
 40
0.0
 40
0.0
 40
0.0
 40
0.2945226131
 40
1.0
 40
1.0
 40
1.0
 40
1.0
 10
92.2259722197
 20
505.7587089254
 30
0.0
 10
92.2707223187
 20
505.7353061431
 30
0.0
 10
92.4203510287
 20
505.6624406116
 30
0.0
 10
92.6203736692
 20
505.6149097447
 30
0.0
 10
92.7255747127
 20
505.6746179966
 30
0.0
  0
SPLINE
  5
60F
100
AcDbEntity
  8
0
100
AcDbSpline
 62
7
  6
BYLAYER
 70
0
 71
3
 72
8
 73
4
 74
0
 42
0.0000001
 43
0.0000001
 44
0.0000000001
 40
0.0
 40
0.0
 40
0.0
 40
0.0
 40
1.0
 40
1.0
 40
1.0
 40
1.0
 10
91.3983120212
 20
506.6975189655
 30
0.0
 10
91.4590071696
 20
506.575703158
 30
0.0
 10
91.5171947568
 20
506.4523291854
 30
0.0
 10
91.5861984022
 20
506.3350198127
 30
0.0
  0
SPLINE
  5
610
100
AcDbEntity
  8
0
100
AcDbSpline
 62
7
  6
BYLAYER
 70
0
 71
3
 72
8
 73
4
 74
0
 42
0.0000001
 43
0.0000001
 44
0.0000000001
 40
0.0
 40
0.0
 40
0.0
 40
0.0
 40
1.0
 40
1.0
 40
1.0
 40
1.0
 10
91.5861984022
 20
506.3350198127
 30
0.0
 10
91.6531550278
 20
506.2211904678
 30
0.0
 10
91.7357241556
 20
506.1144042134
 30
0.0
 10
91.8330392368
 20
506.0251288839
 30
0.0
  0
SPLINE
  5
611
100
AcDbEntity
  8
0
100
AcDbSpline
 62
7
  6
BYLAYER
 70
0
 71
3
 72
8
 73
4
 74
0
 42
0.0000001
 43
0.0000001
 44
0.0000000001
 40
0.0
 40
0.0
 40
0.0
 40
0.0
 40
1.0
 40
1.0
 40
1.0
 40
1.0
 10
91.8330392368
 20
506.0251288839
 30
0.0
 10
91.9222638673
 20
505.9432756071
 30
0.0
 10
92.0238761478
 20
505.875057145
 30
0.0
 10
92.1275189253
 20
505.8124538839
 30
0.0
  0
SPLINE
  5
612
100
AcDbEntity
  8
0
100
AcDbSpline
 62
7
  6
BYLAYER
 70
0
 71
3
 72
9
 73
5
 74
0
 42
0.0000001
 43
0.0000001
 44
0.0000000001
 40
0.0
 40
0.0
 40
0.0
 40
0.0
 40
0.734924418
 40
1.0
 40
1.0
 40
1.0
 40
1.0
 10
91.1132584126
 20
507.0716387115
 30
0.0
 10
91.1749295223
 20
507.0297949498
 30
0.0
 10
91.2521073048
 20
506.9597595965
 30
0.0
 10
91.3062945533
 20
506.8738503798
 30
0.0
 10
91.3199204605
 20
506.8506792583
 30
0.0
  0
SPLINE
  5
613
100
AcDbEntity
  8
0
100
AcDbSpline
 62
7
  6
BYLAYER
 70
0
 71
3
 72
8
 73
4
 74
0
 42
0.0000001
 43
0.0000001
 44
0.0000000001
 40
0.0
 40
0.0
 40
0.0
 40
0.0
 40
1.0
 40
1.0
 40
1.0
 40
1.0
 10
91.3199204605
 20
506.8506792583
 30
0.0
 10
91.3489924998
 20
506.8012416873
 30
0.0
 10
91.3741149902
 20
506.7495166634
 30
0.0
 10
91.3983120212
 20
506.6975189655
 30
0.0
  0
SPLINE
  5
614
100
AcDbEntity
  8
0
100
AcDbSpline
 62
7
  6
BYLAYER
 70
0
 71
3
 72
9
 73
5
 74
0
 42
0.0000001
 43
0.0000001
 44
0.0000000001
 40
0.0
 40
0.0
 40
0.0
 40
0.0
 40
0.4341838497
 40
1.0
 40
1.0
 40
1.0
 40
1.0
 10
228.482912267
 20
214.953385026
 30
0.0
 10
228.5534875979
 20
214.9941332635
 30
0.0
 10
228.6856539614
 20
215.1551610412
 30
0.0
 10
228.6635558273
 20
215.3556855973
 30
0.0
 10
228.6435393212
 20
215.4599830831
 30
0.0
  0
SPLINE
  5
615
100
AcDbEntity
  8
0
100
AcDbSpline
 62
7
  6
BYLAYER
 70
0
 71
3
 72
9
 73
5
 74
0
 42
0.0000001
 43
0.0000001
 44
0.0000000001
 40
0.0
 40
0.0
 40
0.0
 40
0.0
 40
0.5546699617
 40
1.0
 40
1.0
 40
1.0
 40
1.0
 10
93.6745976631
 20
505.9899703493
 30
0.0
 10
93.6717723425
 20
505.7743266393
 30
0.0
 10
93.6670790137
 20
505.3933015701
 30
0.0
 10
93.4826001696
 20
504.994242788
 30
0.0
 10
93.3326383926
 20
504.9076850736
 30
0.0
  0
SPLINE
  5
616
100
AcDbEntity
  8
0
100
AcDbSpline
 62
7
  6
BYLAYER
 70
0
 71
3
 72
8
 73
4
 74
0
 42
0.0000001
 43
0.0000001
 44
0.0000000001
 40
0.0
 40
0.0
 40
0.0
 40
0.0
 40
1.0
 40
1.0
 40
1.0
 40
1.0
 10
99.5595761036
 20
506.963586599
 30
0.0
 10
99.5811891338
 20
506.9760662204
 30
0.0
 10
99.6055823355
 20
506.984424051
 30
0.0
 10
99.6302244755
 20
506.9883773992
 30
0.0
  0
SPLINE
  5
617
100
AcDbEntity
  8
0
100
AcDbSpline
 62
7
  6
BYLAYER
 70
0
 71
3
 72
9
 73
5
 74
0
 42
0.0000001
 43
0.0000001
 44
0.0000000001
 40
0.0
 40
0.0
 40
0.0
 40
0.0
 40
0.7193831062
 40
1.0
 40
1.0
 40
1.0
 40
1.0
 10
99.6302244755
 20
506.9883773992
 30
0.0
 10
99.6795523643
 20
506.9962910919
 30
0.0
 10
99.7519656753
 20
506.9781427826
 30
0.0
 10
99.8132734972
 20
506.9467390705
 30
0.0
 10
99.8305954936
 20
506.9378101621
 30
0.0
  0
SPLINE
  5
618
100
AcDbEntity
  8
0
100
AcDbSpline
 62
7
  6
BYLAYER
 70
0
 71
3
 72
9
 73
5
 74
0
 42
0.0000001
 43
0.0000001
 44
0.0000000001
 40
0.0
 40
0.0
 40
0.0
 40
0.0
 40
0.5499075097
 40
1.0
 40
1.0
 40
1.0
 40
1.0
 10
90.2638980982
 20
507.9772740495
 30
0.0
 10
90.2617519697
 20
507.9410778674
 30
0.0
 10
90.2544584307
 20
507.8716349312
 30
0.0
 10
90.202691312
 20
507.8233093978
 30
0.0
 10
90.17698998
 20
507.8084690976
 30
0.0
  0
SPLINE
  5
619
100
AcDbEntity
  8
0
100
AcDbSpline
 62
7
  6
BYLAYER
 70
0
 71
3
 72
9
 73
5
 74
0
 42
0.0000001
 43
0.0000001
 44
0.0000000001
 40
0.0
 40
0.0
 40
0.0
 40
0.0
 40
0.2357473571
 40
1.0
 40
1.0
 40
1.0
 40
1.0
 10
90.1213712949
 20
508.914017101
 30
0.0
 10
90.1221555174
 20
508.8626649878
 30
0.0
 10
90.1296354767
 20
508.6446415519
 30
0.0
 10
90.1770798808
 20
508.4304548998
 30
0.0
 10
90.2133971469
 20
508.2679699153
 30
0.0
  0
SPLINE
  5
61A
100
AcDbEntity
  8
0
100
AcDbSpline
 62
7
  6
BYLAYER
 70
0
 71
3
 72
8
 73
4
 74
0
 42
0.0000001
 43
0.0000001
 44
0.0000000001
 40
0.0
 40
0.0
 40
0.0
 40
0.0
 40
1.0
 40
1.0
 40
1.0
 40
1.0
 10
90.2133971469
 20
508.2679699153
 30
0.0
 10
90.2348501584
 20
508.1719882347
 30
0.0
 10
90.2576805131
 20
508.0754272785
 30
0.0
 10
90.2638980982
 20
507.9772740495
 30
0.0
  0
SPLINE
  5
61B
100
AcDbEntity
  8
0
100
AcDbSpline
 62
7
  6
BYLAYER
 70
0
 71
3
 72
8
 73
4
 74
0
 42
0.0000001
 43
0.0000001
 44
0.0000000001
 40
0.0
 40
0.0
 40
0.0
 40
0.0
 40
1.0
 40
1.0
 40
1.0
 40
1.0
 10
88.8228858178
 20
512.006979225
 30
0.0
 10
88.9125006236
 20
511.9546786462
 30
0.0
 10
89.0012012861
 20
511.9006679223
 30
0.0
 10
89.087640368
 20
511.8432706306
 30
0.0
  0
SPLINE
  5
61C
100
AcDbEntity
  8
0
100
AcDbSpline
 62
7
  6
BYLAYER
 70
0
 71
3
 72
9
 73
5
 74
0
 42
0.0000001
 43
0.0000001
 44
0.0000000001
 40
0.0
 40
0.0
 40
0.0
 40
0.0
 40
0.241696842
 40
1.0
 40
1.0
 40
1.0
 40
1.0
 10
89.087640368
 20
511.8432706306
 30
0.0
 10
89.1295205223
 20
511.8154613645
 30
0.0
 10
89.3009457501
 20
511.6977441449
 30
0.0
 10
89.461999566
 20
511.5640853067
 30
0.0
 10
89.573230491
 20
511.4522602017
 30
0.0
  0
SPLINE
  5
61D
100
AcDbEntity
  8
0
100
AcDbSpline
 62
7
  6
BYLAYER
 70
0
 71
3
 72
9
 73
5
 74
0
 42
0.0000001
 43
0.0000001
 44
0.0000000001
 40
0.0
 40
0.0
 40
0.0
 40
0.0
 40
0.5252442853
 40
1.0
 40
1.0
 40
1.0
 40
1.0
 10
89.573230491
 20
511.4522602017
 30
0.0
 10
89.7803926443
 20
511.2439914172
 30
0.0
 10
90.0848842756
 20
510.7402624469
 30
0.0
 10
90.1257651437
 20
510.1723359013
 30
0.0
 10
90.127176512
 20
509.9068214836
 30
0.0
  0
SPLINE
  5
61E
100
AcDbEntity
  8
0
100
AcDbSpline
 62
7
  6
BYLAYER
 70
0
 71
3
 72
9
 73
5
 74
0
 42
0.0000001
 43
0.0000001
 44
0.0000000001
 40
0.0
 40
0.0
 40
0.0
 40
0.0
 40
0.2313605983
 40
1.0
 40
1.0
 40
1.0
 40
1.0
 10
236.5208483939
 20
209.5219637579
 30
0.0
 10
236.5472056114
 20
209.5371812315
 30
0.0
 10
236.6675916346
 20
209.5922331348
 30
0.0
 10
236.8134293306
 20
209.5802886577
 30
0.0
 10
236.9071474273
 20
209.5423337803
 30
0.0
  0
SPLINE
  5
61F
100
AcDbEntity
  8
0
100
AcDbSpline
 62
7
  6
BYLAYER
 70
0
 71
3
 72
8
 73
4
 74
0
 42
0.0000001
 43
0.0000001
 44
0.0000000001
 40
0.0
 40
0.0
 40
0.0
 40
0.0
 40
1.0
 40
1.0
 40
1.0
 40
1.0
 10
236.9071474273
 20
209.5423337803
 30
0.0
 10
236.9766877064
 20
209.5141706735
 30
0.0
 10
237.0406921971
 20
209.471950594
 30
0.0
 10
237.0992652561
 20
209.4250655456
 30
0.0
  0
SPLINE
  5
620
100
AcDbEntity
  8
0
100
AcDbSpline
 62
7
  6
BYLAYER
 70
0
 71
3
 72
9
 73
5
 74
0
 42
0.0000001
 43
0.0000001
 44
0.0000000001
 40
0.0
 40
0.0
 40
0.0
 40
0.0
 40
0.23934824
 40
1.0
 40
1.0
 40
1.0
 40
1.0
 10
237.0992652561
 20
209.4250655456
 30
0.0
 10
237.1416075995
 20
209.391172441
 30
0.0
 10
237.3084890662
 20
209.236650198
 30
0.0
 10
237.437728994
 20
209.0481984516
 30
0.0
 10
237.5376579818
 20
208.9077568838
 30
0.0
  0
SPLINE
  5
621
100
AcDbEntity
  8
0
100
AcDbSpline
 62
7
  6
BYLAYER
 70
0
 71
3
 72
8
 73
4
 74
0
 42
0.0000001
 43
0.0000001
 44
0.0000000001
 40
0.0
 40
0.0
 40
0.0
 40
0.0
 40
1.0
 40
1.0
 40
1.0
 40
1.0
 10
236.47816034
 20
208.7216381501
 30
0.0
 10
236.4552241123
 20
208.7083958339
 30
0.0
 10
236.4337938952
 20
208.6923590029
 30
0.0
 10
236.4140432259
 20
208.6747141583
 30
0.0
  0
SPLINE
  5
622
100
AcDbEntity
  8
0
100
AcDbSpline
 62
7
  6
BYLAYER
 70
0
 71
3
 72
9
 73
5
 74
0
 42
0.0000001
 43
0.0000001
 44
0.0000000001
 40
0.0
 40
0.0
 40
0.0
 40
0.0
 40
0.2356328199
 40
1.0
 40
1.0
 40
1.0
 40
1.0
 10
236.4140432259
 20
208.6747141583
 30
0.0
 10
236.3820887051
 20
208.6461666419
 30
0.0
 10
236.2628251024
 20
208.506655814
 30
0.0
 10
236.1926276267
 20
208.335548207
 30
0.0
 10
236.1385664013
 20
208.2074941338
 30
0.0
  0
SPLINE
  5
623
100
AcDbEntity
  8
0
100
AcDbSpline
 62
7
  6
BYLAYER
 70
0
 71
3
 72
8
 73
4
 74
0
 42
0.0000001
 43
0.0000001
 44
0.0000000001
 40
0.0
 40
0.0
 40
0.0
 40
0.0
 40
1.0
 40
1.0
 40
1.0
 40
1.0
 10
88.0845638281
 20
510.784606782
 30
0.0
 10
88.2286066614
 20
510.7394494138
 30
0.0
 10
88.3714348969
 20
510.6905049668
 30
0.0
 10
88.5149357062
 20
510.6436536758
 30
0.0
  0
SPLINE
  5
624
100
AcDbEntity
  8
0
100
AcDbSpline
 62
7
  6
BYLAYER
 70
0
 71
3
 72
9
 73
5
 74
0
 42
0.0000001
 43
0.0000001
 44
0.0000000001
 40
0.0
 40
0.0
 40
0.0
 40
0.0
 40
0.2612807479
 40
1.0
 40
1.0
 40
1.0
 40
1.0
 10
88.5149357062
 20
510.6436536758
 30
0.0
 10
88.5561258674
 20
510.6302055828
 30
0.0
 10
88.7139011625
 20
510.5791538976
 30
0.0
 10
88.872582464
 20
510.5307123247
 30
0.0
 10
88.9908109579
 20
510.4986201543
 30
0.0
  0
SPLINE
  5
625
100
AcDbEntity
  8
0
100
AcDbSpline
 62
7
  6
BYLAYER
 70
0
 71
3
 72
9
 73
5
 74
0
 42
0.0000001
 43
0.0000001
 44
0.0000000001
 40
0.0
 40
0.0
 40
0.0
 40
0.0
 40
0.2832123388
 40
1.0
 40
1.0
 40
1.0
 40
1.0
 10
410.0920105096
 20
119.2382297662
 30
0.0
 10
410.0845967844
 20
119.0536971042
 30
0.0
 10
410.0178657023
 20
118.4080084824
 30
0.0
 10
409.7516720078
 20
117.7575035742
 30
0.0
 10
409.4255028144
 20
117.4227057281
 30
0.0
  0
SPLINE
  5
626
100
AcDbEntity
  8
0
100
AcDbSpline
 62
7
  6
BYLAYER
 70
0
 71
3
 72
8
 73
4
 74
0
 42
0.0000001
 43
0.0000001
 44
0.0000000001
 40
0.0
 40
0.0
 40
0.0
 40
0.0
 40
1.0
 40
1.0
 40
1.0
 40
1.0
 10
409.4255028144
 20
117.4227057281
 30
0.0
 10
409.3369478346
 20
117.3318080679
 30
0.0
 10
409.237805859
 20
117.2499424932
 30
0.0
 10
409.1308973627
 20
117.1815689419
 30
0.0
  0
SPLINE
  5
627
100
AcDbEntity
  8
0
100
AcDbSpline
 62
7
  6
BYLAYER
 70
0
 71
3
 72
8
 73
4
 74
0
 42
0.0000001
 43
0.0000001
 44
0.0000000001
 40
0.0
 40
0.0
 40
0.0
 40
0.0
 40
1.0
 40
1.0
 40
1.0
 40
1.0
 10
236.0426044336
 20
205.1038041682
 30
0.0
 10
236.0238951503
 20
205.0930024211
 30
0.0
 10
236.0068471731
 20
205.0789366776
 30
0.0
 10
235.9922207058
 20
205.0630375747
 30
0.0
  0
SPLINE
  5
628
100
AcDbEntity
  8
0
100
AcDbSpline
 62
7
  6
BYLAYER
 70
0
 71
3
 72
9
 73
5
 74
0
 42
0.0000001
 43
0.0000001
 44
0.0000000001
 40
0.0
 40
0.0
 40
0.0
 40
0.0
 40
0.4350997212
 40
1.0
 40
1.0
 40
1.0
 40
1.0
 10
235.9922207058
 20
205.0630375747
 30
0.0
 10
235.9277722544
 20
204.9929815229
 30
0.0
 10
235.877231544
 20
204.7592995807
 30
0.0
 10
235.9112283472
 20
204.5425264047
 30
0.0
 10
235.9515223172
 20
204.4256898343
 30
0.0
  0
SPLINE
  5
629
100
AcDbEntity
  8
0
100
AcDbSpline
 62
7
  6
BYLAYER
 70
0
 71
3
 72
8
 73
4
 74
0
 42
0.0000001
 43
0.0000001
 44
0.0000000001
 40
0.0
 40
0.0
 40
0.0
 40
0.0
 40
1.0
 40
1.0
 40
1.0
 40
1.0
 10
235.9515223172
 20
204.4256898343
 30
0.0
 10
235.9910914827
 20
204.3109549104
 30
0.0
 10
236.0527866791
 20
204.2019254446
 30
0.0
 10
236.1301773501
 20
204.1084347731
 30
0.0
  0
SPLINE
  5
62A
100
AcDbEntity
  8
0
100
AcDbSpline
 62
7
  6
BYLAYER
 70
0
 71
3
 72
9
 73
5
 74
0
 42
0.0000001
 43
0.0000001
 44
0.0000000001
 40
0.0
 40
0.0
 40
0.0
 40
0.0
 40
0.543038788
 40
1.0
 40
1.0
 40
1.0
 40
1.0
 10
236.2369803479
 20
203.9975666798
 30
0.0
 10
236.3204811514
 20
203.923080483
 30
0.0
 10
236.4993869747
 20
203.8065331068
 30
0.0
 10
236.7060364254
 20
203.7757547796
 30
0.0
 10
236.7994426205
 20
203.7638740247
 30
0.0
  0
SPLINE
  5
62B
100
AcDbEntity
  8
0
100
AcDbSpline
 62
7
  6
BYLAYER
 70
0
 71
3
 72
8
 73
4
 74
0
 42
0.0000001
 43
0.0000001
 44
0.0000000001
 40
0.0
 40
0.0
 40
0.0
 40
0.0
 40
1.0
 40
1.0
 40
1.0
 40
1.0
 10
102.4018784739
 20
502.7665095579
 30
0.0
 10
102.5007634689
 20
502.6810930889
 30
0.0
 10
102.5986178427
 20
502.5943293629
 30
0.0
 10
102.6925795885
 20
502.5035251464
 30
0.0
  0
SPLINE
  5
62C
100
AcDbEntity
  8
0
100
AcDbSpline
 62
7
  6
BYLAYER
 70
0
 71
3
 72
8
 73
4
 74
0
 42
0.0000001
 43
0.0000001
 44
0.0000000001
 40
0.0
 40
0.0
 40
0.0
 40
0.0
 40
1.0
 40
1.0
 40
1.0
 40
1.0
 10
102.6925795885
 20
502.5035251464
 30
0.0
 10
102.8377543252
 20
502.3632289214
 30
0.0
 10
102.97658961
 20
502.2146692563
 30
0.0
 10
103.0966918724
 20
502.052391157
 30
0.0
  0
SPLINE
  5
62D
100
AcDbEntity
  8
0
100
AcDbSpline
 62
7
  6
BYLAYER
 70
0
 71
3
 72
8
 73
4
 74
0
 42
0.0000001
 43
0.0000001
 44
0.0000000001
 40
0.0
 40
0.0
 40
0.0
 40
0.0
 40
1.0
 40
1.0
 40
1.0
 40
1.0
 10
103.0966918724
 20
502.052391157
 30
0.0
 10
103.1861855103
 20
501.931470392
 30
0.0
 10
103.2664002311
 20
501.8020003898
 30
0.0
 10
103.3272511887
 20
501.6644209451
 30
0.0
  0
SPLINE
  5
62E
100
AcDbEntity
  8
0
100
AcDbSpline
 62
7
  6
BYLAYER
 70
0
 71
3
 72
8
 73
4
 74
0
 42
0.0000001
 43
0.0000001
 44
0.0000000001
 40
0.0
 40
0.0
 40
0.0
 40
0.0
 40
1.0
 40
1.0
 40
1.0
 40
1.0
 10
103.4277543277
 20
501.2837772258
 30
0.0
 10
103.4301699831
 20
501.2556475776
 30
0.0
 10
103.4316967641
 20
501.2274378187
 30
0.0
 10
103.4327118701
 20
501.1992228925
 30
0.0
  0
SPLINE
  5
62F
100
AcDbEntity
  8
0
100
AcDbSpline
 62
7
  6
BYLAYER
 70
0
 71
3
 72
9
 73
5
 74
0
 42
0.0000001
 43
0.0000001
 44
0.0000000001
 40
0.0
 40
0.0
 40
0.0
 40
0.0
 40
0.228437951
 40
1.0
 40
1.0
 40
1.0
 40
1.0
 10
101.5765488416
 20
503.7463002566
 30
0.0
 10
101.5777496997
 20
503.7167866653
 30
0.0
 10
101.5899321361
 20
503.5869327408
 30
0.0
 10
101.6662133738
 20
503.4725144131
 30
0.0
 10
101.7289876389
 20
503.394972773
 30
0.0
  0
SPLINE
  5
630
100
AcDbEntity
  8
0
100
AcDbSpline
 62
7
  6
BYLAYER
 70
0
 71
3
 72
8
 73
4
 74
0
 42
0.0000001
 43
0.0000001
 44
0.0000000001
 40
0.0
 40
0.0
 40
0.0
 40
0.0
 40
1.0
 40
1.0
 40
1.0
 40
1.0
 10
101.7289876389
 20
503.394972773
 30
0.0
 10
101.8206858798
 20
503.2817029165
 30
0.0
 10
101.9274603915
 20
503.1808662231
 30
0.0
 10
102.0366248618
 20
503.0843170325
 30
0.0
  0
SPLINE
  5
631
100
AcDbEntity
  8
0
100
AcDbSpline
 62
7
  6
BYLAYER
 70
0
 71
3
 72
8
 73
4
 74
0
 42
0.0000001
 43
0.0000001
 44
0.0000000001
 40
0.0
 40
0.0
 40
0.0
 40
0.0
 40
1.0
 40
1.0
 40
1.0
 40
1.0
 10
235.8169395023
 20
205.4619007968
 30
0.0
 10
235.8799660969
 20
205.4982901128
 30
0.0
 10
235.959232147
 20
205.5098142665
 30
0.0
 10
236.0315771922
 20
205.5018941409
 30
0.0
  0
SPLINE
  5
632
100
AcDbEntity
  8
0
100
AcDbSpline
 62
7
  6
BYLAYER
 70
0
 71
3
 72
8
 73
4
 74
0
 42
0.0000001
 43
0.0000001
 44
0.0000000001
 40
0.0
 40
0.0
 40
0.0
 40
0.0
 40
1.0
 40
1.0
 40
1.0
 40
1.0
 10
236.0315771922
 20
205.5018941409
 30
0.0
 10
236.083115899
 20
205.4962518328
 30
0.0
 10
236.1339649766
 20
205.4824707545
 30
0.0
 10
236.1824705067
 20
205.4641598972
 30
0.0
  0
SPLINE
  5
633
100
AcDbEntity
  8
0
100
AcDbSpline
 62
7
  6
BYLAYER
 70
0
 71
3
 72
9
 73
5
 74
0
 42
0.0000001
 43
0.0000001
 44
0.0000000001
 40
0.0
 40
0.0
 40
0.0
 40
0.0
 40
0.2242677753
 40
1.0
 40
1.0
 40
1.0
 40
1.0
 10
236.1824705067
 20
205.4641598972
 30
0.0
 10
236.2339303344
 20
205.4447337914
 30
0.0
 10
236.4547609048
 20
205.3339273671
 30
0.0
 10
236.6300907423
 20
205.1555768577
 30
0.0
 10
236.7658326197
 20
205.0222644399
 30
0.0
  0
SPLINE
  5
634
100
AcDbEntity
  8
0
100
AcDbSpline
 62
7
  6
BYLAYER
 70
0
 71
3
 72
9
 73
5
 74
0
 42
0.0000001
 43
0.0000001
 44
0.0000000001
 40
0.0
 40
0.0
 40
0.0
 40
0.0
 40
0.4720568504
 40
1.0
 40
1.0
 40
1.0
 40
1.0
 10
234.8299478823
 20
208.9230908984
 30
0.0
 10
234.8253681153
 20
209.1318947094
 30
0.0
 10
234.8081079221
 20
209.5770563918
 30
0.0
 10
234.6610243677
 20
210.0019900049
 30
0.0
 10
234.5623582361
 20
210.213708275
 30
0.0
  0
SPLINE
  5
635
100
AcDbEntity
  8
0
100
AcDbSpline
 62
7
  6
BYLAYER
 70
0
 71
3
 72
9
 73
5
 74
0
 42
0.0000001
 43
0.0000001
 44
0.0000000001
 40
0.0
 40
0.0
 40
0.0
 40
0.0
 40
0.5259694063
 40
1.0
 40
1.0
 40
1.0
 40
1.0
 10
234.5623582361
 20
210.213708275
 30
0.0
 10
234.4388795378
 20
210.4786694725
 30
0.0
 10
234.1388582618
 20
210.9622726942
 30
0.0
 10
233.6890092364
 20
211.300947164
 30
0.0
 10
233.4709714649
 20
211.4488247446
 30
0.0
  0
SPLINE
  5
636
100
AcDbEntity
  8
0
100
AcDbSpline
 62
7
  6
BYLAYER
 70
0
 71
3
 72
9
 73
5
 74
0
 42
0.0000001
 43
0.0000001
 44
0.0000000001
 40
0.0
 40
0.0
 40
0.0
 40
0.0
 40
0.2943727683
 40
1.0
 40
1.0
 40
1.0
 40
1.0
 10
103.2843845567
 20
502.8550301912
 30
0.0
 10
103.2832970119
 20
502.8339826029
 30
0.0
 10
103.2813556495
 20
502.7635961377
 30
0.0
 10
103.2452742426
 20
502.687134897
 30
0.0
 10
103.2015237059
 20
502.6618740541
 30
0.0
  0
SPLINE
  5
637
100
AcDbEntity
  8
0
100
AcDbSpline
 62
7
  6
BYLAYER
 70
0
 71
3
 72
8
 73
4
 74
0
 42
0.0000001
 43
0.0000001
 44
0.0000000001
 40
0.0
 40
0.0
 40
0.0
 40
0.0
 40
1.0
 40
1.0
 40
1.0
 40
1.0
 10
102.0265026472
 20
504.3840399499
 30
0.0
 10
102.1285997818
 20
504.3227710096
 30
0.0
 10
102.2293984799
 20
504.259095049
 30
0.0
 10
102.326889256
 20
504.1907338282
 30
0.0
  0
SPLINE
  5
638
100
AcDbEntity
  8
0
100
AcDbSpline
 62
7
  6
BYLAYER
 70
0
 71
3
 72
9
 73
5
 74
0
 42
0.0000001
 43
0.0000001
 44
0.0000000001
 40
0.0
 40
0.0
 40
0.0
 40
0.0
 40
0.7360963448
 40
1.0
 40
1.0
 40
1.0
 40
1.0
 10
102.326889256
 20
504.1907338282
 30
0.0
 10
102.4589020176
 20
504.0981655473
 30
0.0
 10
102.6290907158
 20
503.9579314425
 30
0.0
 10
102.7793179293
 20
503.798415513
 30
0.0
 10
102.8178563143
 20
503.7553316146
 30
0.0
  0
SPLINE
  5
639
100
AcDbEntity
  8
0
100
AcDbSpline
 62
7
  6
BYLAYER
 70
0
 71
3
 72
8
 73
4
 74
0
 42
0.0000001
 43
0.0000001
 44
0.0000000001
 40
0.0
 40
0.0
 40
0.0
 40
0.0
 40
1.0
 40
1.0
 40
1.0
 40
1.0
 10
102.8178563143
 20
503.7553316146
 30
0.0
 10
102.8829552993
 20
503.6825543547
 30
0.0
 10
102.9449699099
 20
503.6067843833
 30
0.0
 10
103.0021278985
 20
503.5276176495
 30
0.0
  0
SPLINE
  5
63A
100
AcDbEntity
  8
0
100
AcDbSpline
 62
7
  6
BYLAYER
 70
0
 71
3
 72
8
 73
4
 74
0
 42
0.0000001
 43
0.0000001
 44
0.0000000001
 40
0.0
 40
0.0
 40
0.0
 40
0.0
 40
1.0
 40
1.0
 40
1.0
 40
1.0
 10
103.0021278985
 20
503.5276176495
 30
0.0
 10
103.1004553809
 20
503.3914290638
 30
0.0
 10
103.1860896365
 20
503.242600112
 30
0.0
 10
103.2407323147
 20
503.0837611925
 30
0.0
  0
SPLINE
  5
63B
100
AcDbEntity
  8
0
100
AcDbSpline
 62
7
  6
BYLAYER
 70
0
 71
3
 72
9
 73
5
 74
0
 42
0.0000001
 43
0.0000001
 44
0.0000000001
 40
0.0
 40
0.0
 40
0.0
 40
0.0
 40
0.2709437504
 40
1.0
 40
1.0
 40
1.0
 40
1.0
 10
103.2407323147
 20
503.0837611925
 30
0.0
 10
103.247589811
 20
503.0638273729
 30
0.0
 10
103.2713472212
 20
502.9896914637
 30
0.0
 10
103.2820873524
 20
502.9117068045
 30
0.0
 10
103.2843845567
 20
502.8550301912
 30
0.0
  0
ENDSEC
  0
SECTION
  2
OBJECTS
  0
DICTIONARY
  5
C
100
AcDbDictionary
280
0
281
1
  3
ACAD_GROUP
350
D
  3
ACAD_MLINESTYLE
350
17
  3
ACAD_LAYOUT
350
1A
  3
ACAD_PLOTSETTINGS
350
19
  3
ACAD_PLOTSTYLENAME
350
E
  0
DICTIONARY
  5
D
102
{ACAD_REACTORS
330
C
102
}
100
AcDbDictionary
280
0
281
1
  0
ACDBDICTIONARYWDFLT
  5
E
102
{ACAD_REACTORS
330
C
102
}
100
AcDbDictionary
281
1
  3
Normal
350
F
100
AcDbDictionaryWithDefault
340
F
  0
DICTIONARY
  5
17
102
{ACAD_REACTORS
330
C
102
}
100
AcDbDictionary
280
0
281
1
  3
Standard
350
18
  0
DICTIONARY
  5
19
102
{ACAD_REACTORS
330
C
102
}
100
AcDbDictionary
281
1
  0
DICTIONARY
  5
1A
102
{ACAD_REACTORS
330
C
102
}
100
AcDbDictionary
281
1
  3
Model
350
63C
  3
Layout1
350
63D
  0
ACDBPLACEHOLDER
  5
F
102
{ACAD_REACTORS
330
E
102
}
  0
MLINESTYLE
  5
18
102
{ACAD_REACTORS
330
17
102
}
100
AcDbMlineStyle
  2
STANDARD
 70
0
  3

 62
256
 51
90.0
 52
90.0
 71
2
 49
0.5
 62
256
  6
BYLAYER
 49
-0.5
 62
256
  6
BYLAYER
  0
LAYOUT
  5
63C
102
{ACAD_REACTORS
330
1A
102
}
100
AcDbPlotSettings
  1

  2
none_device
  4

  6

 40
0.0
 41
0.0
 42
0.0
 43
0.0
 44
210.0
 45
297.0
 46
0.0
 47
0.0
 48
0.0
 49
0.0
140
0.0
141
0.0
142
1.0
143
1.0
 70
1024
 72
1
 73
0
 74
0
  7

 75
0
147
1.0
148
0.0
149
0.0
100
AcDbLayout
  1
Model
 70
0
 71
0
 10
0.0
 20
0.0
 11
210.0
 21
297.0
 12
0.0
 22
0.0
 32
0.0
 14
0.0
 24
0.0
 34
0.0
 15
0.0
 25
0.0
 35
0.0
146
0.0
 13
0.0
 23
0.0
 33
0.0
 16
1.0
 26
0.0
 36
0.0
 17
0.0
 27
1.0
 37
0.0
 76
0
330
210
345
0
346
0
  0
LAYOUT
  5
63D
102
{ACAD_REACTORS
330
1A
102
}
100
AcDbPlotSettings
  1

  2
none_device
  4

  6

 40
0.0
 41
0.0
 42
0.0
 43
0.0
 44
210.0
 45
297.0
 46
0.0
 47
0.0
 48
0.0
 49
0.0
140
0.0
141
0.0
142
1.0
143
1.0
 70
0
 72
1
 73
0
 74
0
  7

 75
0
147
1.0
148
0.0
149
0.0
100
AcDbLayout
  1
Layout1
 70
0
 71
1
 10
0.0
 20
0.0
 11
210.0
 21
297.0
 12
0.0
 22
0.0
 32
0.0
 14
0.0
 24
0.0
 34
0.0
 15
0.0
 25
0.0
 35
0.0
146
0.0
 13
0.0
 23
0.0
 33
0.0
 16
1.0
 26
0.0
 36
0.0
 17
0.0
 27
1.0
 37
0.0
 76
0
330
211
345
0
346
0
  0
ENDSEC
  0
EOF
