999
DXF file: C:\Users\sesa63760\Dev\_Creo\CAD\MCADID0001921_3D-CAD\drw0001_1.dxf
999
Pro/ENGINEER 2019471 by Parametric Technology Corporation
  0
SECTION
  2
HEADER
  9
$ACADVER
  1
AC1024
  9
$DWGCODEPAGE
  3
ANSI_1252
  9
$EXTMAX
 10
71.3415937529
 20
100.897396879
 30
0.0
  9
$EXTMIN
 10
0.0
 20
0.0
 30
0.0
  9
$LIMMIN
 10
0.0
 20
0.0
  9
$LIMMAX
 10
71.3415937529
 20
100.897396879
  9
$VIEWCTR
 10
35.6707968764
 20
50.4486984395
  9
$VIEWSIZE
 40
100.897396879
  9
$CLAYER
  8
0
  9
$LTSCALE
 40
6.5770155003
  9
$CELTYPE
  6
BYLAYER
  9
$DIMSCALE
 40
1.0
  9
$DIMASZ
 40
0.8493046875
  9
$DIMEXO
 40
1.0
  9
$DIMDLI
 40
4.5441198002
  9
$DIMEXE
 40
1.0
  9
$DIMCEN
 40
1.0762389
  9
$DIMLFAC
 40
1.0
  9
$DIMBLK
  1
_FILLED
  9
$DIMALT
 70
0
  9
$DIMALTF
 40
0.0393700787
  9
$DIMTXT
 40
1.1890265625
  9
$DIMTOL
 70
1
  9
$DIMLIM
 70
0
  9
$DIMTFAC
 40
1.0
  9
$DIMTP
 40
0.01
  9
$DIMTM
 40
0.01
  9
$DIMGAP
 40
0.625
  9
$DIMDSEP
 70
46
  9
$AUNITS
 70
0
  9
$PDMODE
 70
3
  9
$PDSIZE
 40
0.3125
  9
$HANDSEED
  5
38E
  9
$TILEMODE
 70
1
  9
$MEASUREMENT
 70
1
  9
$INSUNITS
 70
4
  0
ENDSEC
  0
SECTION
  2
CLASSES
  0
CLASS
  1
ACDBDICTIONARYWDFLT
  2
AcDbDictionaryWithDefault
  3
AutoCAD 2000
 90
0
 91
1
280
0
281
0
  0
CLASS
  1
ACDBPLACEHOLDER
  2
AcDbPlaceHolder
  3
AutoCAD 2000
 90
0
 91
1
280
0
281
0
  0
CLASS
  1
LAYOUT
  2
AcDbLayout
  3
AutoCAD 2000
 90
0
 91
0
280
0
281
0
  0
ENDSEC
  0
SECTION
  2
TABLES
  0
TABLE
  2
VPORT
  5
8
100
AcDbSymbolTable
 70
2
  0
VPORT
  5
1F4
100
AcDbSymbolTableRecord
100
AcDbViewportTableRecord
  2
*ACTIVE
 70
0
 10
0.0
 20
0.0
 11
1.0
 21
1.0
 12
35.6707968764
 22
50.4486984395
 13
0.0
 23
0.0
 14
1.0
 24
1.0
 15
0.0
 25
0.0
 16
0.0
 26
0.0
 36
1.0
 17
0.0
 27
0.0
 37
0.0
 40
100.897396879
 41
0.7070707071
 42
50.0
 43
0.0
 44
0.0
 50
0.0
 51
0.0
 71
0
 72
100
 73
1
 74
1
 75
0
 76
0
 77
0
 78
0
  0
ENDTAB
  0
TABLE
  2
LTYPE
  5
5
100
AcDbSymbolTable
 70
6
  0
LTYPE
  5
14
100
AcDbSymbolTableRecord
100
AcDbLinetypeTableRecord
  2
BYBLOCK
 70
0
  3

 72
65
 73
0
 40
0.0
  0
LTYPE
  5
15
100
AcDbSymbolTableRecord
100
AcDbLinetypeTableRecord
  2
BYLAYER
 70
0
  3

 72
65
 73
0
 40
0.0
  0
LTYPE
  5
16
100
AcDbSymbolTableRecord
100
AcDbLinetypeTableRecord
  2
CONTINUOUS
 70
64
  3
Solid line
 72
65
 73
0
 40
0.0
  0
LTYPE
  5
1F5
100
AcDbSymbolTableRecord
100
AcDbLinetypeTableRecord
  2
CENTER
 70
64
  3
____ _ ____ _ ____ _ ____ _ ____ _ ____ _ ____
 72
65
 73
4
 40
0.6
 49
0.375
 74
0
 49
-0.075
 74
0
 49
0.075
 74
0
 49
-0.075
 74
0
  0
LTYPE
  5
1F6
100
AcDbSymbolTableRecord
100
AcDbLinetypeTableRecord
  2
HIDDEN
 70
64
  3
- - - - - - - - - - - - - - - - - - - -
 72
65
 73
2
 40
0.2
 49
0.1
 74
0
 49
-0.1
 74
0
  0
LTYPE
  5
1F7
100
AcDbSymbolTableRecord
100
AcDbLinetypeTableRecord
  2
PHANTOM
 70
64
  3
_____ _ _ _____ _ _ _____ _ _ _____
 72
65
 73
6
 40
0.8
 49
0.45
 74
0
 49
-0.05
 74
0
 49
0.1
 74
0
 49
-0.05
 74
0
 49
0.1
 74
0
 49
-0.05
 74
0
  0
LTYPE
  5
1F8
100
AcDbSymbolTableRecord
100
AcDbLinetypeTableRecord
  2
DOT
 70
64
  3
. . . . . . . . . . . . . . . . . . . .
 72
65
 73
2
 40
0.2
 49
0.1
 74
0
 49
-0.1
 74
0
  0
LTYPE
  5
1F9
100
AcDbSymbolTableRecord
100
AcDbLinetypeTableRecord
  2
DASHED
 70
64
  3
- - - - - - - - - - - - - - - - - - - -
 72
65
 73
2
 40
0.2
 49
0.1
 74
0
 49
-0.1
 74
0
  0
ENDTAB
  0
TABLE
  2
LAYER
  5
2
100
AcDbSymbolTable
 70
36
  0
LAYER
  5
10
100
AcDbSymbolTableRecord
100
AcDbLayerTableRecord
  2
0
 70
0
 62
7
  6
CONTINUOUS
370
-3
390
F
  0
LAYER
  5
1FA
100
AcDbSymbolTableRecord
100
AcDbLayerTableRecord
  2
DEFAULT_1
 70
0
 62
7
  6
CENTER
370
-3
390
F
  0
LAYER
  5
1FB
100
AcDbSymbolTableRecord
100
AcDbLayerTableRecord
  2
DEFAULT_2
 70
0
 62
8
  6
HIDDEN
370
-3
390
F
  0
LAYER
  5
1FC
100
AcDbSymbolTableRecord
100
AcDbLayerTableRecord
  2
DEFAULT_3
 70
0
 62
7
  6
PHANTOM
370
-3
390
F
  0
LAYER
  5
1FD
100
AcDbSymbolTableRecord
100
AcDbLayerTableRecord
  2
00_COMPONENTS
 70
0
 62
7
  6
CONTINUOUS
370
-3
390
F
  0
LAYER
  5
1FE
100
AcDbSymbolTableRecord
100
AcDbLayerTableRecord
  2
01_1_DEFAULT_DATUMS
 70
0
 62
7
  6
CONTINUOUS
370
-3
390
F
  0
LAYER
  5
1FF
100
AcDbSymbolTableRecord
100
AcDbLayerTableRecord
  2
01_PLANES
 70
0
 62
7
  6
CONTINUOUS
370
-3
390
F
  0
LAYER
  5
200
100
AcDbSymbolTableRecord
100
AcDbLayerTableRecord
  2
02_COORD_SYS
 70
0
 62
7
  6
CONTINUOUS
370
-3
390
F
  0
LAYER
  5
201
100
AcDbSymbolTableRecord
100
AcDbLayerTableRecord
  2
03_AXES
 70
0
 62
7
  6
CONTINUOUS
370
-3
390
F
  0
LAYER
  5
202
100
AcDbSymbolTableRecord
100
AcDbLayerTableRecord
  2
04_POINTS
 70
0
 62
7
  6
CONTINUOUS
370
-3
390
F
  0
LAYER
  5
203
100
AcDbSymbolTableRecord
100
AcDbLayerTableRecord
  2
05_CURVES
 70
0
 62
7
  6
CONTINUOUS
370
-3
390
F
  0
LAYER
  5
204
100
AcDbSymbolTableRecord
100
AcDbLayerTableRecord
  2
06_SURFS
 70
0
 62
7
  6
CONTINUOUS
370
-3
390
F
  0
LAYER
  5
205
100
AcDbSymbolTableRecord
100
AcDbLayerTableRecord
  2
07_COSMETICS
 70
0
 62
7
  6
CONTINUOUS
370
-3
390
F
  0
LAYER
  5
206
100
AcDbSymbolTableRecord
100
AcDbLayerTableRecord
  2
10_NOTES
 70
0
 62
7
  6
CONTINUOUS
370
-3
390
F
  0
LAYER
  5
207
100
AcDbSymbolTableRecord
100
AcDbLayerTableRecord
  2
11_NOTES_PUB
 70
0
 62
7
  6
CONTINUOUS
370
-3
390
F
  0
LAYER
  5
208
100
AcDbSymbolTableRecord
100
AcDbLayerTableRecord
  2
13_REF_GTOL
 70
0
 62
7
  6
CONTINUOUS
370
-3
390
F
  0
LAYER
  5
209
100
AcDbSymbolTableRecord
100
AcDbLayerTableRecord
  2
16_MISC
 70
0
 62
7
  6
CONTINUOUS
370
-3
390
F
  0
LAYER
  5
20A
100
AcDbSymbolTableRecord
100
AcDbLayerTableRecord
  2
17_NO_PRINT
 70
0
 62
7
  6
CONTINUOUS
370
-3
390
F
  0
LAYER
  5
20B
100
AcDbSymbolTableRecord
100
AcDbLayerTableRecord
  2
18_DATUM_CAMS_JOINTS
 70
0
 62
7
  6
CONTINUOUS
370
-3
390
F
  0
LAYER
  5
20C
100
AcDbSymbolTableRecord
100
AcDbLayerTableRecord
  2
19_DATUM_FUNCTIONAL
 70
0
 62
7
  6
CONTINUOUS
370
-3
390
F
  0
LAYER
  5
20D
100
AcDbSymbolTableRecord
100
AcDbLayerTableRecord
  2
20_DATUM_KINEMATIC_SCHEME
 70
0
 62
7
  6
CONTINUOUS
370
-3
390
F
  0
LAYER
  5
20E
100
AcDbSymbolTableRecord
100
AcDbLayerTableRecord
  2
_1
 70
0
 62
7
  6
CONTINUOUS
370
-3
390
F
  0
ENDTAB
  0
TABLE
  2
STYLE
  5
3
100
AcDbSymbolTable
 70
1
  0
STYLE
  5
11
100
AcDbSymbolTableRecord
100
AcDbTextStyleTableRecord
  2
STANDARD
 70
0
 40
0.0
 41
0.8
 50
0.0
 71
0
 42
0.2
  3
txt
  4

  0
STYLE
  5
20F
100
AcDbSymbolTableRecord
100
AcDbTextStyleTableRecord
  2
TEXTSTYLE_1
 70
0
 40
0.0
 41
0.8
 50
0.0
 71
0
 42
0.2
  3
gdt
  4

  0
ENDTAB
  0
TABLE
  2
VIEW
  5
6
100
AcDbSymbolTable
 70
0
  0
ENDTAB
  0
TABLE
  2
UCS
  5
7
100
AcDbSymbolTable
 70
0
  0
ENDTAB
  0
TABLE
  2
APPID
  5
9
100
AcDbSymbolTable
 70
1
  0
APPID
  5
210
100
AcDbSymbolTableRecord
100
AcDbRegAppTableRecord
  2
ACAD
 70
0
  0
ENDTAB
  0
TABLE
  2
BLOCK_RECORD
  5
1
100
AcDbSymbolTable
 70
0
  0
BLOCK_RECORD
  5
211
100
AcDbSymbolTableRecord
100
AcDbBlockTableRecord
  2
*Model_Space
  0
BLOCK_RECORD
  5
212
100
AcDbSymbolTableRecord
100
AcDbBlockTableRecord
  2
*Paper_Space
  0
BLOCK_RECORD
  5
213
100
AcDbSymbolTableRecord
100
AcDbBlockTableRecord
  2
_FILLED
  0
ENDTAB
  0
TABLE
  2
DIMSTYLE
  5
A
100
AcDbSymbolTable
 70
1
100
AcDbDimStyleTable
 71
0
  0
DIMSTYLE
105
214
100
AcDbSymbolTableRecord
100
AcDbDimStyleTableRecord
  2
STANDARD
 70
0
  3

  4

 40
1.0
 41
0.8493046875
 42
1.0
 43
0.38
 44
1.0
 45
0.0
 46
0.0
 47
0.01
 48
0.01
140
1.1890265625
141
0.09
142
0.0
143
25.4
144
1.0
145
0.0
146
1.0
147
0.625
 71
1
 72
0
 73
0
 74
0
 75
0
 76
0
 77
1
 78
8
 79
2
170
0
171
1
172
0
173
0
174
0
175
0
176
0
177
0
178
0
270
2
179
2
271
2
272
2
273
2
274
2
275
0
280
0
281
0
282
0
283
1
284
8
285
0
286
0
287
3
288
0
340
11
278
46
341
213
342
213
343
213
344
213
  0
ENDTAB
  0
ENDSEC
  0
SECTION
  2
BLOCKS
  0
BLOCK
  5
20
100
AcDbEntity
  8
0
100
AcDbBlockBegin
  2
*Model_Space
 70
0
 10
0.0
 20
0.0
 30
0.0
  3
*Model_Space
  1

  0
ENDBLK
  5
21
100
AcDbEntity
  8
0
100
AcDbBlockEnd
  0
BLOCK
  5
1C
100
AcDbEntity
  8
0
100
AcDbBlockBegin
  2
*Paper_Space
 70
0
 10
0.0
 20
0.0
 30
0.0
  3
*Paper_Space
  1

  0
ENDBLK
  5
1D
100
AcDbEntity
  8
0
100
AcDbBlockEnd
  0
BLOCK
  5
215
100
AcDbEntity
  8
0
100
AcDbBlockBegin
  2
_FILLED
 70
64
 10
0.0
 20
0.0
  3
_FILLED
  1

  0
SOLID
  5
216
100
AcDbEntity
  8
0
  6
BYBLOCK
 62
0
100
AcDbTrace
 10
0.0
 20
0.0
 11
-1.0
 21
0.25
 12
-1.0
 22
-0.25
 13
-1.0
 23
-0.25
  0
ENDBLK
  5
217
100
AcDbEntity
  8
0
  6
BYBLOCK
 62
0
100
AcDbBlockEnd
  0
ENDSEC
  0
SECTION
  2
ENTITIES
  0
LINE
  5
218
100
AcDbEntity
  8
0
100
AcDbLine
 62
7
  6
CONTINUOUS
 10
26.5729173047
 20
10.1755913945
 11
15.8248494824
 21
16.3808508632
  0
LINE
  5
219
100
AcDbEntity
  8
0
100
AcDbLine
 62
7
  6
CONTINUOUS
 10
12.9964105818
 20
18.0138138813
 11
11.6882575903
 21
18.7690592772
  0
LINE
  5
21A
100
AcDbEntity
  8
0
100
AcDbLine
 62
7
  6
CONTINUOUS
 10
29.4013562052
 20
8.5426283765
 11
30.7095091968
 21
7.7873829806
  0
LINE
  5
21B
100
AcDbEntity
  8
0
100
AcDbLine
 62
7
  6
CONTINUOUS
 10
29.4013562052
 20
10.5838844193
 11
26.5729173047
 21
12.2168474374
  0
LINE
  5
21C
100
AcDbEntity
  8
0
100
AcDbLine
 62
7
  6
CONTINUOUS
 10
15.8248494824
 20
18.4221069061
 11
12.9964105818
 21
20.0550699242
  0
LINE
  5
21D
100
AcDbEntity
  8
0
100
AcDbLine
 62
7
  6
CONTINUOUS
 10
16.6380256663
 20
18.9324329389
 11
25.7597411207
 21
13.6661272056
  0
LINE
  5
21E
100
AcDbEntity
  8
0
100
AcDbLine
 62
7
  6
CONTINUOUS
 10
24.7696785788
 20
83.5583955646
 11
41.7401706719
 21
93.3562552575
  0
LINE
  5
21F
100
AcDbEntity
  8
0
100
AcDbLine
 62
7
  6
CONTINUOUS
 10
39.1592525588
 20
90.3556670154
 11
26.0778315703
 21
82.8031501687
  0
LINE
  5
220
100
AcDbEntity
  8
0
100
AcDbLine
 62
7
  6
CONTINUOUS
 10
16.0369665026
 20
22.1371487666
 11
16.0553472955
 21
22.1265368509
  0
LINE
  5
221
100
AcDbEntity
  8
0
100
AcDbLine
 62
7
  6
CONTINUOUS
 10
29.6134732254
 20
14.2989262798
 11
29.6324901644
 21
14.2879470934
  0
LINE
  5
222
100
AcDbEntity
  8
0
100
AcDbLine
 62
7
  6
CONTINUOUS
 10
14.503212617
 20
24.0024448534
 11
15.1594197043
 21
23.6235920856
  0
LINE
  5
223
100
AcDbEntity
  8
0
100
AcDbLine
 62
7
  6
CONTINUOUS
 10
28.0797193398
 20
16.1642223666
 11
28.7368747009
 21
15.7848221251
  0
LINE
  5
224
100
AcDbEntity
  8
0
100
AcDbLine
 62
7
  6
CONTINUOUS
 10
37.9572749528
 20
11.4410145396
 11
39.6543382931
 21
10.4612367287
  0
LINE
  5
225
100
AcDbEntity
  8
0
100
AcDbLine
 62
7
  6
CONTINUOUS
 10
42.4827771937
 20
8.8282737106
 11
43.7909301852
 21
8.0730283148
  0
LINE
  5
226
100
AcDbEntity
  8
0
100
AcDbLine
 62
7
  6
CONTINUOUS
 10
11.6882575903
 20
27.0973839319
 11
16.6380256663
 21
24.2396986503
  0
LINE
  5
227
100
AcDbEntity
  8
0
100
AcDbLine
 62
7
  6
CONTINUOUS
 10
25.7597411207
 20
18.973392917
 11
30.7095091968
 21
16.1157076353
  0
LINE
  5
228
100
AcDbEntity
  8
0
100
AcDbLine
 62
7
  6
CONTINUOUS
 10
26.0778315703
 20
80.7618941259
 11
39.1592525588
 21
88.3144109725
  0
LINE
  5
229
100
AcDbEntity
  8
0
100
AcDbLine
 62
7
  6
CONTINUOUS
 10
28.9062704709
 20
81.1701871507
 11
41.9876914593
 21
88.7227039973
  0
LINE
  5
22A
100
AcDbEntity
  8
0
100
AcDbLine
 62
7
  6
CONTINUOUS
 10
42.4827771937
 20
10.8695297535
 11
39.6543382931
 21
12.5024927715
  0
LINE
  5
22B
100
AcDbEntity
  8
0
100
AcDbLine
 62
7
  6
CONTINUOUS
 10
27.5846336054
 20
78.8304516518
 11
27.762952685
 21
78.9334036058
  0
LINE
  5
22C
100
AcDbEntity
  8
0
100
AcDbLine
 62
7
  6
CONTINUOUS
 10
43.6847547997
 20
87.7429261864
 11
30.6033338112
 21
80.1904093398
  0
LINE
  5
22D
100
AcDbEntity
  8
0
100
AcDbLine
 62
7
  6
CONTINUOUS
 10
43.6847547997
 20
85.7016701436
 11
30.6033338112
 21
78.149153297
  0
LINE
  5
22E
100
AcDbEntity
  8
0
100
AcDbLine
 62
7
  6
CONTINUOUS
 10
29.118387491
 20
76.9651555651
 11
29.1331023914
 21
76.9736511661
  0
LINE
  5
22F
100
AcDbEntity
  8
0
100
AcDbLine
 62
7
  6
CONTINUOUS
 10
11.6882575903
 20
66.8610516461
 11
24.7696785788
 21
74.4135684927
  0
LINE
  5
230
100
AcDbEntity
  8
0
100
AcDbLine
 62
7
  6
CONTINUOUS
 10
42.6948942138
 20
14.584571614
 11
42.7132750068
 21
14.5739596983
  0
LINE
  5
231
100
AcDbEntity
  8
0
100
AcDbLine
 62
7
  6
CONTINUOUS
 10
32.1942683428
 20
22.6883467654
 11
27.6688455269
 21
25.3010417393
  0
LINE
  5
232
100
AcDbEntity
  8
0
100
AcDbLine
 62
7
  6
CONTINUOUS
 10
11.6882575903
 20
18.7690592772
 11
11.6882575903
 21
27.0973839319
  0
LINE
  5
233
100
AcDbEntity
  8
0
100
AcDbLine
 62
7
  6
CONTINUOUS
 10
11.6882575903
 20
58.5327269914
 11
11.6882575903
 21
66.8610516461
  0
LINE
  5
234
100
AcDbEntity
  8
0
100
AcDbLine
 62
7
  6
CONTINUOUS
 10
12.9964105818
 20
66.1058062503
 11
12.9964105818
 21
64.0645502074
  0
LINE
  5
235
100
AcDbEntity
  8
0
100
AcDbLine
 62
7
  6
CONTINUOUS
 10
12.9964105818
 20
20.0550699242
 11
12.9964105818
 21
18.0138138813
  0
LINE
  5
236
100
AcDbEntity
  8
0
100
AcDbLine
 62
7
  6
CONTINUOUS
 10
33.4317727118
 20
78.5574463217
 11
46.5131937003
 21
86.1099631683
  0
LINE
  5
237
100
AcDbEntity
  8
0
100
AcDbLine
 62
7
  6
CONTINUOUS
 10
26.0778315703
 20
73.6583230969
 11
12.9964105818
 21
66.1058062503
  0
LINE
  5
238
100
AcDbEntity
  8
0
100
AcDbLine
 62
7
  6
CONTINUOUS
 10
32.1101358464
 20
76.2177108229
 11
32.288454926
 21
76.3206627769
  0
LINE
  5
239
100
AcDbEntity
  8
0
100
AcDbLine
 62
7
  6
CONTINUOUS
 10
48.2102570406
 20
85.1301853575
 11
35.1288360522
 21
77.5776685109
  0
LINE
  5
23A
100
AcDbEntity
  8
0
100
AcDbLine
 62
7
  6
CONTINUOUS
 10
12.9964105818
 20
64.0645502074
 11
26.0778315703
 21
71.6170670541
  0
LINE
  5
23B
100
AcDbEntity
  8
0
100
AcDbLine
 62
7
  6
CONTINUOUS
 10
15.8248494824
 20
16.3808508632
 11
15.8248494824
 21
18.4221069061
  0
LINE
  5
23C
100
AcDbEntity
  8
0
100
AcDbLine
 62
7
  6
CONTINUOUS
 10
15.8248494824
 20
62.4315871894
 11
15.8248494824
 21
64.4728432322
  0
LINE
  5
23D
100
AcDbEntity
  8
0
100
AcDbLine
 62
7
  6
CONTINUOUS
 10
16.0369665026
 20
60.35300486
 11
16.0369665026
 21
60.2678116466
  0
LINE
  5
23E
100
AcDbEntity
  8
0
100
AcDbLine
 62
7
  6
CONTINUOUS
 10
16.0369665026
 20
22.2223419801
 11
16.0369665026
 21
22.1371487666
  0
LINE
  5
23F
100
AcDbEntity
  8
0
100
AcDbLine
 62
7
  6
CONTINUOUS
 10
16.6380256663
 20
24.2396986503
 11
16.6380256663
 21
18.9324329389
  0
LINE
  5
240
100
AcDbEntity
  8
0
100
AcDbLine
 62
7
  6
CONTINUOUS
 10
15.8248494824
 20
64.4728432322
 11
28.9062704709
 21
72.0253600788
  0
LINE
  5
241
100
AcDbEntity
  8
0
100
AcDbLine
 62
7
  6
CONTINUOUS
 10
35.1288360522
 20
75.5364124681
 11
48.2102570406
 21
83.0889293147
  0
LINE
  5
242
100
AcDbEntity
  8
0
100
AcDbLine
 62
7
  6
CONTINUOUS
 10
33.6438897319
 20
74.3524147361
 11
33.6586046324
 21
74.3609103371
  0
LINE
  5
243
100
AcDbEntity
  8
0
100
AcDbLine
 62
7
  6
CONTINUOUS
 10
37.9572749528
 20
75.9447054928
 11
51.0386959412
 21
83.4972223394
  0
LINE
  5
244
100
AcDbEntity
  8
0
100
AcDbLine
 62
7
  6
CONTINUOUS
 10
14.503212617
 20
62.1331077333
 11
14.6815316966
 21
62.2360596874
  0
LINE
  5
245
100
AcDbEntity
  8
0
100
AcDbLine
 62
7
  6
CONTINUOUS
 10
30.6033338112
 20
71.045582268
 11
17.5219128228
 21
63.4930654213
  0
LINE
  5
246
100
AcDbEntity
  8
0
100
AcDbLine
 62
7
  6
CONTINUOUS
 10
36.6356380873
 20
73.6049699939
 11
36.8139571669
 21
73.707921948
  0
LINE
  5
247
100
AcDbEntity
  8
0
100
AcDbLine
 62
7
  6
CONTINUOUS
 10
52.7357592816
 20
82.5174445286
 11
39.6543382931
 21
74.9649276819
  0
LINE
  5
248
100
AcDbEntity
  8
0
100
AcDbLine
 62
7
  6
CONTINUOUS
 10
33.042879438
 20
27.0974265077
 11
31.4165270702
 21
28.0363802431
  0
LINE
  5
249
100
AcDbEntity
  8
0
100
AcDbLine
 62
7
  6
CONTINUOUS
 10
24.4868517637
 20
32.445390846
 11
27.6688455269
 21
30.6083074507
  0
LINE
  5
24A
100
AcDbEntity
  8
0
100
AcDbLine
 62
7
  6
CONTINUOUS
 10
36.7905609813
 20
25.3420017174
 11
39.9725547444
 21
23.504918322
  0
LINE
  5
24B
100
AcDbEntity
  8
0
100
AcDbLine
 62
7
  6
CONTINUOUS
 10
17.5219128228
 20
63.4930654213
 11
17.5219128228
 21
61.4518093785
  0
LINE
  5
24C
100
AcDbEntity
  8
0
100
AcDbLine
 62
7
  6
CONTINUOUS
 10
17.5219128228
 20
61.4518093785
 11
30.6033338112
 21
69.0043262251
  0
LINE
  5
24D
100
AcDbEntity
  8
0
100
AcDbLine
 62
7
  6
CONTINUOUS
 10
16.0369665026
 20
60.2678116466
 11
16.051681403
 21
60.2763072476
  0
LINE
  5
24E
100
AcDbEntity
  8
0
100
AcDbLine
 62
7
  6
CONTINUOUS
 10
20.3503517234
 20
61.8601024033
 11
33.4317727118
 21
69.4126192499
  0
LINE
  5
24F
100
AcDbEntity
  8
0
100
AcDbLine
 62
7
  6
CONTINUOUS
 10
39.6543382931
 20
72.9236716391
 11
52.7357592816
 21
80.4761884857
  0
LINE
  5
250
100
AcDbEntity
  8
0
100
AcDbLine
 62
7
  6
CONTINUOUS
 10
38.1693919729
 20
71.7396739072
 11
38.1841068733
 21
71.7481695082
  0
LINE
  5
251
100
AcDbEntity
  8
0
100
AcDbLine
 62
7
  6
CONTINUOUS
 10
42.4827771937
 20
73.3319646639
 11
55.5641981822
 21
80.8844815105
  0
LINE
  5
252
100
AcDbEntity
  8
0
100
AcDbLine
 62
7
  6
CONTINUOUS
 10
19.0287148579
 20
59.5203669044
 11
19.2070339375
 21
59.6233188584
  0
LINE
  5
253
100
AcDbEntity
  8
0
100
AcDbLine
 62
7
  6
CONTINUOUS
 10
35.1288360522
 20
68.432841439
 11
22.0474150637
 21
60.8803245924
  0
LINE
  5
254
100
AcDbEntity
  8
0
100
AcDbLine
 62
7
  6
CONTINUOUS
 10
44.7808608375
 20
26.2809785683
 11
46.5486351504
 21
25.260376682
  0
LINE
  5
255
100
AcDbEntity
  8
0
100
AcDbLine
 62
7
  6
CONTINUOUS
 10
20.3503517234
 20
59.8188463604
 11
20.3503517234
 21
61.8601024033
  0
LINE
  5
256
100
AcDbEntity
  8
0
100
AcDbLine
 62
7
  6
CONTINUOUS
 10
20.5624687435
 20
57.7402640311
 11
20.5624687435
 21
57.6550708177
  0
LINE
  5
257
100
AcDbEntity
  8
0
100
AcDbLine
 62
7
  6
CONTINUOUS
 10
22.0474150637
 20
60.8803245924
 11
22.0474150637
 21
58.8390685496
  0
LINE
  5
258
100
AcDbEntity
  8
0
100
AcDbLine
 62
7
  6
CONTINUOUS
 10
43.7909301852
 20
72.576719268
 11
60.7614222784
 21
82.3745789609
  0
LINE
  5
259
100
AcDbEntity
  8
0
100
AcDbLine
 62
7
  6
CONTINUOUS
 10
41.1611403283
 20
70.992229165
 11
41.3394594078
 21
71.0951811191
  0
LINE
  5
25A
100
AcDbEntity
  8
0
100
AcDbLine
 62
7
  6
CONTINUOUS
 10
22.0474150637
 20
58.8390685496
 11
35.1288360522
 21
66.3915853962
  0
LINE
  5
25B
100
AcDbEntity
  8
0
100
AcDbLine
 62
7
  6
CONTINUOUS
 10
20.5624687435
 20
57.6550708177
 11
20.5771836439
 21
57.6635664187
  0
LINE
  5
25C
100
AcDbEntity
  8
0
100
AcDbLine
 62
7
  6
CONTINUOUS
 10
24.8758539643
 20
59.2473615743
 11
37.9572749528
 21
66.7998784209
  0
LINE
  5
25D
100
AcDbEntity
  8
0
100
AcDbLine
 62
7
  6
CONTINUOUS
 10
42.6948942138
 20
69.1269330783
 11
42.7096091143
 21
69.1354286793
  0
LINE
  5
25E
100
AcDbEntity
  8
0
100
AcDbLine
 62
7
  6
CONTINUOUS
 10
31.4165270702
 20
34.895000547
 11
33.042879438
 21
33.9560468116
  0
LINE
  5
25F
100
AcDbEntity
  8
0
100
AcDbLine
 62
7
  6
CONTINUOUS
 10
26.5021144804
 20
39.6102293503
 11
28.6234436558
 21
38.3855070868
  0
LINE
  5
260
100
AcDbEntity
  8
0
100
AcDbLine
 62
7
  6
CONTINUOUS
 10
35.8359628523
 20
34.2214513907
 11
37.9572920278
 21
32.9967291271
  0
LINE
  5
261
100
AcDbEntity
  8
0
100
AcDbLine
 62
7
  6
CONTINUOUS
 10
37.9572920278
 20
34.1398325111
 11
35.8359628523
 21
35.3645547747
  0
LINE
  5
262
100
AcDbEntity
  8
0
100
AcDbLine
 62
7
  6
CONTINUOUS
 10
28.6234436558
 20
39.5286104708
 11
26.5021144804
 21
40.7533327343
  0
LINE
  5
263
100
AcDbEntity
  8
0
100
AcDbLine
 62
7
  6
CONTINUOUS
 10
24.4868517637
 20
32.445390846
 11
24.4868517637
 21
46.8158333875
  0
LINE
  5
264
100
AcDbEntity
  8
0
100
AcDbLine
 62
7
  6
CONTINUOUS
 10
24.7696785788
 20
74.4135684927
 11
24.7696785788
 21
83.5583955646
  0
LINE
  5
265
100
AcDbEntity
  8
0
100
AcDbLine
 62
7
  6
CONTINUOUS
 10
24.8758539643
 20
57.2061055315
 11
24.8758539643
 21
59.2473615743
  0
LINE
  5
266
100
AcDbEntity
  8
0
100
AcDbLine
 62
7
  6
CONTINUOUS
 10
25.0879709844
 20
55.1275232021
 11
25.0879709844
 21
55.0423299887
  0
LINE
  5
267
100
AcDbEntity
  8
0
100
AcDbLine
 62
7
  6
CONTINUOUS
 10
25.7597411207
 20
13.6661272056
 11
25.7597411207
 21
18.973392917
  0
LINE
  5
268
100
AcDbEntity
  8
0
100
AcDbLine
 62
7
  6
CONTINUOUS
 10
26.0778315703
 20
82.8031501687
 11
26.0778315703
 21
80.7618941259
  0
LINE
  5
269
100
AcDbEntity
  8
0
100
AcDbLine
 62
7
  6
CONTINUOUS
 10
26.0778315703
 20
71.6170670541
 11
26.0778315703
 21
73.6583230969
  0
LINE
  5
26A
100
AcDbEntity
  8
0
100
AcDbLine
 62
7
  6
CONTINUOUS
 10
26.5021144804
 20
49.9801362136
 11
26.5021144804
 21
49.938984927
  0
LINE
  5
26B
100
AcDbEntity
  8
0
100
AcDbLine
 62
7
  6
CONTINUOUS
 10
26.5021144804
 20
45.978948204
 11
26.5021144804
 21
44.83584482
  0
LINE
  5
26C
100
AcDbEntity
  8
0
100
AcDbLine
 62
7
  6
CONTINUOUS
 10
26.5021144804
 20
40.7533327343
 11
26.5021144804
 21
39.6102293503
  0
LINE
  5
26D
100
AcDbEntity
  8
0
100
AcDbLine
 62
7
  6
CONTINUOUS
 10
26.5729173047
 20
58.2675837635
 11
26.5729173047
 21
56.2263277206
  0
LINE
  5
26E
100
AcDbEntity
  8
0
100
AcDbLine
 62
7
  6
CONTINUOUS
 10
26.5729173047
 20
12.2168474374
 11
26.5729173047
 21
10.1755913945
  0
LINE
  5
26F
100
AcDbEntity
  8
0
100
AcDbLine
 62
7
  6
CONTINUOUS
 10
23.5542170989
 20
56.9076260755
 11
23.7325361784
 21
57.0105780295
  0
LINE
  5
270
100
AcDbEntity
  8
0
100
AcDbLine
 62
7
  6
CONTINUOUS
 10
39.6543382931
 20
65.8201006101
 11
26.5729173047
 21
58.2675837635
  0
LINE
  5
271
100
AcDbEntity
  8
0
100
AcDbLine
 62
7
  6
CONTINUOUS
 10
39.6543382931
 20
63.7788445673
 11
26.5729173047
 21
56.2263277206
  0
LINE
  5
272
100
AcDbEntity
  8
0
100
AcDbLine
 62
7
  6
CONTINUOUS
 10
25.0879709844
 20
55.0423299887
 11
25.1026858849
 21
55.0508255897
  0
LINE
  5
273
100
AcDbEntity
  8
0
100
AcDbLine
 62
7
  6
CONTINUOUS
 10
26.5021144804
 20
44.83584482
 11
28.6234436558
 21
43.6111225564
  0
LINE
  5
274
100
AcDbEntity
  8
0
100
AcDbLine
 62
7
  6
CONTINUOUS
 10
29.613397271
 20
43.0395855001
 11
31.7347264465
 21
41.8148632365
  0
LINE
  5
275
100
AcDbEntity
  8
0
100
AcDbLine
 62
7
  6
CONTINUOUS
 10
32.7246800617
 20
41.2433261802
 11
34.8460092371
 21
40.0186039166
  0
LINE
  5
276
100
AcDbEntity
  8
0
100
AcDbLine
 62
7
  6
CONTINUOUS
 10
35.8359628523
 20
39.4470668603
 11
37.9572920278
 21
38.2223445967
  0
LINE
  5
277
100
AcDbEntity
  8
0
100
AcDbLine
 62
7
  6
CONTINUOUS
 10
27.6688455269
 20
25.3010417393
 11
27.6688455269
 21
30.6083074507
  0
LINE
  5
278
100
AcDbEntity
  8
0
100
AcDbLine
 62
7
  6
CONTINUOUS
 10
28.6234436558
 20
38.3855070868
 11
28.6234436558
 21
39.5286104708
  0
LINE
  5
279
100
AcDbEntity
  8
0
100
AcDbLine
 62
7
  6
CONTINUOUS
 10
28.6234436558
 20
43.6111225564
 11
28.6234436558
 21
44.7542259404
  0
LINE
  5
27A
100
AcDbEntity
  8
0
100
AcDbLine
 62
7
  6
CONTINUOUS
 10
28.6234436558
 20
48.7142626635
 11
28.6234436558
 21
48.7554139501
  0
LINE
  5
27B
100
AcDbEntity
  8
0
100
AcDbLine
 62
7
  6
CONTINUOUS
 10
28.9062704709
 20
79.1289311078
 11
28.9062704709
 21
81.1701871507
  0
LINE
  5
27C
100
AcDbEntity
  8
0
100
AcDbLine
 62
7
  6
CONTINUOUS
 10
29.118387491
 20
77.0503487785
 11
29.118387491
 21
76.9651555651
  0
LINE
  5
27D
100
AcDbEntity
  8
0
100
AcDbLine
 62
7
  6
CONTINUOUS
 10
29.4013562052
 20
8.5426283765
 11
29.4013562052
 21
10.5838844193
  0
LINE
  5
27E
100
AcDbEntity
  8
0
100
AcDbLine
 62
7
  6
CONTINUOUS
 10
29.4013562052
 20
54.5933647026
 11
29.4013562052
 21
56.6346207454
  0
LINE
  5
27F
100
AcDbEntity
  8
0
100
AcDbLine
 62
7
  6
CONTINUOUS
 10
29.613397271
 20
48.1838768938
 11
29.613397271
 21
48.1427256071
  0
LINE
  5
280
100
AcDbEntity
  8
0
100
AcDbLine
 62
7
  6
CONTINUOUS
 10
29.613397271
 20
44.1826888841
 11
29.613397271
 21
43.0395855001
  0
LINE
  5
281
100
AcDbEntity
  8
0
100
AcDbLine
 62
7
  6
CONTINUOUS
 10
29.6134732254
 20
52.5147823732
 11
29.6134732254
 21
52.4295891598
  0
LINE
  5
282
100
AcDbEntity
  8
0
100
AcDbLine
 62
7
  6
CONTINUOUS
 10
29.6134732254
 20
14.3873582939
 11
29.6134732254
 21
14.2989262798
  0
LINE
  5
283
100
AcDbEntity
  8
0
100
AcDbLine
 62
7
  6
CONTINUOUS
 10
29.4013562052
 20
56.6346207454
 11
42.4827771937
 21
64.187137592
  0
LINE
  5
284
100
AcDbEntity
  8
0
100
AcDbLine
 62
7
  6
CONTINUOUS
 10
30.7095091968
 20
55.8793753495
 11
43.7909301852
 21
63.4318921962
  0
LINE
  5
285
100
AcDbEntity
  8
0
100
AcDbLine
 62
7
  6
CONTINUOUS
 10
28.0797193398
 20
54.2948852465
 11
28.2580384194
 21
54.3978372006
  0
LINE
  5
286
100
AcDbEntity
  8
0
100
AcDbLine
 62
7
  6
CONTINUOUS
 10
37.9572920278
 20
39.3654479807
 11
35.8359628523
 21
40.5901702443
  0
LINE
  5
287
100
AcDbEntity
  8
0
100
AcDbLine
 62
7
  6
CONTINUOUS
 10
34.8460092371
 20
41.1617073006
 11
32.7246800617
 21
42.3864295642
  0
LINE
  5
288
100
AcDbEntity
  8
0
100
AcDbLine
 62
7
  6
CONTINUOUS
 10
31.7347264465
 20
42.9579666205
 11
29.613397271
 21
44.1826888841
  0
LINE
  5
289
100
AcDbEntity
  8
0
100
AcDbLine
 62
7
  6
CONTINUOUS
 10
28.6234436558
 20
44.7542259404
 11
26.5021144804
 21
45.978948204
  0
LINE
  5
28A
100
AcDbEntity
  8
0
100
AcDbLine
 62
7
  6
CONTINUOUS
 10
30.6033338112
 20
80.1904093398
 11
30.6033338112
 21
78.149153297
  0
LINE
  5
28B
100
AcDbEntity
  8
0
100
AcDbLine
 62
7
  6
CONTINUOUS
 10
30.6033338112
 20
69.0043262251
 11
30.6033338112
 21
71.045582268
  0
LINE
  5
28C
100
AcDbEntity
  8
0
100
AcDbLine
 62
7
  6
CONTINUOUS
 10
30.7095091968
 20
7.7873829806
 11
30.7095091968
 21
16.1157076353
  0
LINE
  5
28D
100
AcDbEntity
  8
0
100
AcDbLine
 62
7
  6
CONTINUOUS
 10
30.7095091968
 20
47.5510506948
 11
30.7095091968
 21
55.8793753495
  0
LINE
  5
28E
100
AcDbEntity
  8
0
100
AcDbLine
 62
7
  6
CONTINUOUS
 10
31.4165270702
 20
28.0363802431
 11
31.4165270702
 21
34.895000547
  0
LINE
  5
28F
100
AcDbEntity
  8
0
100
AcDbLine
 62
7
  6
CONTINUOUS
 10
31.7347264465
 20
41.8148632365
 11
31.7347264465
 21
42.9579666205
  0
LINE
  5
290
100
AcDbEntity
  8
0
100
AcDbLine
 62
7
  6
CONTINUOUS
 10
31.7347264465
 20
46.9180033436
 11
31.7347264465
 21
48.0611067276
  0
LINE
  5
291
100
AcDbEntity
  8
0
100
AcDbLine
 62
7
  6
CONTINUOUS
 10
32.7246800617
 20
47.4895696712
 11
32.7246800617
 21
46.3464662873
  0
LINE
  5
292
100
AcDbEntity
  8
0
100
AcDbLine
 62
7
  6
CONTINUOUS
 10
32.7246800617
 20
42.3864295642
 11
32.7246800617
 21
41.2433261802
  0
LINE
  5
293
100
AcDbEntity
  8
0
100
AcDbLine
 62
7
  6
CONTINUOUS
 10
33.042879438
 20
33.9560468116
 11
33.042879438
 21
27.0974265077
  0
LINE
  5
294
100
AcDbEntity
  8
0
100
AcDbLine
 62
7
  6
CONTINUOUS
 10
29.6134732254
 20
52.4295891598
 11
29.6281881258
 21
52.4380847608
  0
LINE
  5
295
100
AcDbEntity
  8
0
100
AcDbLine
 62
7
  6
CONTINUOUS
 10
26.5377530495
 20
49.9595607417
 11
26.5021144804
 21
49.938984927
  0
LINE
  5
296
100
AcDbEntity
  8
0
100
AcDbLine
 62
7
  6
CONTINUOUS
 10
26.5021144804
 20
49.938984927
 11
28.6234436558
 21
48.7142626635
  0
LINE
  5
297
100
AcDbEntity
  8
0
100
AcDbLine
 62
7
  6
CONTINUOUS
 10
29.613397271
 20
48.1427256071
 11
31.7347264465
 21
46.9180033436
  0
LINE
  5
298
100
AcDbEntity
  8
0
100
AcDbLine
 62
7
  6
CONTINUOUS
 10
32.7246800617
 20
46.3464662873
 11
34.8460092371
 21
45.1217440237
  0
LINE
  5
299
100
AcDbEntity
  8
0
100
AcDbLine
 62
7
  6
CONTINUOUS
 10
35.8359628523
 20
44.5502069674
 11
37.9572920278
 21
43.3254847038
  0
LINE
  5
29A
100
AcDbEntity
  8
0
100
AcDbLine
 62
7
  6
CONTINUOUS
 10
11.6882575903
 20
58.5327269914
 11
30.7095091968
 21
47.5510506948
  0
LINE
  5
29B
100
AcDbEntity
  8
0
100
AcDbLine
 62
7
  6
CONTINUOUS
 10
37.9572920278
 20
44.4685880878
 11
35.8359628523
 21
45.6933103514
  0
LINE
  5
29C
100
AcDbEntity
  8
0
100
AcDbLine
 62
7
  6
CONTINUOUS
 10
34.8460092371
 20
46.2648474077
 11
32.7246800617
 21
47.4895696712
  0
LINE
  5
29D
100
AcDbEntity
  8
0
100
AcDbLine
 62
7
  6
CONTINUOUS
 10
31.7347264465
 20
48.0611067276
 11
31.6638413498
 21
48.1020313314
  0
LINE
  5
29E
100
AcDbEntity
  8
0
100
AcDbLine
 62
7
  6
CONTINUOUS
 10
44.7808608375
 20
40.6514211098
 11
46.5486351504
 21
39.6308192235
  0
LINE
  5
29F
100
AcDbEntity
  8
0
100
AcDbLine
 62
7
  6
CONTINUOUS
 10
60.7614222784
 20
32.1596803074
 11
58.2865588481
 21
33.5885110506
  0
LINE
  5
2A0
100
AcDbEntity
  8
0
100
AcDbLine
 62
7
  6
CONTINUOUS
 10
33.4317727118
 20
76.5161902789
 11
33.4317727118
 21
78.5574463217
  0
LINE
  5
2A1
100
AcDbEntity
  8
0
100
AcDbLine
 62
7
  6
CONTINUOUS
 10
33.6438897319
 20
74.4376079496
 11
33.6438897319
 21
74.3524147361
  0
LINE
  5
2A2
100
AcDbEntity
  8
0
100
AcDbLine
 62
7
  6
CONTINUOUS
 10
34.8460092371
 20
40.0186039166
 11
34.8460092371
 21
41.1617073006
  0
LINE
  5
2A3
100
AcDbEntity
  8
0
100
AcDbLine
 62
7
  6
CONTINUOUS
 10
34.8460092371
 20
45.1217440237
 11
34.8460092371
 21
46.2648474077
  0
LINE
  5
2A4
100
AcDbEntity
  8
0
100
AcDbLine
 62
7
  6
CONTINUOUS
 10
34.8460092371
 20
48.4285788131
 11
34.8460092371
 21
49.5716821971
  0
LINE
  5
2A5
100
AcDbEntity
  8
0
100
AcDbLine
 62
7
  6
CONTINUOUS
 10
35.1288360522
 20
77.5776685109
 11
35.1288360522
 21
75.5364124681
  0
LINE
  5
2A6
100
AcDbEntity
  8
0
100
AcDbLine
 62
7
  6
CONTINUOUS
 10
35.1288360522
 20
66.3915853962
 11
35.1288360522
 21
68.432841439
  0
LINE
  5
2A7
100
AcDbEntity
  8
0
100
AcDbLine
 62
7
  6
CONTINUOUS
 10
35.8359628523
 20
49.0001451407
 11
35.8359628523
 21
47.8570417567
  0
LINE
  5
2A8
100
AcDbEntity
  8
0
100
AcDbLine
 62
7
  6
CONTINUOUS
 10
35.8359628523
 20
45.6933103514
 11
35.8359628523
 21
44.5502069674
  0
LINE
  5
2A9
100
AcDbEntity
  8
0
100
AcDbLine
 62
7
  6
CONTINUOUS
 10
35.8359628523
 20
40.5901702443
 11
35.8359628523
 21
39.4470668603
  0
LINE
  5
2AA
100
AcDbEntity
  8
0
100
AcDbLine
 62
7
  6
CONTINUOUS
 10
35.8359628523
 20
35.3645547747
 11
35.8359628523
 21
34.2214513907
  0
LINE
  5
2AB
100
AcDbEntity
  8
0
100
AcDbLine
 62
7
  6
CONTINUOUS
 10
26.4667761008
 20
47.9589364131
 11
24.4868517637
 21
46.8158333875
  0
LINE
  5
2AC
100
AcDbEntity
  8
0
100
AcDbLine
 62
7
  6
CONTINUOUS
 10
29.6490358401
 20
48.1633014218
 11
29.613397271
 21
48.1427256071
  0
LINE
  5
2AD
100
AcDbEntity
  8
0
100
AcDbLine
 62
7
  6
CONTINUOUS
 10
46.5486351504
 20
56.6957197415
 11
30.7095091968
 21
47.5510506948
  0
LINE
  5
2AE
100
AcDbEntity
  8
0
100
AcDbLine
 62
7
  6
CONTINUOUS
 10
27.4920852025
 20
45.4074012712
 11
26.5021144804
 21
44.83584482
  0
LINE
  5
2AF
100
AcDbEntity
  8
0
100
AcDbLine
 62
7
  6
CONTINUOUS
 10
60.7614222784
 20
64.4115257841
 11
58.2865588481
 21
62.9826712455
  0
LINE
  5
2B0
100
AcDbEntity
  8
0
100
AcDbLine
 62
7
  6
CONTINUOUS
 10
33.5377145024
 20
49.1839060425
 11
34.8460092371
 21
48.4285788131
  0
LINE
  5
2B1
100
AcDbEntity
  8
0
100
AcDbLine
 62
7
  6
CONTINUOUS
 10
35.8359628523
 20
47.8570417567
 11
37.9572920278
 21
46.6323194932
  0
LINE
  5
2B2
100
AcDbEntity
  8
0
100
AcDbLine
 62
7
  6
CONTINUOUS
 10
47.0435931166
 20
41.9578024022
 11
48.8113674294
 21
40.9372005159
  0
LINE
  5
2B3
100
AcDbEntity
  8
0
100
AcDbLine
 62
7
  6
CONTINUOUS
 10
16.0369665026
 20
60.2678116466
 11
16.0553472955
 21
60.2571997309
  0
LINE
  5
2B4
100
AcDbEntity
  8
0
100
AcDbLine
 62
7
  6
CONTINUOUS
 10
20.5624687435
 20
57.6550708177
 11
20.5808495365
 21
57.644458902
  0
LINE
  5
2B5
100
AcDbEntity
  8
0
100
AcDbLine
 62
7
  6
CONTINUOUS
 10
25.0879709844
 20
55.0423299887
 11
25.1063517774
 21
55.031718073
  0
LINE
  5
2B6
100
AcDbEntity
  8
0
100
AcDbLine
 62
7
  6
CONTINUOUS
 10
29.6134732254
 20
52.4295891598
 11
29.6318540183
 21
52.4189772441
  0
LINE
  5
2B7
100
AcDbEntity
  8
0
100
AcDbLine
 62
7
  6
CONTINUOUS
 10
37.9572920278
 20
47.7754228772
 11
35.8359628523
 21
49.0001451407
  0
LINE
  5
2B8
100
AcDbEntity
  8
0
100
AcDbLine
 62
7
  6
CONTINUOUS
 10
34.8460092371
 20
49.5716821971
 11
34.5276852246
 21
49.7554624937
  0
LINE
  5
2B9
100
AcDbEntity
  8
0
100
AcDbLine
 62
7
  6
CONTINUOUS
 10
48.8113674294
 20
41.8761782956
 11
47.3617924929
 21
42.7130718424
  0
LINE
  5
2BA
100
AcDbEntity
  8
0
100
AcDbLine
 62
7
  6
CONTINUOUS
 10
14.503212617
 20
62.1331077333
 11
15.1594197043
 21
61.7542549656
  0
LINE
  5
2BB
100
AcDbEntity
  8
0
100
AcDbLine
 62
7
  6
CONTINUOUS
 10
19.0287148579
 20
59.5203669044
 11
19.6849219453
 21
59.1415141367
  0
LINE
  5
2BC
100
AcDbEntity
  8
0
100
AcDbLine
 62
7
  6
CONTINUOUS
 10
23.5542170989
 20
56.9076260755
 11
24.2104241862
 21
56.5287733077
  0
LINE
  5
2BD
100
AcDbEntity
  8
0
100
AcDbLine
 62
7
  6
CONTINUOUS
 10
28.0797193398
 20
54.2948852465
 11
28.7359264271
 21
53.9160324788
  0
LINE
  5
2BE
100
AcDbEntity
  8
0
100
AcDbLine
 62
7
  6
CONTINUOUS
 10
44.7808608375
 20
45.2238346457
 11
46.5486351504
 21
44.2032327594
  0
LINE
  5
2BF
100
AcDbEntity
  8
0
100
AcDbLine
 62
7
  6
CONTINUOUS
 10
12.9964105818
 20
64.0645502074
 11
15.8248494824
 21
62.4315871894
  0
LINE
  5
2C0
100
AcDbEntity
  8
0
100
AcDbLine
 62
7
  6
CONTINUOUS
 10
17.5219128228
 20
61.4518093785
 11
20.3503517234
 21
59.8188463604
  0
LINE
  5
2C1
100
AcDbEntity
  8
0
100
AcDbLine
 62
7
  6
CONTINUOUS
 10
22.0474150637
 20
58.8390685496
 11
24.8758539643
 21
57.2061055315
  0
LINE
  5
2C2
100
AcDbEntity
  8
0
100
AcDbLine
 62
7
  6
CONTINUOUS
 10
26.5729173047
 20
56.2263277206
 11
29.4013562052
 21
54.5933647026
  0
LINE
  5
2C3
100
AcDbEntity
  8
0
100
AcDbLine
 62
7
  6
CONTINUOUS
 10
37.9572749528
 20
11.4410145396
 11
37.9572749528
 21
11.9718575129
  0
LINE
  5
2C4
100
AcDbEntity
  8
0
100
AcDbLine
 62
7
  6
CONTINUOUS
 10
37.9572749528
 20
73.90344945
 11
37.9572749528
 21
75.9447054928
  0
LINE
  5
2C5
100
AcDbEntity
  8
0
100
AcDbLine
 62
7
  6
CONTINUOUS
 10
37.9572920278
 20
32.9967291271
 11
37.9572920278
 21
34.1398325111
  0
LINE
  5
2C6
100
AcDbEntity
  8
0
100
AcDbLine
 62
7
  6
CONTINUOUS
 10
37.9572920278
 20
38.2223445967
 11
37.9572920278
 21
39.3654479807
  0
LINE
  5
2C7
100
AcDbEntity
  8
0
100
AcDbLine
 62
7
  6
CONTINUOUS
 10
37.9572920278
 20
43.3254847038
 11
37.9572920278
 21
44.4685880878
  0
LINE
  5
2C8
100
AcDbEntity
  8
0
100
AcDbLine
 62
7
  6
CONTINUOUS
 10
37.9572920278
 20
46.6323194932
 11
37.9572920278
 21
47.7754228772
  0
LINE
  5
2C9
100
AcDbEntity
  8
0
100
AcDbLine
 62
7
  6
CONTINUOUS
 10
38.1693919729
 20
71.8248671206
 11
38.1693919729
 21
71.7396739072
  0
LINE
  5
2CA
100
AcDbEntity
  8
0
100
AcDbLine
 62
7
  6
CONTINUOUS
 10
39.1592525588
 20
88.3144109725
 11
39.1592525588
 21
90.3556670154
  0
LINE
  5
2CB
100
AcDbEntity
  8
0
100
AcDbLine
 62
7
  6
CONTINUOUS
 10
39.6543382931
 20
74.9649276819
 11
39.6543382931
 21
72.9236716391
  0
LINE
  5
2CC
100
AcDbEntity
  8
0
100
AcDbLine
 62
7
  6
CONTINUOUS
 10
39.6543382931
 20
12.5024927715
 11
39.6543382931
 21
10.4612367287
  0
LINE
  5
2CD
100
AcDbEntity
  8
0
100
AcDbLine
 62
7
  6
CONTINUOUS
 10
39.6543382931
 20
63.7788445673
 11
39.6543382931
 21
65.8201006101
  0
LINE
  5
2CE
100
AcDbEntity
  8
0
100
AcDbLine
 62
7
  6
CONTINUOUS
 10
33.7146507838
 20
46.9180227384
 11
32.7246800617
 21
46.3464662873
  0
LINE
  5
2CF
100
AcDbEntity
  8
0
100
AcDbLine
 62
7
  6
CONTINUOUS
 10
36.8259335745
 20
48.4285982079
 11
35.8359628523
 21
47.8570417567
  0
LINE
  5
2D0
100
AcDbEntity
  8
0
100
AcDbLine
 62
7
  6
CONTINUOUS
 10
30.6033679932
 20
43.6111419513
 11
29.613397271
 21
43.0395855001
  0
LINE
  5
2D1
100
AcDbEntity
  8
0
100
AcDbLine
 62
7
  6
CONTINUOUS
 10
47.9981771934
 20
45.0401212526
 11
48.8113674294
 21
44.5706362721
  0
LINE
  5
2D2
100
AcDbEntity
  8
0
100
AcDbLine
 62
7
  6
CONTINUOUS
 10
11.6882575903
 20
66.8610516461
 11
12.9964105818
 21
66.1058062503
  0
LINE
  5
2D3
100
AcDbEntity
  8
0
100
AcDbLine
 62
7
  6
CONTINUOUS
 10
15.8248494824
 20
64.4728432322
 11
17.5219128228
 21
63.4930654213
  0
LINE
  5
2D4
100
AcDbEntity
  8
0
100
AcDbLine
 62
7
  6
CONTINUOUS
 10
20.3503517234
 20
61.8601024033
 11
22.0474150637
 21
60.8803245924
  0
LINE
  5
2D5
100
AcDbEntity
  8
0
100
AcDbLine
 62
7
  6
CONTINUOUS
 10
24.8758539643
 20
59.2473615743
 11
26.5729173047
 21
58.2675837635
  0
LINE
  5
2D6
100
AcDbEntity
  8
0
100
AcDbLine
 62
7
  6
CONTINUOUS
 10
29.4013562052
 20
56.6346207454
 11
30.7095091968
 21
55.8793753495
  0
LINE
  5
2D7
100
AcDbEntity
  8
0
100
AcDbLine
 62
7
  6
CONTINUOUS
 10
39.9725547444
 20
37.8753608635
 11
39.9725547444
 21
23.504918322
  0
LINE
  5
2D8
100
AcDbEntity
  8
0
100
AcDbLine
 62
7
  6
CONTINUOUS
 10
39.9725547444
 20
42.4477743994
 11
39.9725547444
 21
52.8990406121
  0
LINE
  5
2D9
100
AcDbEntity
  8
0
100
AcDbLine
 62
7
  6
CONTINUOUS
 10
42.4827771937
 20
8.8282737106
 11
42.4827771937
 21
10.8695297535
  0
LINE
  5
2DA
100
AcDbEntity
  8
0
100
AcDbLine
 62
7
  6
CONTINUOUS
 10
42.4827771937
 20
71.290708621
 11
42.4827771937
 21
73.3319646639
  0
LINE
  5
2DB
100
AcDbEntity
  8
0
100
AcDbLine
 62
7
  6
CONTINUOUS
 10
42.6948942138
 20
69.2121262917
 11
42.6948942138
 21
69.1269330783
  0
LINE
  5
2DC
100
AcDbEntity
  8
0
100
AcDbLine
 62
7
  6
CONTINUOUS
 10
42.6948942138
 20
14.6697648274
 11
42.6948942138
 21
14.584571614
  0
LINE
  5
2DD
100
AcDbEntity
  8
0
100
AcDbLine
 62
7
  6
CONTINUOUS
 10
27.4920852025
 20
40.1817858015
 11
26.5021144804
 21
39.6102293503
  0
LINE
  5
2DE
100
AcDbEntity
  8
0
100
AcDbLine
 62
7
  6
CONTINUOUS
 10
36.8259335745
 20
45.1217634186
 11
35.8359628523
 21
44.5502069674
  0
LINE
  5
2DF
100
AcDbEntity
  8
0
100
AcDbLine
 62
7
  6
CONTINUOUS
 10
33.7146507838
 20
41.8148826314
 11
32.7246800617
 21
41.2433261802
  0
LINE
  5
2E0
100
AcDbEntity
  8
0
100
AcDbLine
 62
7
  6
CONTINUOUS
 10
43.6847547997
 20
85.7016701436
 11
43.6847547997
 21
87.7429261864
  0
LINE
  5
2E1
100
AcDbEntity
  8
0
100
AcDbLine
 62
7
  6
CONTINUOUS
 10
43.7909301852
 20
8.0730283148
 11
43.7909301852
 21
15.3398998272
  0
LINE
  5
2E2
100
AcDbEntity
  8
0
100
AcDbLine
 62
7
  6
CONTINUOUS
 10
43.7909301852
 20
63.4318921962
 11
43.7909301852
 21
72.576719268
  0
LINE
  5
2E3
100
AcDbEntity
  8
0
100
AcDbLine
 62
7
  6
CONTINUOUS
 10
44.7808608375
 20
26.2809785683
 11
44.7808608375
 21
40.6514211098
  0
LINE
  5
2E4
100
AcDbEntity
  8
0
100
AcDbLine
 62
7
  6
CONTINUOUS
 10
44.7808608375
 20
45.2238346457
 11
44.7808608375
 21
55.6751008584
  0
LINE
  5
2E5
100
AcDbEntity
  8
0
100
AcDbLine
 62
7
  6
CONTINUOUS
 10
11.6882575903
 20
27.0973839319
 11
24.4868517637
 21
34.4866116154
  0
LINE
  5
2E6
100
AcDbEntity
  8
0
100
AcDbLine
 62
7
  6
CONTINUOUS
 10
44.7808608375
 20
45.2238346457
 11
39.9725547444
 21
42.4477743994
  0
LINE
  5
2E7
100
AcDbEntity
  8
0
100
AcDbLine
 62
7
  6
CONTINUOUS
 10
58.2865588481
 20
53.0213064831
 11
58.9936479655
 21
53.4295421386
  0
LINE
  5
2E8
100
AcDbEntity
  8
0
100
AcDbLine
 62
7
  6
CONTINUOUS
 10
36.8259335745
 20
40.0186233115
 11
35.8359628523
 21
39.4470668603
  0
LINE
  5
2E9
100
AcDbEntity
  8
0
100
AcDbLine
 62
7
  6
CONTINUOUS
 10
46.5486351504
 20
25.260376682
 11
46.5486351504
 21
39.6308192235
  0
LINE
  5
2EA
100
AcDbEntity
  8
0
100
AcDbLine
 62
7
  6
CONTINUOUS
 10
46.5486351504
 20
44.2032327594
 11
46.5486351504
 21
56.6957197415
  0
LINE
  5
2EB
100
AcDbEntity
  8
0
100
AcDbLine
 62
7
  6
CONTINUOUS
 10
48.2102570406
 20
83.0889293147
 11
48.2102570406
 21
85.1301853575
  0
LINE
  5
2EC
100
AcDbEntity
  8
0
100
AcDbLine
 62
7
  6
CONTINUOUS
 10
48.8113674294
 20
40.9372005159
 11
48.8113674294
 21
41.8761782956
  0
LINE
  5
2ED
100
AcDbEntity
  8
0
100
AcDbLine
 62
7
  6
CONTINUOUS
 10
48.8113674294
 20
44.5706362721
 11
48.8113674294
 21
45.5096140518
  0
LINE
  5
2EE
100
AcDbEntity
  8
0
100
AcDbLine
 62
7
  6
CONTINUOUS
 10
48.8113674294
 20
45.5096140518
 11
46.5486351504
 21
44.2032327594
  0
LINE
  5
2EF
100
AcDbEntity
  8
0
100
AcDbLine
 62
7
  6
CONTINUOUS
 10
58.2865588481
 20
50.9800857137
 11
60.7614222784
 21
52.4089402523
  0
LINE
  5
2F0
100
AcDbEntity
  8
0
100
AcDbLine
 62
7
  6
CONTINUOUS
 10
60.7614222784
 20
51.4699624726
 11
48.8113674294
 21
44.5706362721
  0
LINE
  5
2F1
100
AcDbEntity
  8
0
100
AcDbLine
 62
7
  6
CONTINUOUS
 10
14.503212617
 20
24.0024448534
 11
14.6815316966
 21
24.1053968074
  0
LINE
  5
2F2
100
AcDbEntity
  8
0
100
AcDbLine
 62
7
  6
CONTINUOUS
 10
47.3617924929
 20
42.7130718424
 11
59.3118473418
 21
49.6123980428
  0
LINE
  5
2F3
100
AcDbEntity
  8
0
100
AcDbLine
 62
7
  6
CONTINUOUS
 10
39.9725547444
 20
37.8753608635
 11
47.0435931166
 21
41.9578024022
  0
LINE
  5
2F4
100
AcDbEntity
  8
0
100
AcDbLine
 62
7
  6
CONTINUOUS
 10
27.6688455269
 20
30.6083074507
 11
16.6380256663
 21
24.2396986503
  0
LINE
  5
2F5
100
AcDbEntity
  8
0
100
AcDbLine
 62
7
  6
CONTINUOUS
 10
59.3118473418
 20
49.6123980428
 11
60.7614222784
 21
48.775504496
  0
LINE
  5
2F6
100
AcDbEntity
  8
0
100
AcDbLine
 62
7
  6
CONTINUOUS
 10
40.7149723327
 20
63.166501072
 11
39.6543382931
 21
63.7788445673
  0
LINE
  5
2F7
100
AcDbEntity
  8
0
100
AcDbLine
 62
7
  6
CONTINUOUS
 10
36.1894700918
 20
65.779241901
 11
35.1288360522
 21
66.3915853962
  0
LINE
  5
2F8
100
AcDbEntity
  8
0
100
AcDbLine
 62
7
  6
CONTINUOUS
 10
31.6639678509
 20
68.3919827299
 11
30.6033338112
 21
69.0043262251
  0
LINE
  5
2F9
100
AcDbEntity
  8
0
100
AcDbLine
 62
7
  6
CONTINUOUS
 10
27.1384656099
 20
71.0047235588
 11
26.0778315703
 21
71.6170670541
  0
LINE
  5
2FA
100
AcDbEntity
  8
0
100
AcDbLine
 62
7
  6
CONTINUOUS
 10
52.7357592816
 20
80.4761884857
 11
52.7357592816
 21
82.5174445286
  0
LINE
  5
2FB
100
AcDbEntity
  8
0
100
AcDbLine
 62
7
  6
CONTINUOUS
 10
48.8113674294
 20
41.8761782956
 11
60.7614222784
 21
48.775504496
  0
LINE
  5
2FC
100
AcDbEntity
  8
0
100
AcDbLine
 62
7
  6
CONTINUOUS
 10
36.8259335745
 20
34.7930078419
 11
35.8359628523
 21
34.2214513907
  0
LINE
  5
2FD
100
AcDbEntity
  8
0
100
AcDbLine
 62
7
  6
CONTINUOUS
 10
16.0369665026
 20
22.1371487666
 11
16.051681403
 21
22.1456443676
  0
LINE
  5
2FE
100
AcDbEntity
  8
0
100
AcDbLine
 62
7
  6
CONTINUOUS
 10
60.7614222784
 20
47.8365267163
 11
58.2865588481
 21
46.4076721778
  0
LINE
  5
2FF
100
AcDbEntity
  8
0
100
AcDbLine
 62
7
  6
CONTINUOUS
 10
46.5486351504
 20
39.6308192235
 11
48.8113674294
 21
40.9372005159
  0
LINE
  5
300
100
AcDbEntity
  8
0
100
AcDbLine
 62
7
  6
CONTINUOUS
 10
12.9964105818
 20
18.0138138813
 11
14.7642154428
 21
19.0344504013
  0
LINE
  5
301
100
AcDbEntity
  8
0
100
AcDbLine
 62
7
  6
CONTINUOUS
 10
60.7614222784
 20
52.4089402523
 11
58.9936479655
 21
53.4295421386
  0
LINE
  5
302
100
AcDbEntity
  8
0
100
AcDbLine
 62
7
  6
CONTINUOUS
 10
43.7909301852
 20
63.4318921962
 11
42.4827771937
 21
64.187137592
  0
LINE
  5
303
100
AcDbEntity
  8
0
100
AcDbLine
 62
7
  6
CONTINUOUS
 10
39.6543382931
 20
65.8201006101
 11
37.9572749528
 21
66.7998784209
  0
LINE
  5
304
100
AcDbEntity
  8
0
100
AcDbLine
 62
7
  6
CONTINUOUS
 10
35.1288360522
 20
68.432841439
 11
33.4317727118
 21
69.4126192499
  0
LINE
  5
305
100
AcDbEntity
  8
0
100
AcDbLine
 62
7
  6
CONTINUOUS
 10
30.6033338112
 20
71.045582268
 11
28.9062704709
 21
72.0253600788
  0
LINE
  5
306
100
AcDbEntity
  8
0
100
AcDbLine
 62
7
  6
CONTINUOUS
 10
24.7696785788
 20
74.4135684927
 11
26.0778315703
 21
73.6583230969
  0
LINE
  5
307
100
AcDbEntity
  8
0
100
AcDbLine
 62
7
  6
CONTINUOUS
 10
31.4165270702
 20
28.0363802431
 11
33.042879438
 21
28.9753496156
  0
LINE
  5
308
100
AcDbEntity
  8
0
100
AcDbLine
 62
7
  6
CONTINUOUS
 10
27.6688455269
 20
25.3010417393
 11
16.6380256663
 21
18.9324329389
  0
LINE
  5
309
100
AcDbEntity
  8
0
100
AcDbLine
 62
7
  6
CONTINUOUS
 10
29.118387491
 20
76.9651555651
 11
29.136768284
 21
76.9545436494
  0
LINE
  5
30A
100
AcDbEntity
  8
0
100
AcDbLine
 62
7
  6
CONTINUOUS
 10
33.6438897319
 20
74.3524147361
 11
33.6622705249
 21
74.3418028204
  0
LINE
  5
30B
100
AcDbEntity
  8
0
100
AcDbLine
 62
7
  6
CONTINUOUS
 10
38.1693919729
 20
71.7396739072
 11
38.1877727659
 21
71.7290619915
  0
LINE
  5
30C
100
AcDbEntity
  8
0
100
AcDbLine
 62
7
  6
CONTINUOUS
 10
42.6948942138
 20
69.1269330783
 11
42.7132750068
 21
69.1163211626
  0
LINE
  5
30D
100
AcDbEntity
  8
0
100
AcDbLine
 62
7
  6
CONTINUOUS
 10
27.5846336054
 20
78.8304516518
 11
28.2408406928
 21
78.4515988841
  0
LINE
  5
30E
100
AcDbEntity
  8
0
100
AcDbLine
 62
7
  6
CONTINUOUS
 10
32.1101358464
 20
76.2177108229
 11
32.7663429337
 21
75.8388580551
  0
LINE
  5
30F
100
AcDbEntity
  8
0
100
AcDbLine
 62
7
  6
CONTINUOUS
 10
36.6356380873
 20
73.6049699939
 11
37.2918451746
 21
73.2261172262
  0
LINE
  5
310
100
AcDbEntity
  8
0
100
AcDbLine
 62
7
  6
CONTINUOUS
 10
41.1611403283
 20
70.992229165
 11
41.8173474156
 21
70.6133763973
  0
LINE
  5
311
100
AcDbEntity
  8
0
100
AcDbLine
 62
7
  6
CONTINUOUS
 10
58.2865588481
 20
62.9826712455
 11
58.2865588481
 21
50.9800857137
  0
LINE
  5
312
100
AcDbEntity
  8
0
100
AcDbLine
 62
7
  6
CONTINUOUS
 10
58.2865588481
 20
46.4076721778
 11
58.2865588481
 21
30.7308257689
  0
LINE
  5
313
100
AcDbEntity
  8
0
100
AcDbLine
 62
7
  6
CONTINUOUS
 10
25.7597411207
 20
18.973392917
 11
36.7905609813
 21
25.3420017174
  0
LINE
  5
314
100
AcDbEntity
  8
0
100
AcDbLine
 62
7
  6
CONTINUOUS
 10
26.0778315703
 20
80.7618941259
 11
28.9062704709
 21
79.1289311078
  0
LINE
  5
315
100
AcDbEntity
  8
0
100
AcDbLine
 62
7
  6
CONTINUOUS
 10
30.6033338112
 20
78.149153297
 11
33.4317727118
 21
76.5161902789
  0
LINE
  5
316
100
AcDbEntity
  8
0
100
AcDbLine
 62
7
  6
CONTINUOUS
 10
35.1288360522
 20
75.5364124681
 11
37.9572749528
 21
73.90344945
  0
LINE
  5
317
100
AcDbEntity
  8
0
100
AcDbLine
 62
7
  6
CONTINUOUS
 10
39.6543382931
 20
72.9236716391
 11
42.4827771937
 21
71.290708621
  0
LINE
  5
318
100
AcDbEntity
  8
0
100
AcDbLine
 62
7
  6
CONTINUOUS
 10
24.7696785788
 20
83.5583955646
 11
26.0778315703
 21
82.8031501687
  0
LINE
  5
319
100
AcDbEntity
  8
0
100
AcDbLine
 62
7
  6
CONTINUOUS
 10
28.9062704709
 20
81.1701871507
 11
30.6033338112
 21
80.1904093398
  0
LINE
  5
31A
100
AcDbEntity
  8
0
100
AcDbLine
 62
7
  6
CONTINUOUS
 10
33.4317727118
 20
78.5574463217
 11
35.1288360522
 21
77.5776685109
  0
LINE
  5
31B
100
AcDbEntity
  8
0
100
AcDbLine
 62
7
  6
CONTINUOUS
 10
37.9572749528
 20
75.9447054928
 11
39.6543382931
 21
74.9649276819
  0
LINE
  5
31C
100
AcDbEntity
  8
0
100
AcDbLine
 62
7
  6
CONTINUOUS
 10
42.4827771937
 20
73.3319646639
 11
43.7909301852
 21
72.576719268
  0
LINE
  5
31D
100
AcDbEntity
  8
0
100
AcDbLine
 62
7
  6
CONTINUOUS
 10
60.7614222784
 20
82.3745789609
 11
60.7614222784
 21
64.4115257841
  0
LINE
  5
31E
100
AcDbEntity
  8
0
100
AcDbLine
 62
7
  6
CONTINUOUS
 10
60.7614222784
 20
52.4089402523
 11
60.7614222784
 21
51.4699624726
  0
LINE
  5
31F
100
AcDbEntity
  8
0
100
AcDbLine
 62
7
  6
CONTINUOUS
 10
60.7614222784
 20
48.775504496
 11
60.7614222784
 21
47.8365267163
  0
LINE
  5
320
100
AcDbEntity
  8
0
100
AcDbLine
 62
7
  6
CONTINUOUS
 10
60.7614222784
 20
32.1596803074
 11
60.7614222784
 21
17.8708880077
  0
LINE
  5
321
100
AcDbEntity
  8
0
100
AcDbLine
 62
7
  6
CONTINUOUS
 10
39.9725547444
 20
23.504918322
 11
44.7808608375
 21
26.2809785683
  0
LINE
  5
322
100
AcDbEntity
  8
0
100
AcDbLine
 62
7
  6
CONTINUOUS
 10
28.0797193398
 20
16.1642223666
 11
28.2596743692
 21
16.2681188311
  0
LINE
  5
323
100
AcDbEntity
  8
0
100
AcDbLine
 62
7
  6
CONTINUOUS
 10
30.7095091968
 20
16.1157076353
 11
46.5486351504
 21
25.260376682
  0
LINE
  5
324
100
AcDbEntity
  8
0
100
AcDbLine
 62
7
  6
CONTINUOUS
 10
29.6134732254
 20
14.2989262798
 11
29.6287073728
 21
14.3077216665
  0
LINE
  5
325
100
AcDbEntity
  8
0
100
AcDbLine
 62
7
  6
CONTINUOUS
 10
58.2865588481
 20
30.7308257689
 11
60.7614222784
 21
32.1596803074
  0
LINE
  5
326
100
AcDbEntity
  8
0
100
AcDbLine
 62
7
  6
CONTINUOUS
 10
26.5729173047
 20
10.1755913945
 11
28.3407221656
 21
11.1962279145
  0
LINE
  5
327
100
AcDbEntity
  8
0
100
AcDbLine
 62
7
  6
CONTINUOUS
 10
43.7909301852
 20
15.3398998272
 11
30.7095091968
 21
7.7873829806
  0
LINE
  5
328
100
AcDbEntity
  8
0
100
AcDbLine
 62
7
  6
CONTINUOUS
 10
42.6948942138
 20
14.584571614
 11
42.7096091143
 21
14.593067215
  0
LINE
  5
329
100
AcDbEntity
  8
0
100
AcDbLine
 62
7
  6
CONTINUOUS
 10
39.6543382931
 20
10.4612367287
 11
41.4221431541
 21
11.4818732487
  0
LINE
  5
32A
100
AcDbEntity
  8
0
100
AcDbLine
 62
7
  6
CONTINUOUS
 10
53.7963933212
 20
79.8638449905
 11
52.7357592816
 21
80.4761884857
  0
LINE
  5
32B
100
AcDbEntity
  8
0
100
AcDbLine
 62
7
  6
CONTINUOUS
 10
49.2708910803
 20
82.4765858194
 11
48.2102570406
 21
83.0889293147
  0
LINE
  5
32C
100
AcDbEntity
  8
0
100
AcDbLine
 62
7
  6
CONTINUOUS
 10
44.7453888393
 20
85.0893266484
 11
43.6847547997
 21
85.7016701436
  0
LINE
  5
32D
100
AcDbEntity
  8
0
100
AcDbLine
 62
7
  6
CONTINUOUS
 10
40.2198865984
 20
87.7020674773
 11
39.1592525588
 21
88.3144109725
  0
LINE
  5
32E
100
AcDbEntity
  8
0
100
AcDbLine
 62
7
  6
CONTINUOUS
 10
55.5641981822
 20
80.8844815105
 11
52.7357592816
 21
82.5174445286
  0
LINE
  5
32F
100
AcDbEntity
  8
0
100
AcDbLine
 62
7
  6
CONTINUOUS
 10
51.0386959412
 20
83.4972223394
 11
48.2102570406
 21
85.1301853575
  0
LINE
  5
330
100
AcDbEntity
  8
0
100
AcDbLine
 62
7
  6
CONTINUOUS
 10
46.5131937003
 20
86.1099631683
 11
43.6847547997
 21
87.7429261864
  0
LINE
  5
331
100
AcDbEntity
  8
0
100
AcDbLine
 62
7
  6
CONTINUOUS
 10
41.9876914593
 20
88.7227039973
 11
39.1592525588
 21
90.3556670154
  0
LINE
  5
332
100
AcDbEntity
  8
0
100
AcDbLine
 62
7
  6
CONTINUOUS
 10
41.7401706719
 20
93.3562552575
 11
60.7614222784
 21
82.3745789609
  0
LINE
  5
333
100
AcDbEntity
  8
0
100
AcDbLine
 62
7
  6
CONTINUOUS
 10
60.7614222784
 20
17.8708880077
 11
43.7909301852
 21
8.0730283148
  0
ARC
  5
334
100
AcDbEntity
  8
0
100
AcDbCircle
 62
7
  6
CONTINUOUS
 10
17.7324968845
 20
23.5783598643
 40
2.803263769
100
AcDbArc
 50
233.9898672699
 51
237.5191069587
  0
ARC
  5
335
100
AcDbEntity
  8
0
100
AcDbCircle
 62
7
  6
CONTINUOUS
 10
44.3904245958
 20
16.0257827116
 40
2.803263769
100
AcDbArc
 50
233.9898672699
 51
237.5191069587
  0
ARC
  5
336
100
AcDbEntity
  8
0
100
AcDbCircle
 62
7
  6
CONTINUOUS
 10
39.8649223548
 20
73.1808850048
 40
2.803263769
100
AcDbArc
 50
233.9898672699
 51
237.5191069587
  0
ARC
  5
337
100
AcDbEntity
  8
0
100
AcDbCircle
 62
7
  6
CONTINUOUS
 10
31.3090036073
 20
53.8708002574
 40
2.803263769
100
AcDbArc
 50
233.9898672699
 51
237.5191069587
  0
ARC
  5
338
100
AcDbEntity
  8
0
100
AcDbCircle
 62
7
  6
CONTINUOUS
 10
44.3904245958
 20
70.5681441759
 40
2.803263769
100
AcDbArc
 50
233.9898672699
 51
237.5191069587
  0
ARC
  5
339
100
AcDbEntity
  8
0
100
AcDbCircle
 62
7
  6
CONTINUOUS
 10
26.7835013664
 20
56.4835410864
 40
2.803263769
100
AcDbArc
 50
233.9898672699
 51
237.5191069587
  0
ARC
  5
33A
100
AcDbEntity
  8
0
100
AcDbCircle
 62
7
  6
CONTINUOUS
 10
17.7324968845
 20
61.7090227442
 40
2.803263769
100
AcDbArc
 50
233.9898672699
 51
237.5191069587
  0
ARC
  5
33B
100
AcDbEntity
  8
0
100
AcDbCircle
 62
7
  6
CONTINUOUS
 10
35.3394201139
 20
75.7936258338
 40
2.803263769
100
AcDbArc
 50
233.9898672699
 51
237.5191069587
  0
ARC
  5
33C
100
AcDbEntity
  8
0
100
AcDbCircle
 62
7
  6
CONTINUOUS
 10
22.2579991254
 20
59.0962819153
 40
2.803263769
100
AcDbArc
 50
233.9898672699
 51
237.5191069587
  0
ARC
  5
33D
100
AcDbEntity
  8
0
100
AcDbCircle
 62
7
  6
CONTINUOUS
 10
30.813917873
 20
78.4063666627
 40
2.803263769
100
AcDbArc
 50
233.9898672699
 51
237.5191069587
  0
ARC
  5
33E
100
AcDbEntity
  8
0
100
AcDbCircle
 62
7
  6
CONTINUOUS
 10
31.3089706532
 20
15.740090844
 40
2.8032067527
100
AcDbArc
 50
233.9898529357
 51
237.5208716662
  0
SPLINE
  5
33F
100
AcDbEntity
  8
0
100
AcDbSpline
 62
7
  6
CONTINUOUS
 70
0
 71
3
 72
9
 73
5
 74
0
 42
0.0000001
 43
0.0000001
 44
0.0000000001
 40
0.0
 40
0.0
 40
0.0
 40
0.0
 40
0.5241721156
 40
1.0
 40
1.0
 40
1.0
 40
1.0
 10
58.6436573815
 20
50.2410186376
 30
0.0
 10
58.7380253273
 20
50.1103877328
 30
0.0
 10
58.9398574636
 20
49.8760911779
 30
0.0
 10
59.185157182
 20
49.685540986
 30
0.0
 10
59.3118473418
 20
49.6123980428
 30
0.0
  0
SPLINE
  5
340
100
AcDbEntity
  8
0
100
AcDbSpline
 62
7
  6
CONTINUOUS
 70
0
 71
3
 72
9
 73
5
 74
0
 42
0.0000001
 43
0.0000001
 44
0.0000000001
 40
0.0
 40
0.0
 40
0.0
 40
0.0
 40
0.5219481573
 40
1.0
 40
1.0
 40
1.0
 40
1.0
 10
42.6860968857
 20
14.7005693078
 30
0.0
 10
42.7560040107
 20
14.5108274254
 30
0.0
 10
42.8638102982
 20
14.1369691356
 30
0.0
 10
42.9070430288
 20
13.7491981931
 30
0.0
 10
42.9070430288
 20
13.5639940024
 30
0.0
  0
SPLINE
  5
341
100
AcDbEntity
  8
0
100
AcDbSpline
 62
7
  6
CONTINUOUS
 70
0
 71
3
 72
12
 73
8
 74
0
 42
0.0000001
 43
0.0000001
 44
0.0000000001
 40
0.0
 40
0.0
 40
0.0
 40
0.0
 40
0.2895288194
 40
0.5486668261
 40
0.7816307427
 40
0.8918394607
 40
1.0
 40
1.0
 40
1.0
 40
1.0
 10
42.9070430288
 20
13.5639940024
 30
0.0
 10
42.9070430288
 20
13.4322357628
 30
0.0
 10
42.8870313843
 20
13.1816659323
 30
0.0
 10
42.785794601
 20
12.837571342
 30
0.0
 10
42.6401170462
 20
12.6002066105
 30
0.0
 10
42.4931332726
 20
12.4555783878
 30
0.0
 10
42.4111757958
 20
12.3983668368
 30
0.0
 10
42.3685445731
 20
12.3737632854
 30
0.0
  0
SPLINE
  5
342
100
AcDbEntity
  8
0
100
AcDbSpline
 62
7
  6
CONTINUOUS
 70
0
 71
3
 72
20
 73
16
 74
0
 42
0.0000001
 43
0.0000001
 44
0.0000000001
 40
0.0
 40
0.0
 40
0.0
 40
0.0
 40
0.0428301836
 40
0.0874298145
 40
0.1352303245
 40
0.1871620766
 40
0.2436308801
 40
0.3046118587
 40
0.3697370547
 40
0.4383714746
 40
0.5826211611
 40
0.729687008
 40
0.8711863708
 40
0.9376074823
 40
1.0
 40
1.0
 40
1.0
 40
1.0
 10
35.2430686727
 20
74.0321789361
 30
0.0
 10
35.3071711435
 20
74.0691740849
 30
0.0
 10
35.4484497406
 20
74.1279312423
 30
0.0
 10
35.6816908195
 20
74.1620631722
 30
0.0
 10
35.9321509819
 20
74.1436832664
 30
0.0
 10
36.1942700949
 20
74.0740129786
 30
0.0
 10
36.462908996
 20
73.9552962152
 30
0.0
 10
36.732725504
 20
73.7902558744
 30
0.0
 10
36.9982194688
 20
73.5823828632
 30
0.0
 10
37.3447204053
 20
73.2486589625
 30
0.0
 10
37.7297517762
 20
72.7555444315
 30
0.0
 10
38.0871796565
 20
72.0950300446
 30
0.0
 10
38.2850315028
 20
71.5102551909
 30
0.0
 10
38.3668745001
 20
71.0496631924
 30
0.0
 10
38.3815407879
 20
70.8269125856
 30
0.0
 10
38.3815407879
 20
70.7190962956
 30
0.0
  0
SPLINE
  5
343
100
AcDbEntity
  8
0
100
AcDbSpline
 62
7
  6
CONTINUOUS
 70
0
 71
3
 72
20
 73
16
 74
0
 42
0.0000001
 43
0.0000001
 44
0.0000000001
 40
0.0
 40
0.0
 40
0.0
 40
0.0
 40
0.0428301836
 40
0.0874298145
 40
0.1352303245
 40
0.1871620766
 40
0.2436308801
 40
0.3046118587
 40
0.3697370547
 40
0.4383714746
 40
0.5826211611
 40
0.729687008
 40
0.8711863708
 40
0.9376074823
 40
1.0
 40
1.0
 40
1.0
 40
1.0
 10
39.7685709137
 20
71.4194381071
 30
0.0
 10
39.8326733845
 20
71.456433256
 30
0.0
 10
39.9739519815
 20
71.5151904133
 30
0.0
 10
40.2071930604
 20
71.5493223433
 30
0.0
 10
40.4576532228
 20
71.5309424375
 30
0.0
 10
40.7197723358
 20
71.4612721497
 30
0.0
 10
40.9884112369
 20
71.3425553862
 30
0.0
 10
41.2582277449
 20
71.1775150455
 30
0.0
 10
41.5237217097
 20
70.9696420343
 30
0.0
 10
41.8702226462
 20
70.6359181336
 30
0.0
 10
42.2552540172
 20
70.1428036025
 30
0.0
 10
42.6126818974
 20
69.4822892157
 30
0.0
 10
42.8105337438
 20
68.897514362
 30
0.0
 10
42.892376741
 20
68.4369223634
 30
0.0
 10
42.9070430288
 20
68.2141717567
 30
0.0
 10
42.9070430288
 20
68.1063554667
 30
0.0
  0
SPLINE
  5
344
100
AcDbEntity
  8
0
100
AcDbSpline
 62
7
  6
CONTINUOUS
 70
0
 71
3
 72
20
 73
16
 74
0
 42
0.0000001
 43
0.0000001
 44
0.0000000001
 40
0.0
 40
0.0
 40
0.0
 40
0.0
 40
0.0428301836
 40
0.0874298145
 40
0.1352303245
 40
0.1871620766
 40
0.2436308801
 40
0.3046118587
 40
0.3697370547
 40
0.4383714746
 40
0.5826211611
 40
0.729687008
 40
0.8711863708
 40
0.9376074823
 40
1.0
 40
1.0
 40
1.0
 40
1.0
 10
30.7175664318
 20
76.644919765
 30
0.0
 10
30.7816689026
 20
76.6819149139
 30
0.0
 10
30.9229474997
 20
76.7406720712
 30
0.0
 10
31.1561885786
 20
76.7748040011
 30
0.0
 10
31.4066487409
 20
76.7564240954
 30
0.0
 10
31.6687678539
 20
76.6867538076
 30
0.0
 10
31.9374067551
 20
76.5680370441
 30
0.0
 10
32.207223263
 20
76.4029967033
 30
0.0
 10
32.4727172278
 20
76.1951236922
 30
0.0
 10
32.8192181643
 20
75.8613997914
 30
0.0
 10
33.2042495353
 20
75.3682852604
 30
0.0
 10
33.5616774155
 20
74.7077708735
 30
0.0
 10
33.7595292619
 20
74.1229960199
 30
0.0
 10
33.8413722591
 20
73.6624040213
 30
0.0
 10
33.8560385469
 20
73.4396534145
 30
0.0
 10
33.8560385469
 20
73.3318371245
 30
0.0
  0
SPLINE
  5
345
100
AcDbEntity
  8
0
100
AcDbSpline
 62
7
  6
CONTINUOUS
 70
0
 71
3
 72
20
 73
16
 74
0
 42
0.0000001
 43
0.0000001
 44
0.0000000001
 40
0.0
 40
0.0
 40
0.0
 40
0.0
 40
0.0428301836
 40
0.0874298145
 40
0.1352303245
 40
0.1871620766
 40
0.2436308801
 40
0.3046118587
 40
0.3697370547
 40
0.4383714746
 40
0.5826211611
 40
0.729687008
 40
0.8711863708
 40
0.9376074823
 40
1.0
 40
1.0
 40
1.0
 40
1.0
 10
26.1920641909
 20
79.2576605939
 30
0.0
 10
26.2561666616
 20
79.2946557428
 30
0.0
 10
26.3974452587
 20
79.3534129001
 30
0.0
 10
26.6306863376
 20
79.3875448301
 30
0.0
 10
26.8811465
 20
79.3691649243
 30
0.0
 10
27.143265613
 20
79.2994946365
 30
0.0
 10
27.4119045141
 20
79.180777873
 30
0.0
 10
27.6817210221
 20
79.0157375322
 30
0.0
 10
27.9472149869
 20
78.8078645211
 30
0.0
 10
28.2937159234
 20
78.4741406203
 30
0.0
 10
28.6787472943
 20
77.9810260893
 30
0.0
 10
29.0361751746
 20
77.3205117025
 30
0.0
 10
29.234027021
 20
76.7357368488
 30
0.0
 10
29.3158700182
 20
76.2751448502
 30
0.0
 10
29.330536306
 20
76.0523942435
 30
0.0
 10
29.330536306
 20
75.9445779535
 30
0.0
  0
SPLINE
  5
346
100
AcDbEntity
  8
0
100
AcDbSpline
 62
7
  6
CONTINUOUS
 70
0
 71
3
 72
20
 73
16
 74
0
 42
0.0000001
 43
0.0000001
 44
0.0000000001
 40
0.0
 40
0.0
 40
0.0
 40
0.0
 40
0.0428301836
 40
0.0874298145
 40
0.1352303245
 40
0.1871620766
 40
0.2436308801
 40
0.3046118587
 40
0.3697370547
 40
0.4383714746
 40
0.5826211611
 40
0.729687008
 40
0.8711863708
 40
0.9376074823
 40
1.0
 40
1.0
 40
1.0
 40
1.0
 10
17.6361454434
 20
59.9475758465
 30
0.0
 10
17.7002479141
 20
59.9845709954
 30
0.0
 10
17.8415265112
 20
60.0433281527
 30
0.0
 10
18.0747675901
 20
60.0774600827
 30
0.0
 10
18.3252277525
 20
60.0590801769
 30
0.0
 10
18.5873468655
 20
59.9894098891
 30
0.0
 10
18.8559857666
 20
59.8706931256
 30
0.0
 10
19.1258022746
 20
59.7056527848
 30
0.0
 10
19.3912962394
 20
59.4977797737
 30
0.0
 10
19.7377971759
 20
59.1640558729
 30
0.0
 10
20.1228285468
 20
58.6709413419
 30
0.0
 10
20.4802564271
 20
58.0104269551
 30
0.0
 10
20.6781082734
 20
57.4256521014
 30
0.0
 10
20.7599512707
 20
56.9650601028
 30
0.0
 10
20.7746175585
 20
56.7423094961
 30
0.0
 10
20.7746175585
 20
56.634493206
 30
0.0
  0
SPLINE
  5
347
100
AcDbEntity
  8
0
100
AcDbSpline
 62
7
  6
CONTINUOUS
 70
0
 71
3
 72
20
 73
16
 74
0
 42
0.0000001
 43
0.0000001
 44
0.0000000001
 40
0.0
 40
0.0
 40
0.0
 40
0.0
 40
0.0428301836
 40
0.0874298145
 40
0.1352303245
 40
0.1871620766
 40
0.2436308801
 40
0.3046118587
 40
0.3697370547
 40
0.4383714746
 40
0.5826211611
 40
0.729687008
 40
0.8711863708
 40
0.9376074823
 40
1.0
 40
1.0
 40
1.0
 40
1.0
 10
13.1106432024
 20
62.5603166755
 30
0.0
 10
13.1747456732
 20
62.5973118243
 30
0.0
 10
13.3160242703
 20
62.6560689816
 30
0.0
 10
13.5492653492
 20
62.6902009116
 30
0.0
 10
13.7997255115
 20
62.6718210058
 30
0.0
 10
14.0618446245
 20
62.602150718
 30
0.0
 10
14.3304835257
 20
62.4834339546
 30
0.0
 10
14.6003000336
 20
62.3183936138
 30
0.0
 10
14.8657939984
 20
62.1105206026
 30
0.0
 10
15.212294935
 20
61.7767967019
 30
0.0
 10
15.5973263059
 20
61.2836821708
 30
0.0
 10
15.9547541861
 20
60.623167784
 30
0.0
 10
16.1526060325
 20
60.0383929303
 30
0.0
 10
16.2344490297
 20
59.5778009318
 30
0.0
 10
16.2491153175
 20
59.355050325
 30
0.0
 10
16.2491153175
 20
59.247234035
 30
0.0
  0
SPLINE
  5
348
100
AcDbEntity
  8
0
100
AcDbSpline
 62
7
  6
CONTINUOUS
 70
0
 71
3
 72
20
 73
16
 74
0
 42
0.0000001
 43
0.0000001
 44
0.0000000001
 40
0.0
 40
0.0
 40
0.0
 40
0.0
 40
0.0428301836
 40
0.0874298145
 40
0.1352303245
 40
0.1871620766
 40
0.2436308801
 40
0.3046118587
 40
0.3697370547
 40
0.4383714746
 40
0.5826211611
 40
0.729687008
 40
0.8711863708
 40
0.9376074823
 40
1.0
 40
1.0
 40
1.0
 40
1.0
 10
22.1616476843
 20
57.3348350176
 30
0.0
 10
22.2257501551
 20
57.3718301665
 30
0.0
 10
22.3670287521
 20
57.4305873238
 30
0.0
 10
22.600269831
 20
57.4647192537
 30
0.0
 10
22.8507299934
 20
57.446339348
 30
0.0
 10
23.1128491064
 20
57.3766690602
 30
0.0
 10
23.3814880075
 20
57.2579522967
 30
0.0
 10
23.6513045155
 20
57.0929119559
 30
0.0
 10
23.9167984803
 20
56.8850389448
 30
0.0
 10
24.2632994168
 20
56.551315044
 30
0.0
 10
24.6483307878
 20
56.058200513
 30
0.0
 10
25.005758668
 20
55.3976861261
 30
0.0
 10
25.2036105144
 20
54.8129112725
 30
0.0
 10
25.2854535116
 20
54.3523192739
 30
0.0
 10
25.3001197994
 20
54.1295686671
 30
0.0
 10
25.3001197994
 20
54.0217523771
 30
0.0
  0
SPLINE
  5
349
100
AcDbEntity
  8
0
100
AcDbSpline
 62
7
  6
CONTINUOUS
 70
0
 71
3
 72
20
 73
16
 74
0
 42
0.0000001
 43
0.0000001
 44
0.0000000001
 40
0.0
 40
0.0
 40
0.0
 40
0.0
 40
0.0428301836
 40
0.0874298145
 40
0.1352303245
 40
0.1871620766
 40
0.2436308801
 40
0.3046118587
 40
0.3697370547
 40
0.4383714746
 40
0.5826211611
 40
0.729687008
 40
0.8711863708
 40
0.9376074823
 40
1.0
 40
1.0
 40
1.0
 40
1.0
 10
26.6871499252
 20
54.7220941887
 30
0.0
 10
26.751252396
 20
54.7590893375
 30
0.0
 10
26.8925309931
 20
54.8178464949
 30
0.0
 10
27.125772072
 20
54.8519784248
 30
0.0
 10
27.3762322343
 20
54.833598519
 30
0.0
 10
27.6383513473
 20
54.7639282312
 30
0.0
 10
27.9069902485
 20
54.6452114678
 30
0.0
 10
28.1768067565
 20
54.480171127
 30
0.0
 10
28.4423007212
 20
54.2722981158
 30
0.0
 10
28.7888016578
 20
53.9385742151
 30
0.0
 10
29.1738330287
 20
53.445459684
 30
0.0
 10
29.531260909
 20
52.7849452972
 30
0.0
 10
29.7291127553
 20
52.2001704435
 30
0.0
 10
29.8109557526
 20
51.739578445
 30
0.0
 10
29.8256220403
 20
51.5168278382
 30
0.0
 10
29.8256220403
 20
51.4090115482
 30
0.0
  0
SPLINE
  5
34A
100
AcDbEntity
  8
0
100
AcDbSpline
 62
7
  6
CONTINUOUS
 70
0
 71
3
 72
19
 73
15
 74
0
 42
0.0000001
 43
0.0000001
 44
0.0000000001
 40
0.0
 40
0.0
 40
0.0
 40
0.0
 40
0.0428394104
 40
0.0874448899
 40
0.1352571039
 40
0.1871950253
 40
0.2436735499
 40
0.3046656819
 40
0.4382689093
 40
0.5825434307
 40
0.7296392143
 40
0.871166535
 40
0.9376088396
 40
1.0
 40
1.0
 40
1.0
 40
1.0
 10
31.0047129177
 20
39.5683407986
 30
0.0
 10
31.0651107946
 20
39.6032174063
 30
0.0
 10
31.1982680927
 20
39.6585083923
 30
0.0
 10
31.4180363998
 20
39.6907699161
 30
0.0
 10
31.6540454355
 20
39.6733631658
 30
0.0
 10
31.9010406575
 20
39.607757055
 30
0.0
 10
32.1541998639
 20
39.4959016211
 30
0.0
 10
32.5036511354
 20
39.2819871972
 30
0.0
 10
32.9199586012
 20
38.9133173153
 30
0.0
 10
33.3478420877
 20
38.3655075081
 30
0.0
 10
33.6847678744
 20
37.7429035483
 30
0.0
 10
33.8712021338
 20
37.1918890336
 30
0.0
 10
33.948282032
 20
36.7578592938
 30
0.0
 10
33.9621220807
 20
36.5479682623
 30
0.0
 10
33.9621220807
 20
36.4463927741
 30
0.0
  0
SPLINE
  5
34B
100
AcDbEntity
  8
0
100
AcDbSpline
 62
7
  6
CONTINUOUS
 70
0
 71
3
 72
12
 73
8
 74
0
 42
0.0000001
 43
0.0000001
 44
0.0000000001
 40
0.0
 40
0.0
 40
0.0
 40
0.0
 40
0.2895288194
 40
0.5486668261
 40
0.7816307427
 40
0.8918394607
 40
1.0
 40
1.0
 40
1.0
 40
1.0
 10
29.330536306
 20
75.9445779535
 30
0.0
 10
29.330536306
 20
75.8128197139
 30
0.0
 10
29.3105246615
 20
75.5622498834
 30
0.0
 10
29.2092878782
 20
75.2181552931
 30
0.0
 10
29.0636103234
 20
74.9807905615
 30
0.0
 10
28.9166265498
 20
74.8361623389
 30
0.0
 10
28.834669073
 20
74.7789507878
 30
0.0
 10
28.7920378503
 20
74.7543472365
 30
0.0
  0
SPLINE
  5
34C
100
AcDbEntity
  8
0
100
AcDbSpline
 62
7
  6
CONTINUOUS
 70
0
 71
3
 72
12
 73
8
 74
0
 42
0.0000001
 43
0.0000001
 44
0.0000000001
 40
0.0
 40
0.0
 40
0.0
 40
0.0
 40
0.2895288194
 40
0.5486668261
 40
0.7816307427
 40
0.8918394607
 40
1.0
 40
1.0
 40
1.0
 40
1.0
 10
33.8560385469
 20
73.3318371245
 30
0.0
 10
33.8560385469
 20
73.200078885
 30
0.0
 10
33.8360269024
 20
72.9495090544
 30
0.0
 10
33.7347901191
 20
72.6054144641
 30
0.0
 10
33.5891125643
 20
72.3680497326
 30
0.0
 10
33.4421287908
 20
72.2234215099
 30
0.0
 10
33.3601713139
 20
72.1662099589
 30
0.0
 10
33.3175400912
 20
72.1416064076
 30
0.0
  0
SPLINE
  5
34D
100
AcDbEntity
  8
0
100
AcDbSpline
 62
7
  6
CONTINUOUS
 70
0
 71
3
 72
12
 73
8
 74
0
 42
0.0000001
 43
0.0000001
 44
0.0000000001
 40
0.0
 40
0.0
 40
0.0
 40
0.0
 40
0.2895288194
 40
0.5486668261
 40
0.7816307427
 40
0.8918394607
 40
1.0
 40
1.0
 40
1.0
 40
1.0
 10
42.9070430288
 20
68.1063554667
 30
0.0
 10
42.9070430288
 20
67.9745972271
 30
0.0
 10
42.8870313843
 20
67.7240273966
 30
0.0
 10
42.785794601
 20
67.3799328063
 30
0.0
 10
42.6401170462
 20
67.1425680748
 30
0.0
 10
42.4931332726
 20
66.9979398521
 30
0.0
 10
42.4111757958
 20
66.940728301
 30
0.0
 10
42.3685445731
 20
66.9161247497
 30
0.0
  0
SPLINE
  5
34E
100
AcDbEntity
  8
0
100
AcDbSpline
 62
7
  6
CONTINUOUS
 70
0
 71
3
 72
12
 73
8
 74
0
 42
0.0000001
 43
0.0000001
 44
0.0000000001
 40
0.0
 40
0.0
 40
0.0
 40
0.0
 40
0.2895288194
 40
0.5486668261
 40
0.7816307427
 40
0.8918394607
 40
1.0
 40
1.0
 40
1.0
 40
1.0
 10
38.3815407879
 20
70.7190962956
 30
0.0
 10
38.3815407879
 20
70.587338056
 30
0.0
 10
38.3615291433
 20
70.3367682255
 30
0.0
 10
38.2602923601
 20
69.9926736352
 30
0.0
 10
38.1146148053
 20
69.7553089037
 30
0.0
 10
37.9676310317
 20
69.610680681
 30
0.0
 10
37.8856735548
 20
69.5534691299
 30
0.0
 10
37.8430423322
 20
69.5288655786
 30
0.0
  0
SPLINE
  5
34F
100
AcDbEntity
  8
0
100
AcDbSpline
 62
7
  6
CONTINUOUS
 70
0
 71
3
 72
19
 73
15
 74
0
 42
0.0000001
 43
0.0000001
 44
0.0000000001
 40
0.0
 40
0.0
 40
0.0
 40
0.0
 40
0.0428394104
 40
0.0874448899
 40
0.1352571039
 40
0.1871950253
 40
0.2436735499
 40
0.3046656819
 40
0.4382689093
 40
0.5825434307
 40
0.7296392143
 40
0.871166535
 40
0.9376088396
 40
1.0
 40
1.0
 40
1.0
 40
1.0
 10
33.8520843734
 20
28.3903301604
 30
0.0
 10
33.9063192017
 20
28.4216479306
 30
0.0
 10
34.0258890204
 20
28.4712969792
 30
0.0
 10
34.22323199
 20
28.5002665108
 30
0.0
 10
34.4351584711
 20
28.4846359595
 30
0.0
 10
34.656950099
 20
28.4257243498
 30
0.0
 10
34.8842767333
 20
28.3252827357
 30
0.0
 10
35.1980697117
 20
28.1331963142
 30
0.0
 10
35.5718968239
 20
27.802145808
 30
0.0
 10
35.9561187302
 20
27.3102349608
 30
0.0
 10
36.2586643346
 20
26.7511620173
 30
0.0
 10
36.42607469
 20
26.2563734734
 30
0.0
 10
36.4952892924
 20
25.8666324826
 30
0.0
 10
36.5077170912
 20
25.6781589033
 30
0.0
 10
36.5077170912
 20
25.5869482609
 30
0.0
  0
SPLINE
  5
350
100
AcDbEntity
  8
0
100
AcDbSpline
 62
7
  6
CONTINUOUS
 70
0
 71
3
 72
19
 73
15
 74
0
 42
0.0000001
 43
0.0000001
 44
0.0000000001
 40
0.0
 40
0.0
 40
0.0
 40
0.0
 40
0.0428394104
 40
0.0874448899
 40
0.1352571039
 40
0.1871950253
 40
0.2436735499
 40
0.3046656819
 40
0.4382689093
 40
0.5825434307
 40
0.7296392143
 40
0.871166535
 40
0.9376088396
 40
1.0
 40
1.0
 40
1.0
 40
1.0
 10
28.4073394898
 20
31.5337839702
 30
0.0
 10
28.461574318
 20
31.5651017404
 30
0.0
 10
28.5811441368
 20
31.614750789
 30
0.0
 10
28.7784871064
 20
31.6437203206
 30
0.0
 10
28.9904135874
 20
31.6280897694
 30
0.0
 10
29.2122052154
 20
31.5691781596
 30
0.0
 10
29.4395318496
 20
31.4687365455
 30
0.0
 10
29.7533248281
 20
31.276650124
 30
0.0
 10
30.1271519403
 20
30.9455996179
 30
0.0
 10
30.5113738466
 20
30.4536887706
 30
0.0
 10
30.813919451
 20
29.8946158271
 30
0.0
 10
30.9813298063
 20
29.3998272832
 30
0.0
 10
31.0505444087
 20
29.0100862924
 30
0.0
 10
31.0629722076
 20
28.8216127131
 30
0.0
 10
31.0629722076
 20
28.7304020707
 30
0.0
  0
SPLINE
  5
351
100
AcDbEntity
  8
0
100
AcDbSpline
 62
7
  6
CONTINUOUS
 70
0
 71
3
 72
20
 73
16
 74
0
 42
0.0000001
 43
0.0000001
 44
0.0000000001
 40
0.0
 40
0.0
 40
0.0
 40
0.0
 40
0.042832484
 40
0.0874338551
 40
0.1352356035
 40
0.1871683501
 40
0.2436383825
 40
0.3046208074
 40
0.3697445591
 40
0.4383765049
 40
0.5826231986
 40
0.7296894666
 40
0.871189262
 40
0.9376085151
 40
1.0
 40
1.0
 40
1.0
 40
1.0
 10
26.6871504731
 20
16.5914303159
 30
0.0
 10
26.751256853
 20
16.6284266254
 30
0.0
 10
26.8925424376
 20
16.6871853359
 30
0.0
 10
27.1257930264
 20
16.7213158035
 30
0.0
 10
27.3762600329
 20
16.702931988
 30
0.0
 10
27.6383826926
 20
16.6332521657
 30
0.0
 10
27.9070265954
 20
16.5145311889
 30
0.0
 10
28.1768402564
 20
16.3494820725
 30
0.0
 10
28.4423304663
 20
16.1416116196
 30
0.0
 10
28.7888183784
 20
15.8078912791
 30
0.0
 10
29.1738421149
 20
15.3147827015
 30
0.0
 10
29.5312670141
 20
14.6542705609
 30
0.0
 10
29.7291139455
 20
14.0694963356
 30
0.0
 10
29.8109585452
 20
13.6089089245
 30
0.0
 10
29.8256220403
 20
13.3861631602
 30
0.0
 10
29.8256220403
 20
13.2783486682
 30
0.0
  0
SPLINE
  5
352
100
AcDbEntity
  8
0
100
AcDbSpline
 62
7
  6
CONTINUOUS
 70
0
 71
3
 72
12
 73
8
 74
0
 42
0.0000001
 43
0.0000001
 44
0.0000000001
 40
0.0
 40
0.0
 40
0.0
 40
0.0
 40
0.2895288194
 40
0.5486668261
 40
0.7816307427
 40
0.8918394607
 40
1.0
 40
1.0
 40
1.0
 40
1.0
 10
29.8256220403
 20
51.4090115482
 30
0.0
 10
29.8256220403
 20
51.2772533086
 30
0.0
 10
29.8056103958
 20
51.0266834781
 30
0.0
 10
29.7043736125
 20
50.6825888878
 30
0.0
 10
29.5586960578
 20
50.4452241563
 30
0.0
 10
29.4117122842
 20
50.3005959336
 30
0.0
 10
29.3297548073
 20
50.2433843825
 30
0.0
 10
29.2871235847
 20
50.2187808312
 30
0.0
  0
SPLINE
  5
353
100
AcDbEntity
  8
0
100
AcDbSpline
 62
7
  6
CONTINUOUS
 70
0
 71
3
 72
12
 73
8
 74
0
 42
0.0000001
 43
0.0000001
 44
0.0000000001
 40
0.0
 40
0.0
 40
0.0
 40
0.0
 40
0.2895288194
 40
0.5486668261
 40
0.7816307427
 40
0.8918394607
 40
1.0
 40
1.0
 40
1.0
 40
1.0
 10
25.3001197994
 20
54.0217523771
 30
0.0
 10
25.3001197994
 20
53.8899941376
 30
0.0
 10
25.2801081549
 20
53.639424307
 30
0.0
 10
25.1788713716
 20
53.2953297167
 30
0.0
 10
25.0331938168
 20
53.0579649852
 30
0.0
 10
24.8862100432
 20
52.9133367625
 30
0.0
 10
24.8042525664
 20
52.8561252115
 30
0.0
 10
24.7616213437
 20
52.8315216602
 30
0.0
  0
SPLINE
  5
354
100
AcDbEntity
  8
0
100
AcDbSpline
 62
7
  6
CONTINUOUS
 70
0
 71
3
 72
12
 73
8
 74
0
 42
0.0000001
 43
0.0000001
 44
0.0000000001
 40
0.0
 40
0.0
 40
0.0
 40
0.0
 40
0.2895288194
 40
0.5486668261
 40
0.7816307427
 40
0.8918394607
 40
1.0
 40
1.0
 40
1.0
 40
1.0
 10
16.2491153175
 20
59.247234035
 30
0.0
 10
16.2491153175
 20
59.1154757954
 30
0.0
 10
16.229103673
 20
58.8649059649
 30
0.0
 10
16.1278668897
 20
58.5208113746
 30
0.0
 10
15.9821893349
 20
58.2834466431
 30
0.0
 10
15.8352055614
 20
58.1388184204
 30
0.0
 10
15.7532480845
 20
58.0816068693
 30
0.0
 10
15.7106168619
 20
58.057003318
 30
0.0
  0
SPLINE
  5
355
100
AcDbEntity
  8
0
100
AcDbSpline
 62
7
  6
CONTINUOUS
 70
0
 71
3
 72
12
 73
8
 74
0
 42
0.0000001
 43
0.0000001
 44
0.0000000001
 40
0.0
 40
0.0
 40
0.0
 40
0.0
 40
0.2895288194
 40
0.5486668261
 40
0.7816307427
 40
0.8918394607
 40
1.0
 40
1.0
 40
1.0
 40
1.0
 10
20.7746175585
 20
56.634493206
 30
0.0
 10
20.7746175585
 20
56.5027349665
 30
0.0
 10
20.7546059139
 20
56.252165136
 30
0.0
 10
20.6533691307
 20
55.9080705457
 30
0.0
 10
20.5076915759
 20
55.6707058141
 30
0.0
 10
20.3607078023
 20
55.5260775915
 30
0.0
 10
20.2787503254
 20
55.4688660404
 30
0.0
 10
20.2361191028
 20
55.4442624891
 30
0.0
  0
SPLINE
  5
356
100
AcDbEntity
  8
0
100
AcDbSpline
 62
7
  6
CONTINUOUS
 70
0
 71
3
 72
20
 73
16
 74
0
 42
0.0000001
 43
0.0000001
 44
0.0000000001
 40
0.0
 40
0.0
 40
0.0
 40
0.0
 40
0.0428301836
 40
0.0874298145
 40
0.1352303245
 40
0.1871620766
 40
0.2436308801
 40
0.3046118587
 40
0.3697370547
 40
0.4383714746
 40
0.5826211611
 40
0.729687008
 40
0.8711863708
 40
0.9376074823
 40
1.0
 40
1.0
 40
1.0
 40
1.0
 10
13.1106432024
 20
24.4296537955
 30
0.0
 10
13.1747456732
 20
24.4666489444
 30
0.0
 10
13.3160242703
 20
24.5254061017
 30
0.0
 10
13.5492653492
 20
24.5595380317
 30
0.0
 10
13.7997255115
 20
24.5411581259
 30
0.0
 10
14.0618446245
 20
24.4714878381
 30
0.0
 10
14.3304835257
 20
24.3527710746
 30
0.0
 10
14.6003000336
 20
24.1877307338
 30
0.0
 10
14.8657939984
 20
23.9798577227
 30
0.0
 10
15.212294935
 20
23.6461338219
 30
0.0
 10
15.5973263059
 20
23.1530192909
 30
0.0
 10
15.9547541861
 20
22.492504904
 30
0.0
 10
16.1526060325
 20
21.9077300504
 30
0.0
 10
16.2344490297
 20
21.4471380518
 30
0.0
 10
16.2491153175
 20
21.224387445
 30
0.0
 10
16.2491153175
 20
21.116571155
 30
0.0
  0
SPLINE
  5
357
100
AcDbEntity
  8
0
100
AcDbSpline
 62
7
  6
CONTINUOUS
 70
0
 71
3
 72
12
 73
8
 74
0
 42
0.0000001
 43
0.0000001
 44
0.0000000001
 40
0.0
 40
0.0
 40
0.0
 40
0.0
 40
0.1081614689
 40
0.2183687405
 40
0.4513480154
 40
0.7104447573
 40
1.0
 40
1.0
 40
1.0
 40
1.0
 10
38.5725713031
 20
42.5864245559
 30
0.0
 10
38.6184768011
 20
42.612927951
 30
0.0
 10
38.7159472351
 20
42.6585888238
 30
0.0
 10
38.9299896816
 20
42.717780903
 30
0.0
 10
39.2297825134
 20
42.7258200572
 30
0.0
 10
39.6052130566
 20
42.6349956194
 30
0.0
 10
39.849662246
 20
42.5187248114
 30
0.0
 10
39.9725547444
 20
42.4477743994
 30
0.0
  0
SPLINE
  5
358
100
AcDbEntity
  8
0
100
AcDbSpline
 62
7
  6
CONTINUOUS
 70
0
 71
3
 72
9
 73
5
 74
0
 42
0.0000001
 43
0.0000001
 44
0.0000000001
 40
0.0
 40
0.0
 40
0.0
 40
0.0
 40
0.4737674898
 40
1.0
 40
1.0
 40
1.0
 40
1.0
 10
58.271126503
 20
53.6890115816
 30
0.0
 10
58.3920228101
 20
53.6739332201
 30
0.0
 10
58.6434216677
 20
53.6091589373
 30
0.0
 10
58.876452621
 20
53.4972033715
 30
0.0
 10
58.9936479655
 20
53.4295421386
 30
0.0
  0
SPLINE
  5
359
100
AcDbEntity
  8
0
100
AcDbSpline
 62
7
  6
CONTINUOUS
 70
0
 71
3
 72
12
 73
8
 74
0
 42
0.0000001
 43
0.0000001
 44
0.0000000001
 40
0.0
 40
0.0
 40
0.0
 40
0.0
 40
0.289556229
 40
0.5486533222
 40
0.7816321932
 40
0.8918390364
 40
1.0
 40
1.0
 40
1.0
 40
1.0
 10
26.4667589941
 20
47.9589660428
 30
0.0
 10
26.4667589941
 20
47.8170585302
 30
0.0
 10
26.4452298093
 20
47.5472158154
 30
0.0
 10
26.3361707964
 20
47.1766599057
 30
0.0
 10
26.1793094311
 20
46.9210437002
 30
0.0
 10
26.0210226174
 20
46.7652697582
 30
0.0
 10
25.9327417171
 20
46.7036872115
 30
0.0
 10
25.886835205
 20
46.677183231
 30
0.0
  0
SPLINE
  5
35A
100
AcDbEntity
  8
0
100
AcDbSpline
 62
7
  6
CONTINUOUS
 70
0
 71
3
 72
12
 73
8
 74
0
 42
0.0000001
 43
0.0000001
 44
0.0000000001
 40
0.0
 40
0.0
 40
0.0
 40
0.0
 40
0.2576480834
 40
0.5193986936
 40
0.770890649
 40
0.8889610969
 40
1.0
 40
1.0
 40
1.0
 40
1.0
 10
25.2841555182
 20
50.7343652751
 30
0.0
 10
25.4632536665
 20
50.5399828816
 30
0.0
 10
25.788564139
 20
50.1139776321
 30
0.0
 10
26.1609828179
 20
49.4128204688
 30
0.0
 10
26.3666231295
 20
48.7944546644
 30
0.0
 10
26.451581265
 20
48.308074537
 30
0.0
 10
26.4667589941
 20
48.0728767621
 30
0.0
 10
26.4667589941
 20
47.9589660428
 30
0.0
  0
SPLINE
  5
35B
100
AcDbEntity
  8
0
100
AcDbSpline
 62
7
  6
CONTINUOUS
 70
0
 71
3
 72
11
 73
7
 74
0
 42
0.0000001
 43
0.0000001
 44
0.0000000001
 40
0.0
 40
0.0
 40
0.0
 40
0.0
 40
0.2897016594
 40
0.5490895814
 40
0.7822189142
 40
1.0
 40
1.0
 40
1.0
 40
1.0
 10
31.0629722076
 20
28.7304020707
 30
0.0
 10
31.0629722076
 20
28.6189325456
 30
0.0
 10
31.0460719068
 20
28.4069400456
 30
0.0
 10
30.9602219788
 20
28.1156713124
 30
0.0
 10
30.8156686805
 20
27.879323412
 30
0.0
 10
30.6798888823
 20
27.7651829837
 30
0.0
 10
30.6073221347
 20
27.7232794911
 30
0.0
  0
SPLINE
  5
35C
100
AcDbEntity
  8
0
100
AcDbSpline
 62
7
  6
CONTINUOUS
 70
0
 71
3
 72
9
 73
5
 74
0
 42
0.0000001
 43
0.0000001
 44
0.0000000001
 40
0.0
 40
0.0
 40
0.0
 40
0.0
 40
0.2672137263
 40
1.0
 40
1.0
 40
1.0
 40
1.0
 10
36.5077170912
 20
25.5869482609
 30
0.0
 10
36.5077170912
 20
25.5391244899
 30
0.0
 10
36.5014730598
 20
25.3603513917
 30
0.0
 10
36.4690799887
 20
25.1814119746
 30
0.0
 10
36.4253603857
 20
25.0577655015
 30
0.0
  0
SPLINE
  5
35D
100
AcDbEntity
  8
0
100
AcDbSpline
 62
7
  6
CONTINUOUS
 70
0
 71
3
 72
12
 73
8
 74
0
 42
0.0000001
 43
0.0000001
 44
0.0000000001
 40
0.0
 40
0.0
 40
0.0
 40
0.0
 40
0.2894832083
 40
0.5486755374
 40
0.7816290778
 40
0.8918324007
 40
1.0
 40
1.0
 40
1.0
 40
1.0
 10
33.9621220807
 20
36.4463927741
 30
0.0
 10
33.9621220807
 20
36.3222562576
 30
0.0
 10
33.9432416335
 20
36.0861414148
 30
0.0
 10
33.8478732067
 20
35.7619023176
 30
0.0
 10
33.7106199636
 20
35.5381854979
 30
0.0
 10
33.5720633412
 20
35.4019655736
 30
0.0
 10
33.4948620983
 20
35.3480196544
 30
0.0
 10
33.4546935904
 20
35.3248244468
 30
0.0
  0
SPLINE
  5
35E
100
AcDbEntity
  8
0
100
AcDbSpline
 62
7
  6
CONTINUOUS
 70
0
 71
3
 72
12
 73
8
 74
0
 42
0.0000001
 43
0.0000001
 44
0.0000000001
 40
0.0
 40
0.0
 40
0.0
 40
0.0
 40
0.2895288194
 40
0.5486668261
 40
0.7816307427
 40
0.8918394607
 40
1.0
 40
1.0
 40
1.0
 40
1.0
 10
16.2491153175
 20
21.116571155
 30
0.0
 10
16.2491153175
 20
20.9848129155
 30
0.0
 10
16.229103673
 20
20.7342430849
 30
0.0
 10
16.1278668897
 20
20.3901484946
 30
0.0
 10
15.9821893349
 20
20.1527837631
 30
0.0
 10
15.8352055614
 20
20.0081555404
 30
0.0
 10
15.7532480845
 20
19.9509439894
 30
0.0
 10
15.7106168619
 20
19.9263404381
 30
0.0
  0
SPLINE
  5
35F
100
AcDbEntity
  8
0
100
AcDbSpline
 62
7
  6
CONTINUOUS
 70
0
 71
3
 72
12
 73
8
 74
0
 42
0.0000001
 43
0.0000001
 44
0.0000000001
 40
0.0
 40
0.0
 40
0.0
 40
0.0
 40
0.2895288194
 40
0.5486668261
 40
0.7816307427
 40
0.8918394607
 40
1.0
 40
1.0
 40
1.0
 40
1.0
 10
29.8256220403
 20
13.2783486682
 30
0.0
 10
29.8256220403
 20
13.1465904287
 30
0.0
 10
29.8056103958
 20
12.8960205981
 30
0.0
 10
29.7043736125
 20
12.5519260079
 30
0.0
 10
29.5586960578
 20
12.3145612763
 30
0.0
 10
29.4117122842
 20
12.1699330536
 30
0.0
 10
29.3297548073
 20
12.1127215026
 30
0.0
 10
29.2871235847
 20
12.0881179513
 30
0.0
  0
SPLINE
  5
360
100
AcDbEntity
  8
0
100
AcDbSpline
 62
7
  6
CONTINUOUS
 70
0
 71
3
 72
12
 73
8
 74
0
 42
0.0000001
 43
0.0000001
 44
0.0000000001
 40
0.0
 40
0.0
 40
0.0
 40
0.0
 40
0.2895288194
 40
0.5486668261
 40
0.7816307427
 40
0.8918394607
 40
1.0
 40
1.0
 40
1.0
 40
1.0
 10
25.6535657352
 20
78.067429877
 30
0.0
 10
25.6535657352
 20
78.1991881165
 30
0.0
 10
25.6735773797
 20
78.4497579471
 30
0.0
 10
25.774814163
 20
78.7938525373
 30
0.0
 10
25.9204917178
 20
79.0312172689
 30
0.0
 10
26.0674754914
 20
79.1758454915
 30
0.0
 10
26.1494329682
 20
79.2330570426
 30
0.0
 10
26.1920641909
 20
79.2576605939
 30
0.0
  0
SPLINE
  5
361
100
AcDbEntity
  8
0
100
AcDbSpline
 62
7
  6
CONTINUOUS
 70
0
 71
3
 72
12
 73
8
 74
0
 42
0.0000001
 43
0.0000001
 44
0.0000000001
 40
0.0
 40
0.0
 40
0.0
 40
0.0
 40
0.2895288194
 40
0.5486668261
 40
0.7816307427
 40
0.8918394607
 40
1.0
 40
1.0
 40
1.0
 40
1.0
 10
30.1790679761
 20
75.454689048
 30
0.0
 10
30.1790679761
 20
75.5864472876
 30
0.0
 10
30.1990796207
 20
75.8370171181
 30
0.0
 10
30.3003164039
 20
76.1811117084
 30
0.0
 10
30.4459939587
 20
76.4184764399
 30
0.0
 10
30.5929777323
 20
76.5631046626
 30
0.0
 10
30.6749352092
 20
76.6203162137
 30
0.0
 10
30.7175664318
 20
76.644919765
 30
0.0
  0
SPLINE
  5
362
100
AcDbEntity
  8
0
100
AcDbSpline
 62
7
  6
CONTINUOUS
 70
0
 71
3
 72
11
 73
7
 74
0
 42
0.0000001
 43
0.0000001
 44
0.0000000001
 40
0.0
 40
0.0
 40
0.0
 40
0.0
 40
0.2290117055
 40
0.4809111853
 40
0.7428422214
 40
1.0
 40
1.0
 40
1.0
 40
1.0
 10
47.3617924929
 20
42.7130718424
 30
0.0
 10
47.2403414958
 20
42.783190022
 30
0.0
 10
47.0045187646
 20
42.9643830564
 30
0.0
 10
46.7022748655
 20
43.3072371955
 30
0.0
 10
46.4529858361
 20
43.7106514498
 30
0.0
 10
46.332206061
 20
44.0067566094
 30
0.0
 10
46.2867333144
 20
44.1575227135
 30
0.0
  0
SPLINE
  5
363
100
AcDbEntity
  8
0
100
AcDbSpline
 62
7
  6
CONTINUOUS
 70
0
 71
3
 72
9
 73
5
 74
0
 42
0.0000001
 43
0.0000001
 44
0.0000000001
 40
0.0
 40
0.0
 40
0.0
 40
0.0
 40
0.2540195235
 40
1.0
 40
1.0
 40
1.0
 40
1.0
 10
46.2867333144
 20
44.1575227135
 30
0.0
 10
46.2812681316
 20
44.1756426728
 30
0.0
 10
46.2605761633
 20
44.2472199128
 30
0.0
 10
46.2432190297
 20
44.3197713788
 30
0.0
 10
46.2323942231
 20
44.3742877571
 30
0.0
  0
SPLINE
  5
364
100
AcDbEntity
  8
0
100
AcDbSpline
 62
7
  6
CONTINUOUS
 70
0
 71
3
 72
12
 73
8
 74
0
 42
0.0000001
 43
0.0000001
 44
0.0000000001
 40
0.0
 40
0.0
 40
0.0
 40
0.0
 40
0.2895288194
 40
0.5486668261
 40
0.7816307427
 40
0.8918394607
 40
1.0
 40
1.0
 40
1.0
 40
1.0
 10
39.230072458
 20
70.2292073902
 30
0.0
 10
39.230072458
 20
70.3609656297
 30
0.0
 10
39.2500841025
 20
70.6115354603
 30
0.0
 10
39.3513208858
 20
70.9556300506
 30
0.0
 10
39.4969984406
 20
71.1929947821
 30
0.0
 10
39.6439822142
 20
71.3376230048
 30
0.0
 10
39.725939691
 20
71.3948345558
 30
0.0
 10
39.7685709137
 20
71.4194381071
 30
0.0
  0
SPLINE
  5
365
100
AcDbEntity
  8
0
100
AcDbSpline
 62
7
  6
CONTINUOUS
 70
0
 71
3
 72
12
 73
8
 74
0
 42
0.0000001
 43
0.0000001
 44
0.0000000001
 40
0.0
 40
0.0
 40
0.0
 40
0.0
 40
0.2895288194
 40
0.5486668261
 40
0.7816307427
 40
0.8918394607
 40
1.0
 40
1.0
 40
1.0
 40
1.0
 10
34.7045702171
 20
72.8419482191
 30
0.0
 10
34.7045702171
 20
72.9737064587
 30
0.0
 10
34.7245818616
 20
73.2242762892
 30
0.0
 10
34.8258186449
 20
73.5683708795
 30
0.0
 10
34.9714961997
 20
73.805735611
 30
0.0
 10
35.1184799732
 20
73.9503638337
 30
0.0
 10
35.2004374501
 20
74.0075753848
 30
0.0
 10
35.2430686727
 20
74.0321789361
 30
0.0
  0
SPLINE
  5
366
100
AcDbEntity
  8
0
100
AcDbSpline
 62
7
  6
CONTINUOUS
 70
0
 71
3
 72
20
 73
16
 74
0
 42
0.0000001
 43
0.0000001
 44
0.0000000001
 40
0.0
 40
0.0
 40
0.0
 40
0.0
 40
0.0428301836
 40
0.0874298145
 40
0.1352303245
 40
0.1871620766
 40
0.2436308801
 40
0.3046118587
 40
0.3697370547
 40
0.4383714746
 40
0.5826211611
 40
0.729687008
 40
0.8711863708
 40
0.9376074823
 40
1.0
 40
1.0
 40
1.0
 40
1.0
 10
42.3685445731
 20
66.9161247497
 30
0.0
 10
42.3044421024
 20
66.8791296008
 30
0.0
 10
42.1631635053
 20
66.8203724435
 30
0.0
 10
41.9299224264
 20
66.7862405135
 30
0.0
 10
41.679462264
 20
66.8046204193
 30
0.0
 10
41.417343151
 20
66.8742907071
 30
0.0
 10
41.1487042499
 20
66.9930074706
 30
0.0
 10
40.8788877419
 20
67.1580478114
 30
0.0
 10
40.6133937771
 20
67.3659208225
 30
0.0
 10
40.2668928406
 20
67.6996447233
 30
0.0
 10
39.8818614697
 20
68.1927592543
 30
0.0
 10
39.5244335894
 20
68.8532736412
 30
0.0
 10
39.326581743
 20
69.4380484948
 30
0.0
 10
39.2447387458
 20
69.8986404934
 30
0.0
 10
39.230072458
 20
70.1213911002
 30
0.0
 10
39.230072458
 20
70.2292073902
 30
0.0
  0
SPLINE
  5
367
100
AcDbEntity
  8
0
100
AcDbSpline
 62
7
  6
CONTINUOUS
 70
0
 71
3
 72
19
 73
15
 74
0
 42
0.0000001
 43
0.0000001
 44
0.0000000001
 40
0.0
 40
0.0
 40
0.0
 40
0.0
 40
0.0428394104
 40
0.0874448899
 40
0.1352571039
 40
0.1871950253
 40
0.2436735499
 40
0.3046656819
 40
0.4382689093
 40
0.5825434307
 40
0.7296392143
 40
0.871166535
 40
0.9376088396
 40
1.0
 40
1.0
 40
1.0
 40
1.0
 10
30.6073221347
 20
27.7232794911
 30
0.0
 10
30.5530873065
 20
27.6919617209
 30
0.0
 10
30.4335174878
 20
27.6423126722
 30
0.0
 10
30.2361745181
 20
27.6133431407
 30
0.0
 10
30.0242480371
 20
27.6289736919
 30
0.0
 10
29.8024564092
 20
27.6878853017
 30
0.0
 10
29.5751297749
 20
27.7883269158
 30
0.0
 10
29.2613367964
 20
27.9804133372
 30
0.0
 10
28.8875096842
 20
28.3114638434
 30
0.0
 10
28.503287778
 20
28.8033746907
 30
0.0
 10
28.2007421736
 20
29.3624476342
 30
0.0
 10
28.0333318182
 20
29.857236178
 30
0.0
 10
27.9641172158
 20
30.2469771688
 30
0.0
 10
27.9516894169
 20
30.4354507481
 30
0.0
 10
27.9516894169
 20
30.5266613906
 30
0.0
  0
SPLINE
  5
368
100
AcDbEntity
  8
0
100
AcDbSpline
 62
7
  6
CONTINUOUS
 70
0
 71
3
 72
13
 73
9
 74
0
 42
0.0000001
 43
0.0000001
 44
0.0000000001
 40
0.0
 40
0.0
 40
0.0
 40
0.0
 40
0.118183929
 40
0.2425941021
 40
0.5013641807
 40
0.7594390499
 40
0.8828955952
 40
1.0
 40
1.0
 40
1.0
 40
1.0
 10
14.503212617
 20
24.0024448534
 30
0.0
 10
14.5188485874
 20
23.8774578192
 30
0.0
 10
14.566938849
 20
23.6227201236
 30
0.0
 10
14.7214693739
 20
23.1103955979
 30
0.0
 10
15.0149904155
 20
22.4884552874
 30
0.0
 10
15.414637654
 20
21.9299567168
 30
0.0
 10
15.7853913475
 20
21.5480978785
 30
0.0
 10
15.9833997362
 20
21.3841182618
 30
0.0
 10
16.0843787337
 20
21.3107632689
 30
0.0
  0
SPLINE
  5
369
100
AcDbEntity
  8
0
100
AcDbSpline
 62
7
  6
CONTINUOUS
 70
0
 71
3
 72
13
 73
9
 74
0
 42
0.0000001
 43
0.0000001
 44
0.0000000001
 40
0.0
 40
0.0
 40
0.0
 40
0.0
 40
0.118183929
 40
0.2425941021
 40
0.5013641807
 40
0.7594390499
 40
0.8828955952
 40
1.0
 40
1.0
 40
1.0
 40
1.0
 10
28.0797193398
 20
16.1642223666
 30
0.0
 10
28.0953553103
 20
16.0392353324
 30
0.0
 10
28.1434455718
 20
15.7844976368
 30
0.0
 10
28.2979760967
 20
15.2721731111
 30
0.0
 10
28.5914971384
 20
14.6502328006
 30
0.0
 10
28.9911443768
 20
14.09173423
 30
0.0
 10
29.3618980703
 20
13.7098753917
 30
0.0
 10
29.5599064591
 20
13.545895775
 30
0.0
 10
29.6608854565
 20
13.4725407821
 30
0.0
  0
SPLINE
  5
36A
100
AcDbEntity
  8
0
100
AcDbSpline
 62
7
  6
CONTINUOUS
 70
0
 71
3
 72
15
 73
11
 74
0
 42
0.0000001
 43
0.0000001
 44
0.0000000001
 40
0.0
 40
0.0
 40
0.0
 40
0.0
 40
0.1194902302
 40
0.2456362158
 40
0.3761365536
 40
0.508291641
 40
0.6393215521
 40
0.7664941168
 40
0.887415996
 40
1.0
 40
1.0
 40
1.0
 40
1.0
 10
45.0842545232
 20
45.0467556222
 30
0.0
 10
45.1017376602
 20
44.8975091528
 30
0.0
 10
45.159017844
 20
44.5929638129
 30
0.0
 10
45.3006778825
 20
44.1407028173
 30
0.0
 10
45.4963864816
 20
43.6916394211
 30
0.0
 10
45.7401690126
 20
43.2597450295
 30
0.0
 10
46.0244300138
 20
42.8584473462
 30
0.0
 10
46.3403621163
 20
42.5000528059
 30
0.0
 10
46.6781949666
 20
42.1958660044
 30
0.0
 10
46.9209788594
 20
42.0285921751
 30
0.0
 10
47.0435931166
 20
41.9578024022
 30
0.0
  0
SPLINE
  5
36B
100
AcDbEntity
  8
0
100
AcDbSpline
 62
7
  6
CONTINUOUS
 70
0
 71
3
 72
9
 73
5
 74
0
 42
0.0000001
 43
0.0000001
 44
0.0000000001
 40
0.0
 40
0.0
 40
0.0
 40
0.0
 40
0.5141843938
 40
1.0
 40
1.0
 40
1.0
 40
1.0
 10
42.116899648
 20
14.3488941914
 30
0.0
 10
42.2119632153
 20
14.2358331004
 30
0.0
 10
42.4087843796
 20
14.0256538426
 30
0.0
 10
42.6293897711
 20
13.8402130924
 30
0.0
 10
42.742306445
 20
13.7581861162
 30
0.0
  0
SPLINE
  5
36C
100
AcDbEntity
  8
0
100
AcDbSpline
 62
7
  6
CONTINUOUS
 70
0
 71
3
 72
20
 73
16
 74
0
 42
0.0000001
 43
0.0000001
 44
0.0000000001
 40
0.0
 40
0.0
 40
0.0
 40
0.0
 40
0.0428301836
 40
0.0874298145
 40
0.1352303245
 40
0.1871620766
 40
0.2436308801
 40
0.3046118587
 40
0.3697370547
 40
0.4383714746
 40
0.5826211611
 40
0.729687008
 40
0.8711863708
 40
0.9376074823
 40
1.0
 40
1.0
 40
1.0
 40
1.0
 10
33.3175400912
 20
72.1416064076
 30
0.0
 10
33.2534376205
 20
72.1046112587
 30
0.0
 10
33.1121590234
 20
72.0458541014
 30
0.0
 10
32.8789179445
 20
72.0117221714
 30
0.0
 10
32.6284577821
 20
72.0301020772
 30
0.0
 10
32.3663386691
 20
72.099772365
 30
0.0
 10
32.097699768
 20
72.2184891285
 30
0.0
 10
31.82788326
 20
72.3835294692
 30
0.0
 10
31.5623892952
 20
72.5914024804
 30
0.0
 10
31.2158883587
 20
72.9251263811
 30
0.0
 10
30.8308569878
 20
73.4182409122
 30
0.0
 10
30.4734291075
 20
74.078755299
 30
0.0
 10
30.2755772612
 20
74.6635301527
 30
0.0
 10
30.1937342639
 20
75.1241221512
 30
0.0
 10
30.1790679761
 20
75.346872758
 30
0.0
 10
30.1790679761
 20
75.454689048
 30
0.0
  0
SPLINE
  5
36D
100
AcDbEntity
  8
0
100
AcDbSpline
 62
7
  6
CONTINUOUS
 70
0
 71
3
 72
20
 73
16
 74
0
 42
0.0000001
 43
0.0000001
 44
0.0000000001
 40
0.0
 40
0.0
 40
0.0
 40
0.0
 40
0.0428301836
 40
0.0874298145
 40
0.1352303245
 40
0.1871620766
 40
0.2436308801
 40
0.3046118587
 40
0.3697370547
 40
0.4383714746
 40
0.5826211611
 40
0.729687008
 40
0.8711863708
 40
0.9376074823
 40
1.0
 40
1.0
 40
1.0
 40
1.0
 10
28.7920378503
 20
74.7543472365
 30
0.0
 10
28.7279353795
 20
74.7173520876
 30
0.0
 10
28.5866567825
 20
74.6585949303
 30
0.0
 10
28.3534157036
 20
74.6244630003
 30
0.0
 10
28.1029555412
 20
74.6428429061
 30
0.0
 10
27.8408364282
 20
74.7125131939
 30
0.0
 10
27.5721975271
 20
74.8312299574
 30
0.0
 10
27.3023810191
 20
74.9962702982
 30
0.0
 10
27.0368870543
 20
75.2041433093
 30
0.0
 10
26.6903861178
 20
75.5378672101
 30
0.0
 10
26.3053547468
 20
76.0309817411
 30
0.0
 10
25.9479268666
 20
76.6914961279
 30
0.0
 10
25.7500750202
 20
77.2762709816
 30
0.0
 10
25.668232023
 20
77.7368629802
 30
0.0
 10
25.6535657352
 20
77.959613587
 30
0.0
 10
25.6535657352
 20
78.067429877
 30
0.0
  0
SPLINE
  5
36E
100
AcDbEntity
  8
0
100
AcDbSpline
 62
7
  6
CONTINUOUS
 70
0
 71
3
 72
12
 73
8
 74
0
 42
0.0000001
 43
0.0000001
 44
0.0000000001
 40
0.0
 40
0.0
 40
0.0
 40
0.0
 40
0.2895288194
 40
0.5486668261
 40
0.7816307427
 40
0.8918394607
 40
1.0
 40
1.0
 40
1.0
 40
1.0
 10
26.1486514696
 20
53.5318634717
 30
0.0
 10
26.1486514696
 20
53.6636217113
 30
0.0
 10
26.1686631141
 20
53.9141915418
 30
0.0
 10
26.2698998974
 20
54.2582861321
 30
0.0
 10
26.4155774522
 20
54.4956508636
 30
0.0
 10
26.5625612257
 20
54.6402790863
 30
0.0
 10
26.6445187026
 20
54.6974906373
 30
0.0
 10
26.6871499252
 20
54.7220941887
 30
0.0
  0
SPLINE
  5
36F
100
AcDbEntity
  8
0
100
AcDbSpline
 62
7
  6
CONTINUOUS
 70
0
 71
3
 72
12
 73
8
 74
0
 42
0.0000001
 43
0.0000001
 44
0.0000000001
 40
0.0
 40
0.0
 40
0.0
 40
0.0
 40
0.2895288194
 40
0.5486668261
 40
0.7816307427
 40
0.8918394607
 40
1.0
 40
1.0
 40
1.0
 40
1.0
 10
21.6231492286
 20
56.1446043006
 30
0.0
 10
21.6231492286
 20
56.2763625402
 30
0.0
 10
21.6431608731
 20
56.5269323707
 30
0.0
 10
21.7443976564
 20
56.871026961
 30
0.0
 10
21.8900752112
 20
57.1083916925
 30
0.0
 10
22.0370589848
 20
57.2530199152
 30
0.0
 10
22.1190164616
 20
57.3102314663
 30
0.0
 10
22.1616476843
 20
57.3348350176
 30
0.0
  0
SPLINE
  5
370
100
AcDbEntity
  8
0
100
AcDbSpline
 62
7
  6
CONTINUOUS
 70
0
 71
3
 72
12
 73
8
 74
0
 42
0.0000001
 43
0.0000001
 44
0.0000000001
 40
0.0
 40
0.0
 40
0.0
 40
0.0
 40
0.2895288194
 40
0.5486668261
 40
0.7816307427
 40
0.8918394607
 40
1.0
 40
1.0
 40
1.0
 40
1.0
 10
12.5721447467
 20
61.3700859585
 30
0.0
 10
12.5721447467
 20
61.5018441981
 30
0.0
 10
12.5921563913
 20
61.7524140286
 30
0.0
 10
12.6933931745
 20
62.0965086189
 30
0.0
 10
12.8390707293
 20
62.3338733504
 30
0.0
 10
12.9860545029
 20
62.4785015731
 30
0.0
 10
13.0680119798
 20
62.5357131241
 30
0.0
 10
13.1106432024
 20
62.5603166755
 30
0.0
  0
SPLINE
  5
371
100
AcDbEntity
  8
0
100
AcDbSpline
 62
7
  6
CONTINUOUS
 70
0
 71
3
 72
12
 73
8
 74
0
 42
0.0000001
 43
0.0000001
 44
0.0000000001
 40
0.0
 40
0.0
 40
0.0
 40
0.0
 40
0.2895288194
 40
0.5486668261
 40
0.7816307427
 40
0.8918394607
 40
1.0
 40
1.0
 40
1.0
 40
1.0
 10
17.0976469877
 20
58.7573451296
 30
0.0
 10
17.0976469877
 20
58.8891033691
 30
0.0
 10
17.1176586322
 20
59.1396731996
 30
0.0
 10
17.2188954155
 20
59.4837677899
 30
0.0
 10
17.3645729703
 20
59.7211325215
 30
0.0
 10
17.5115567438
 20
59.8657607441
 30
0.0
 10
17.5935142207
 20
59.9229722952
 30
0.0
 10
17.6361454434
 20
59.9475758465
 30
0.0
  0
SPLINE
  5
372
100
AcDbEntity
  8
0
100
AcDbSpline
 62
7
  6
CONTINUOUS
 70
0
 71
3
 72
20
 73
16
 74
0
 42
0.0000001
 43
0.0000001
 44
0.0000000001
 40
0.0
 40
0.0
 40
0.0
 40
0.0
 40
0.0428301836
 40
0.0874298145
 40
0.1352303245
 40
0.1871620766
 40
0.2436308801
 40
0.3046118587
 40
0.3697370547
 40
0.4383714746
 40
0.5826211611
 40
0.729687008
 40
0.8711863708
 40
0.9376074823
 40
1.0
 40
1.0
 40
1.0
 40
1.0
 10
20.2361191028
 20
55.4442624891
 30
0.0
 10
20.172016632
 20
55.4072673402
 30
0.0
 10
20.0307380349
 20
55.3485101829
 30
0.0
 10
19.797496956
 20
55.3143782529
 30
0.0
 10
19.5470367937
 20
55.3327581587
 30
0.0
 10
19.2849176807
 20
55.4024284465
 30
0.0
 10
19.0162787795
 20
55.52114521
 30
0.0
 10
18.7464622716
 20
55.6861855508
 30
0.0
 10
18.4809683068
 20
55.8940585619
 30
0.0
 10
18.1344673703
 20
56.2277824627
 30
0.0
 10
17.7494359993
 20
56.7208969937
 30
0.0
 10
17.3920081191
 20
57.3814113805
 30
0.0
 10
17.1941562727
 20
57.9661862342
 30
0.0
 10
17.1123132755
 20
58.4267782328
 30
0.0
 10
17.0976469877
 20
58.6495288395
 30
0.0
 10
17.0976469877
 20
58.7573451296
 30
0.0
  0
SPLINE
  5
373
100
AcDbEntity
  8
0
100
AcDbSpline
 62
7
  6
CONTINUOUS
 70
0
 71
3
 72
20
 73
16
 74
0
 42
0.0000001
 43
0.0000001
 44
0.0000000001
 40
0.0
 40
0.0
 40
0.0
 40
0.0
 40
0.0428301836
 40
0.0874298145
 40
0.1352303245
 40
0.1871620766
 40
0.2436308801
 40
0.3046118587
 40
0.3697370547
 40
0.4383714746
 40
0.5826211611
 40
0.729687008
 40
0.8711863708
 40
0.9376074823
 40
1.0
 40
1.0
 40
1.0
 40
1.0
 10
29.2871235847
 20
12.0881179513
 30
0.0
 10
29.2230211139
 20
12.0511228024
 30
0.0
 10
29.0817425168
 20
11.9923656451
 30
0.0
 10
28.8485014379
 20
11.9582337151
 30
0.0
 10
28.5980412756
 20
11.9766136209
 30
0.0
 10
28.3359221626
 20
12.0462839087
 30
0.0
 10
28.0672832614
 20
12.1650006722
 30
0.0
 10
27.7974667534
 20
12.330041013
 30
0.0
 10
27.5319727887
 20
12.5379140241
 30
0.0
 10
27.1854718521
 20
12.8716379248
 30
0.0
 10
26.8004404812
 20
13.3647524559
 30
0.0
 10
26.4430126009
 20
14.0252668427
 30
0.0
 10
26.2451607546
 20
14.6100416964
 30
0.0
 10
26.1633177573
 20
15.070633695
 30
0.0
 10
26.1486514696
 20
15.2933843017
 30
0.0
 10
26.1486514696
 20
15.4012005917
 30
0.0
  0
SPLINE
  5
374
100
AcDbEntity
  8
0
100
AcDbSpline
 62
7
  6
CONTINUOUS
 70
0
 71
3
 72
20
 73
16
 74
0
 42
0.0000001
 43
0.0000001
 44
0.0000000001
 40
0.0
 40
0.0
 40
0.0
 40
0.0
 40
0.0428301836
 40
0.0874298145
 40
0.1352303245
 40
0.1871620766
 40
0.2436308801
 40
0.3046118587
 40
0.3697370547
 40
0.4383714746
 40
0.5826211611
 40
0.729687008
 40
0.8711863708
 40
0.9376074823
 40
1.0
 40
1.0
 40
1.0
 40
1.0
 10
15.7106168619
 20
58.057003318
 30
0.0
 10
15.6465143911
 20
58.0200081691
 30
0.0
 10
15.505235794
 20
57.9612510118
 30
0.0
 10
15.2719947151
 20
57.9271190819
 30
0.0
 10
15.0215345527
 20
57.9454989876
 30
0.0
 10
14.7594154397
 20
58.0151692755
 30
0.0
 10
14.4907765386
 20
58.1338860389
 30
0.0
 10
14.2209600306
 20
58.2989263797
 30
0.0
 10
13.9554660658
 20
58.5067993908
 30
0.0
 10
13.6089651293
 20
58.8405232916
 30
0.0
 10
13.2239337584
 20
59.3336378226
 30
0.0
 10
12.8665058781
 20
59.9941522095
 30
0.0
 10
12.6686540318
 20
60.5789270631
 30
0.0
 10
12.5868110345
 20
61.0395190617
 30
0.0
 10
12.5721447467
 20
61.2622696685
 30
0.0
 10
12.5721447467
 20
61.3700859585
 30
0.0
  0
SPLINE
  5
375
100
AcDbEntity
  8
0
100
AcDbSpline
 62
7
  6
CONTINUOUS
 70
0
 71
3
 72
20
 73
16
 74
0
 42
0.0000001
 43
0.0000001
 44
0.0000000001
 40
0.0
 40
0.0
 40
0.0
 40
0.0
 40
0.0428301836
 40
0.0874298145
 40
0.1352303245
 40
0.1871620766
 40
0.2436308801
 40
0.3046118587
 40
0.3697370547
 40
0.4383714746
 40
0.5826211611
 40
0.729687008
 40
0.8711863708
 40
0.9376074823
 40
1.0
 40
1.0
 40
1.0
 40
1.0
 10
15.7106168619
 20
19.9263404381
 30
0.0
 10
15.6465143911
 20
19.8893452892
 30
0.0
 10
15.505235794
 20
19.8305881319
 30
0.0
 10
15.2719947151
 20
19.7964562019
 30
0.0
 10
15.0215345527
 20
19.8148361077
 30
0.0
 10
14.7594154397
 20
19.8845063955
 30
0.0
 10
14.4907765386
 20
20.003223159
 30
0.0
 10
14.2209600306
 20
20.1682634997
 30
0.0
 10
13.9554660658
 20
20.3761365109
 30
0.0
 10
13.6089651293
 20
20.7098604116
 30
0.0
 10
13.2239337584
 20
21.2029749427
 30
0.0
 10
12.8665058781
 20
21.8634893295
 30
0.0
 10
12.6686540318
 20
22.4482641832
 30
0.0
 10
12.5868110345
 20
22.9088561818
 30
0.0
 10
12.5721447467
 20
23.1316067885
 30
0.0
 10
12.5721447467
 20
23.2394230785
 30
0.0
  0
SPLINE
  5
376
100
AcDbEntity
  8
0
100
AcDbSpline
 62
7
  6
CONTINUOUS
 70
0
 71
3
 72
12
 73
8
 74
0
 42
0.0000001
 43
0.0000001
 44
0.0000000001
 40
0.0
 40
0.0
 40
0.0
 40
0.0
 40
0.1081614689
 40
0.2183687405
 40
0.4513480154
 40
0.7104447573
 40
1.0
 40
1.0
 40
1.0
 40
1.0
 10
25.886835205
 20
46.677183231
 30
0.0
 10
25.840929707
 20
46.6506798359
 30
0.0
 10
25.7434592731
 20
46.6050189631
 30
0.0
 10
25.5294168266
 20
46.5458268839
 30
0.0
 10
25.2296239948
 20
46.5377877297
 30
0.0
 10
24.8541934515
 20
46.6286121675
 30
0.0
 10
24.6097442622
 20
46.7448829755
 30
0.0
 10
24.4868517637
 20
46.8158333875
 30
0.0
  0
SPLINE
  5
377
100
AcDbEntity
  8
0
100
AcDbSpline
 62
7
  6
CONTINUOUS
 70
0
 71
3
 72
13
 73
9
 74
0
 42
0.0000001
 43
0.0000001
 44
0.0000000001
 40
0.0
 40
0.0
 40
0.0
 40
0.0
 40
0.118183929
 40
0.2425941021
 40
0.5013641807
 40
0.7594390499
 40
0.8828955952
 40
1.0
 40
1.0
 40
1.0
 40
1.0
 10
36.6356380873
 20
73.6049699939
 30
0.0
 10
36.6512740578
 20
73.4799829598
 30
0.0
 10
36.6993643193
 20
73.2252452641
 30
0.0
 10
36.8538948442
 20
72.7129207385
 30
0.0
 10
37.1474158859
 20
72.0909804279
 30
0.0
 10
37.5470631243
 20
71.5324818573
 30
0.0
 10
37.9178168178
 20
71.1506230191
 30
0.0
 10
38.1158252066
 20
70.9866434024
 30
0.0
 10
38.216804204
 20
70.9132884094
 30
0.0
  0
SPLINE
  5
378
100
AcDbEntity
  8
0
100
AcDbSpline
 62
7
  6
CONTINUOUS
 70
0
 71
3
 72
20
 73
16
 74
0
 42
0.0000001
 43
0.0000001
 44
0.0000000001
 40
0.0
 40
0.0
 40
0.0
 40
0.0
 40
0.0428301836
 40
0.0874298145
 40
0.1352303245
 40
0.1871620766
 40
0.2436308801
 40
0.3046118587
 40
0.3697370547
 40
0.4383714746
 40
0.5826211611
 40
0.729687008
 40
0.8711863708
 40
0.9376074823
 40
1.0
 40
1.0
 40
1.0
 40
1.0
 10
24.7616213437
 20
52.8315216602
 30
0.0
 10
24.697518873
 20
52.7945265113
 30
0.0
 10
24.5562402759
 20
52.735769354
 30
0.0
 10
24.322999197
 20
52.701637424
 30
0.0
 10
24.0725390346
 20
52.7200173298
 30
0.0
 10
23.8104199216
 20
52.7896876176
 30
0.0
 10
23.5417810205
 20
52.908404381
 30
0.0
 10
23.2719645125
 20
53.0734447218
 30
0.0
 10
23.0064705477
 20
53.281317733
 30
0.0
 10
22.6599696112
 20
53.6150416337
 30
0.0
 10
22.2749382403
 20
54.1081561648
 30
0.0
 10
21.91751036
 20
54.7686705516
 30
0.0
 10
21.7196585137
 20
55.3534454053
 30
0.0
 10
21.6378155164
 20
55.8140374038
 30
0.0
 10
21.6231492286
 20
56.0367880106
 30
0.0
 10
21.6231492286
 20
56.1446043006
 30
0.0
  0
SPLINE
  5
379
100
AcDbEntity
  8
0
100
AcDbSpline
 62
7
  6
CONTINUOUS
 70
0
 71
3
 72
13
 73
9
 74
0
 42
0.0000001
 43
0.0000001
 44
0.0000000001
 40
0.0
 40
0.0
 40
0.0
 40
0.0
 40
0.118183929
 40
0.2425941021
 40
0.5013641807
 40
0.7594390499
 40
0.8828955952
 40
1.0
 40
1.0
 40
1.0
 40
1.0
 10
28.0797193398
 20
54.2948852465
 30
0.0
 10
28.0953553103
 20
54.1698982124
 30
0.0
 10
28.1434455718
 20
53.9151605167
 30
0.0
 10
28.2979760967
 20
53.4028359911
 30
0.0
 10
28.5914971384
 20
52.7808956805
 30
0.0
 10
28.9911443768
 20
52.2223971099
 30
0.0
 10
29.3618980703
 20
51.8405382716
 30
0.0
 10
29.5599064591
 20
51.676558655
 30
0.0
 10
29.6608854565
 20
51.603203662
 30
0.0
  0
SPLINE
  5
37A
100
AcDbEntity
  8
0
100
AcDbSpline
 62
7
  6
CONTINUOUS
 70
0
 71
3
 72
14
 73
10
 74
0
 42
0.0000001
 43
0.0000001
 44
0.0000000001
 40
0.0
 40
0.0
 40
0.0
 40
0.0
 40
0.0956906794
 40
0.1959751855
 40
0.3044412144
 40
0.423229165
 40
0.5530639704
 40
0.6935092891
 40
1.0
 40
1.0
 40
1.0
 40
1.0
 10
42.3685445731
 20
12.3737632854
 30
0.0
 10
42.2991119988
 20
12.3336919997
 30
0.0
 10
42.1445580063
 20
12.2714145808
 30
0.0
 10
41.8886754943
 20
12.241814979
 30
0.0
 10
41.6140550959
 20
12.273742478
 30
0.0
 10
41.3276038031
 20
12.3650982008
 30
0.0
 10
41.0357465997
 20
12.512899193
 30
0.0
 10
40.6371283418
 20
12.7878240765
 30
0.0
 10
40.3688430697
 20
13.0544554876
 30
0.0
 10
40.2038738489
 20
13.2512144211
 30
0.0
  0
SPLINE
  5
37B
100
AcDbEntity
  8
0
100
AcDbSpline
 62
7
  6
CONTINUOUS
 70
0
 71
3
 72
13
 73
9
 74
0
 42
0.0000001
 43
0.0000001
 44
0.0000000001
 40
0.0
 40
0.0
 40
0.0
 40
0.0
 40
0.118183929
 40
0.2425941021
 40
0.5013641807
 40
0.7594390499
 40
0.8828955952
 40
1.0
 40
1.0
 40
1.0
 40
1.0
 10
41.1611403283
 20
70.992229165
 30
0.0
 10
41.1767762987
 20
70.8672421309
 30
0.0
 10
41.2248665603
 20
70.6125044352
 30
0.0
 10
41.3793970852
 20
70.1001799096
 30
0.0
 10
41.6729181268
 20
69.478239599
 30
0.0
 10
42.0725653653
 20
68.9197410284
 30
0.0
 10
42.4433190588
 20
68.5378821901
 30
0.0
 10
42.6413274475
 20
68.3739025735
 30
0.0
 10
42.742306445
 20
68.3005475805
 30
0.0
  0
SPLINE
  5
37C
100
AcDbEntity
  8
0
100
AcDbSpline
 62
7
  6
CONTINUOUS
 70
0
 71
3
 72
13
 73
9
 74
0
 42
0.0000001
 43
0.0000001
 44
0.0000000001
 40
0.0
 40
0.0
 40
0.0
 40
0.0
 40
0.118183929
 40
0.2425941021
 40
0.5013641807
 40
0.7594390499
 40
0.8828955952
 40
1.0
 40
1.0
 40
1.0
 40
1.0
 10
23.5542170989
 20
56.9076260755
 30
0.0
 10
23.5698530693
 20
56.7826390413
 30
0.0
 10
23.6179433309
 20
56.5279013457
 30
0.0
 10
23.7724738558
 20
56.01557682
 30
0.0
 10
24.0659948974
 20
55.3936365095
 30
0.0
 10
24.4656421359
 20
54.8351379389
 30
0.0
 10
24.8363958294
 20
54.4532791006
 30
0.0
 10
25.0344042181
 20
54.2892994839
 30
0.0
 10
25.1353832156
 20
54.215944491
 30
0.0
  0
SPLINE
  5
37D
100
AcDbEntity
  8
0
100
AcDbSpline
 62
7
  6
CONTINUOUS
 70
0
 71
3
 72
12
 73
8
 74
0
 42
0.0000001
 43
0.0000001
 44
0.0000000001
 40
0.0
 40
0.0
 40
0.0
 40
0.0
 40
0.289556229
 40
0.5486533222
 40
0.7816321932
 40
0.8918390364
 40
1.0
 40
1.0
 40
1.0
 40
1.0
 10
37.992647514
 20
41.3046417441
 30
0.0
 10
37.992647514
 20
41.4465492567
 30
0.0
 10
38.0141766988
 20
41.7163919715
 30
0.0
 10
38.1232357118
 20
42.0869478812
 30
0.0
 10
38.280097077
 20
42.3425640867
 30
0.0
 10
38.4383838907
 20
42.4983380287
 30
0.0
 10
38.5266647911
 20
42.5599205754
 30
0.0
 10
38.5725713031
 20
42.5864245559
 30
0.0
  0
SPLINE
  5
37E
100
AcDbEntity
  8
0
100
AcDbSpline
 62
7
  6
CONTINUOUS
 70
0
 71
3
 72
15
 73
11
 74
0
 42
0.0000001
 43
0.0000001
 44
0.0000000001
 40
0.0
 40
0.0
 40
0.0
 40
0.0
 40
0.1141465952
 40
0.2373352439
 40
0.366975646
 40
0.4999989181
 40
0.6330223406
 40
0.7626631822
 40
0.8858525235
 40
1.0
 40
1.0
 40
1.0
 40
1.0
 10
39.9725547444
 20
37.8753608635
 30
0.0
 10
39.8370240851
 20
37.953607756
 30
0.0
 10
39.569308462
 20
38.141293206
 30
0.0
 10
39.2009240143
 20
38.4859013185
 30
0.0
 10
38.8614802543
 20
38.8933127349
 30
0.0
 10
38.5636821986
 20
39.348131789
 30
0.0
 10
38.3186937999
 20
39.8334413705
 30
0.0
 10
38.1355838269
 20
40.3311146738
 30
0.0
 10
38.0213329313
 20
40.8224509645
 30
0.0
 10
37.992647514
 20
41.1481440956
 30
0.0
 10
37.992647514
 20
41.3046417441
 30
0.0
  0
SPLINE
  5
37F
100
AcDbEntity
  8
0
100
AcDbSpline
 62
7
  6
CONTINUOUS
 70
0
 71
3
 72
13
 73
9
 74
0
 42
0.0000001
 43
0.0000001
 44
0.0000000001
 40
0.0
 40
0.0
 40
0.0
 40
0.0
 40
0.118183929
 40
0.2425941021
 40
0.5013641807
 40
0.7594390499
 40
0.8828955952
 40
1.0
 40
1.0
 40
1.0
 40
1.0
 10
14.503212617
 20
62.1331077333
 30
0.0
 10
14.5188485874
 20
62.0081206992
 30
0.0
 10
14.566938849
 20
61.7533830035
 30
0.0
 10
14.7214693739
 20
61.2410584779
 30
0.0
 10
15.0149904155
 20
60.6191181673
 30
0.0
 10
15.414637654
 20
60.0606195967
 30
0.0
 10
15.7853913475
 20
59.6787607584
 30
0.0
 10
15.9833997362
 20
59.5147811418
 30
0.0
 10
16.0843787337
 20
59.4414261488
 30
0.0
  0
SPLINE
  5
380
100
AcDbEntity
  8
0
100
AcDbSpline
 62
7
  6
CONTINUOUS
 70
0
 71
3
 72
11
 73
7
 74
0
 42
0.0000001
 43
0.0000001
 44
0.0000000001
 40
0.0
 40
0.0
 40
0.0
 40
0.0
 40
0.2897016594
 40
0.5490895814
 40
0.7822189142
 40
1.0
 40
1.0
 40
1.0
 40
1.0
 10
27.9516894169
 20
30.5266613906
 30
0.0
 10
27.9516894169
 20
30.6381309157
 30
0.0
 10
27.9685897177
 20
30.8501234157
 30
0.0
 10
28.0544396457
 20
31.1413921488
 30
0.0
 10
28.1989929441
 20
31.3777400492
 30
0.0
 10
28.3347727423
 20
31.4918804776
 30
0.0
 10
28.4073394898
 20
31.5337839702
 30
0.0
  0
SPLINE
  5
381
100
AcDbEntity
  8
0
100
AcDbSpline
 62
7
  6
CONTINUOUS
 70
0
 71
3
 72
20
 73
16
 74
0
 42
0.0000001
 43
0.0000001
 44
0.0000000001
 40
0.0
 40
0.0
 40
0.0
 40
0.0
 40
0.0428301836
 40
0.0874298145
 40
0.1352303245
 40
0.1871620766
 40
0.2436308801
 40
0.3046118587
 40
0.3697370547
 40
0.4383714746
 40
0.5826211611
 40
0.729687008
 40
0.8711863708
 40
0.9376074823
 40
1.0
 40
1.0
 40
1.0
 40
1.0
 10
29.2871235847
 20
50.2187808312
 30
0.0
 10
29.2230211139
 20
50.1817856823
 30
0.0
 10
29.0817425168
 20
50.123028525
 30
0.0
 10
28.8485014379
 20
50.0888965951
 30
0.0
 10
28.5980412756
 20
50.1072765009
 30
0.0
 10
28.3359221626
 20
50.1769467887
 30
0.0
 10
28.0672832614
 20
50.2956635521
 30
0.0
 10
27.7974667534
 20
50.4607038929
 30
0.0
 10
27.5319727887
 20
50.668576904
 30
0.0
 10
27.1854718521
 20
51.0023008048
 30
0.0
 10
26.8004404812
 20
51.4954153358
 30
0.0
 10
26.4430126009
 20
52.1559297227
 30
0.0
 10
26.2451607546
 20
52.7407045764
 30
0.0
 10
26.1633177573
 20
53.2012965749
 30
0.0
 10
26.1486514696
 20
53.4240471817
 30
0.0
 10
26.1486514696
 20
53.5318634717
 30
0.0
  0
SPLINE
  5
382
100
AcDbEntity
  8
0
100
AcDbSpline
 62
7
  6
CONTINUOUS
 70
0
 71
3
 72
11
 73
7
 74
0
 42
0.0000001
 43
0.0000001
 44
0.0000000001
 40
0.0
 40
0.0
 40
0.0
 40
0.0
 40
0.2897016594
 40
0.5490895814
 40
0.7822189142
 40
1.0
 40
1.0
 40
1.0
 40
1.0
 10
33.3964343006
 20
27.3832075808
 30
0.0
 10
33.3964343006
 20
27.4946771058
 30
0.0
 10
33.4133346014
 20
27.7066696059
 30
0.0
 10
33.4991845294
 20
27.997938339
 30
0.0
 10
33.6437378277
 20
28.2342862394
 30
0.0
 10
33.7795176259
 20
28.3484266678
 30
0.0
 10
33.8520843734
 20
28.3903301604
 30
0.0
  0
SPLINE
  5
383
100
AcDbEntity
  8
0
100
AcDbSpline
 62
7
  6
CONTINUOUS
 70
0
 71
3
 72
13
 73
9
 74
0
 42
0.0000001
 43
0.0000001
 44
0.0000000001
 40
0.0
 40
0.0
 40
0.0
 40
0.0
 40
0.118183929
 40
0.2425941021
 40
0.5013641807
 40
0.7594390499
 40
0.8828955952
 40
1.0
 40
1.0
 40
1.0
 40
1.0
 10
32.1101358464
 20
76.2177108229
 30
0.0
 10
32.1257718168
 20
76.0927237887
 30
0.0
 10
32.1738620784
 20
75.8379860931
 30
0.0
 10
32.3283926033
 20
75.3256615674
 30
0.0
 10
32.6219136449
 20
74.7037212569
 30
0.0
 10
33.0215608834
 20
74.1452226863
 30
0.0
 10
33.3923145769
 20
73.763363848
 30
0.0
 10
33.5903229656
 20
73.5993842313
 30
0.0
 10
33.6913019631
 20
73.5260292384
 30
0.0
  0
SPLINE
  5
384
100
AcDbEntity
  8
0
100
AcDbSpline
 62
7
  6
CONTINUOUS
 70
0
 71
3
 72
20
 73
16
 74
0
 42
0.0000001
 43
0.0000001
 44
0.0000000001
 40
0.0
 40
0.0
 40
0.0
 40
0.0
 40
0.0428301836
 40
0.0874298145
 40
0.1352303245
 40
0.1871620766
 40
0.2436308801
 40
0.3046118587
 40
0.3697370547
 40
0.4383714746
 40
0.5826211611
 40
0.729687008
 40
0.8711863708
 40
0.9376074823
 40
1.0
 40
1.0
 40
1.0
 40
1.0
 10
37.8430423322
 20
69.5288655786
 30
0.0
 10
37.7789398614
 20
69.4918704297
 30
0.0
 10
37.6376612643
 20
69.4331132724
 30
0.0
 10
37.4044201854
 20
69.3989813425
 30
0.0
 10
37.1539600231
 20
69.4173612483
 30
0.0
 10
36.8918409101
 20
69.4870315361
 30
0.0
 10
36.6232020089
 20
69.6057482995
 30
0.0
 10
36.353385501
 20
69.7707886403
 30
0.0
 10
36.0878915362
 20
69.9786616514
 30
0.0
 10
35.7413905996
 20
70.3123855522
 30
0.0
 10
35.3563592287
 20
70.8055000832
 30
0.0
 10
34.9989313485
 20
71.4660144701
 30
0.0
 10
34.8010795021
 20
72.0507893238
 30
0.0
 10
34.7192365049
 20
72.5113813223
 30
0.0
 10
34.7045702171
 20
72.7341319291
 30
0.0
 10
34.7045702171
 20
72.8419482191
 30
0.0
  0
SPLINE
  5
385
100
AcDbEntity
  8
0
100
AcDbSpline
 62
7
  6
CONTINUOUS
 70
0
 71
3
 72
12
 73
8
 74
0
 42
0.0000001
 43
0.0000001
 44
0.0000000001
 40
0.0
 40
0.0
 40
0.0
 40
0.0
 40
0.2894832083
 40
0.5486755374
 40
0.7816290778
 40
0.8918324007
 40
1.0
 40
1.0
 40
1.0
 40
1.0
 10
30.4972844275
 20
38.4467724713
 30
0.0
 10
30.4972844275
 20
38.5709089879
 30
0.0
 10
30.5161648747
 20
38.8070238306
 30
0.0
 10
30.6115333014
 20
39.1312629278
 30
0.0
 10
30.7487865446
 20
39.3549797475
 30
0.0
 10
30.8873431669
 20
39.4911996718
 30
0.0
 10
30.9645444098
 20
39.545145591
 30
0.0
 10
31.0047129177
 20
39.5683407986
 30
0.0
  0
SPLINE
  5
386
100
AcDbEntity
  8
0
100
AcDbSpline
 62
7
  6
CONTINUOUS
 70
0
 71
3
 72
13
 73
9
 74
0
 42
0.0000001
 43
0.0000001
 44
0.0000000001
 40
0.0
 40
0.0
 40
0.0
 40
0.0
 40
0.118183929
 40
0.2425941021
 40
0.5013641807
 40
0.7594390499
 40
0.8828955952
 40
1.0
 40
1.0
 40
1.0
 40
1.0
 10
19.0287148579
 20
59.5203669044
 30
0.0
 10
19.0443508284
 20
59.3953798702
 30
0.0
 10
19.0924410899
 20
59.1406421746
 30
0.0
 10
19.2469716148
 20
58.6283176489
 30
0.0
 10
19.5404926565
 20
58.0063773384
 30
0.0
 10
19.9401398949
 20
57.4478787678
 30
0.0
 10
20.3108935884
 20
57.0660199295
 30
0.0
 10
20.5089019772
 20
56.9020403128
 30
0.0
 10
20.6098809747
 20
56.8286853199
 30
0.0
  0
SPLINE
  5
387
100
AcDbEntity
  8
0
100
AcDbSpline
 62
7
  6
CONTINUOUS
 70
0
 71
3
 72
19
 73
15
 74
0
 42
0.0000001
 43
0.0000001
 44
0.0000000001
 40
0.0
 40
0.0
 40
0.0
 40
0.0
 40
0.0428394104
 40
0.0874448899
 40
0.1352571039
 40
0.1871950253
 40
0.2436735499
 40
0.3046656819
 40
0.4382689093
 40
0.5825434307
 40
0.7296392143
 40
0.871166535
 40
0.9376088396
 40
1.0
 40
1.0
 40
1.0
 40
1.0
 10
33.4546935904
 20
35.3248244468
 30
0.0
 10
33.3942957136
 20
35.2899478391
 30
0.0
 10
33.2611384154
 20
35.2346568532
 30
0.0
 10
33.0413701084
 20
35.2023953294
 30
0.0
 10
32.8053610726
 20
35.2198020796
 30
0.0
 10
32.5583658506
 20
35.2854081905
 30
0.0
 10
32.3052066443
 20
35.3972636244
 30
0.0
 10
31.9557553728
 20
35.6111780483
 30
0.0
 10
31.5394479069
 20
35.9798479301
 30
0.0
 10
31.1115644204
 20
36.5276577373
 30
0.0
 10
30.7746386337
 20
37.1502616971
 30
0.0
 10
30.5882043743
 20
37.7012762118
 30
0.0
 10
30.5111244762
 20
38.1353059516
 30
0.0
 10
30.4972844275
 20
38.3451969831
 30
0.0
 10
30.4972844275
 20
38.4467724713
 30
0.0
  0
SPLINE
  5
388
100
AcDbEntity
  8
0
100
AcDbSpline
 62
7
  6
CONTINUOUS
 70
0
 71
3
 72
12
 73
8
 74
0
 42
0.0000001
 43
0.0000001
 44
0.0000000001
 40
0.0
 40
0.0
 40
0.0
 40
0.0
 40
0.2895288194
 40
0.5486668261
 40
0.7816307427
 40
0.8918394607
 40
1.0
 40
1.0
 40
1.0
 40
1.0
 10
12.5721447467
 20
23.2394230785
 30
0.0
 10
12.5721447467
 20
23.3711813181
 30
0.0
 10
12.5921563913
 20
23.6217511486
 30
0.0
 10
12.6933931745
 20
23.9658457389
 30
0.0
 10
12.8390707293
 20
24.2032104704
 30
0.0
 10
12.9860545029
 20
24.3478386931
 30
0.0
 10
13.0680119798
 20
24.4050502442
 30
0.0
 10
13.1106432024
 20
24.4296537955
 30
0.0
  0
SPLINE
  5
389
100
AcDbEntity
  8
0
100
AcDbSpline
 62
7
  6
CONTINUOUS
 70
0
 71
3
 72
15
 73
11
 74
0
 42
0.0000001
 43
0.0000001
 44
0.0000000001
 40
0.0
 40
0.0
 40
0.0
 40
0.0
 40
0.1008021664
 40
0.2152718546
 40
0.341618121
 40
0.4761889894
 40
0.6142831343
 40
0.7507678553
 40
0.8807373425
 40
1.0
 40
1.0
 40
1.0
 40
1.0
 10
35.4505893418
 20
24.4957156462
 30
0.0
 10
35.326181218
 20
24.5189190317
 30
0.0
 10
35.0679434706
 20
24.6101302293
 30
0.0
 10
34.7026682773
 20
24.8393558748
 30
0.0
 10
34.3515474931
 20
25.1568719984
 30
0.0
 10
34.0331804171
 20
25.5457907996
 30
0.0
 10
33.7643753427
 20
25.9853431394
 30
0.0
 10
33.5595546027
 20
26.451933939
 30
0.0
 10
33.4298804751
 20
26.9202395661
 30
0.0
 10
33.3964343006
 20
27.2334776438
 30
0.0
 10
33.3964343006
 20
27.3832075808
 30
0.0
  0
SPLINE
  5
38A
100
AcDbEntity
  8
0
100
AcDbSpline
 62
7
  6
CONTINUOUS
 70
0
 71
3
 72
12
 73
8
 74
0
 42
0.0000001
 43
0.0000001
 44
0.0000000001
 40
0.0
 40
0.0
 40
0.0
 40
0.0
 40
0.289525478
 40
0.5486635714
 40
0.781627911
 40
0.8918369684
 40
1.0
 40
1.0
 40
1.0
 40
1.0
 10
26.1486514696
 20
15.4012005917
 30
0.0
 10
26.1486514696
 20
15.5329572941
 30
0.0
 10
26.168661773
 20
15.7835258715
 30
0.0
 10
26.2698996708
 20
16.1276183848
 30
0.0
 10
26.4155741118
 20
16.3649855413
 30
0.0
 10
26.5625594723
 20
16.5096143128
 30
0.0
 10
26.6445179581
 20
16.5668267472
 30
0.0
 10
26.6871504731
 20
16.5914303159
 30
0.0
  0
SPLINE
  5
38B
100
AcDbEntity
  8
0
100
AcDbSpline
 62
7
  6
CONTINUOUS
 70
0
 71
3
 72
13
 73
9
 74
0
 42
0.0000001
 43
0.0000001
 44
0.0000000001
 40
0.0
 40
0.0
 40
0.0
 40
0.0
 40
0.118183929
 40
0.2425941021
 40
0.5013641807
 40
0.7594390499
 40
0.8828955952
 40
1.0
 40
1.0
 40
1.0
 40
1.0
 10
27.5846336054
 20
78.8304516518
 30
0.0
 10
27.6002695759
 20
78.7054646176
 30
0.0
 10
27.6483598374
 20
78.450726922
 30
0.0
 10
27.8028903624
 20
77.9384023963
 30
0.0
 10
28.096411404
 20
77.3164620858
 30
0.0
 10
28.4960586424
 20
76.7579635152
 30
0.0
 10
28.8668123359
 20
76.3761046769
 30
0.0
 10
29.0648207247
 20
76.2121250602
 30
0.0
 10
29.1657997222
 20
76.1387700673
 30
0.0
  0
ENDSEC
  0
SECTION
  2
OBJECTS
  0
DICTIONARY
  5
C
100
AcDbDictionary
280
0
281
1
  3
ACAD_GROUP
350
D
  3
ACAD_MLINESTYLE
350
17
  3
ACAD_LAYOUT
350
1A
  3
ACAD_PLOTSETTINGS
350
19
  3
ACAD_PLOTSTYLENAME
350
E
  0
DICTIONARY
  5
D
102
{ACAD_REACTORS
330
C
102
}
100
AcDbDictionary
280
0
281
1
  0
ACDBDICTIONARYWDFLT
  5
E
102
{ACAD_REACTORS
330
C
102
}
100
AcDbDictionary
281
1
  3
Normal
350
F
100
AcDbDictionaryWithDefault
340
F
  0
DICTIONARY
  5
17
102
{ACAD_REACTORS
330
C
102
}
100
AcDbDictionary
280
0
281
1
  3
Standard
350
18
  0
DICTIONARY
  5
19
102
{ACAD_REACTORS
330
C
102
}
100
AcDbDictionary
281
1
  0
DICTIONARY
  5
1A
102
{ACAD_REACTORS
330
C
102
}
100
AcDbDictionary
281
1
  3
Model
350
38C
  3
Layout1
350
38D
  0
ACDBPLACEHOLDER
  5
F
102
{ACAD_REACTORS
330
E
102
}
  0
MLINESTYLE
  5
18
102
{ACAD_REACTORS
330
17
102
}
100
AcDbMlineStyle
  2
STANDARD
 70
0
  3

 62
256
 51
90.0
 52
90.0
 71
2
 49
0.5
 62
256
  6
BYLAYER
 49
-0.5
 62
256
  6
BYLAYER
  0
LAYOUT
  5
38C
102
{ACAD_REACTORS
330
1A
102
}
100
AcDbPlotSettings
  1

  2
none_device
  4

  6

 40
0.0
 41
0.0
 42
0.0
 43
0.0
 44
210.0
 45
297.0
 46
0.0
 47
0.0
 48
0.0
 49
0.0
140
0.0
141
0.0
142
1.0
143
1.0
 70
1024
 72
1
 73
0
 74
0
  7

 75
0
147
1.0
148
0.0
149
0.0
100
AcDbLayout
  1
Model
 70
0
 71
0
 10
0.0
 20
0.0
 11
210.0
 21
297.0
 12
0.0
 22
0.0
 32
0.0
 14
0.0
 24
0.0
 34
0.0
 15
0.0
 25
0.0
 35
0.0
146
0.0
 13
0.0
 23
0.0
 33
0.0
 16
1.0
 26
0.0
 36
0.0
 17
0.0
 27
1.0
 37
0.0
 76
0
330
211
345
0
346
0
  0
LAYOUT
  5
38D
102
{ACAD_REACTORS
330
1A
102
}
100
AcDbPlotSettings
  1

  2
none_device
  4

  6

 40
0.0
 41
0.0
 42
0.0
 43
0.0
 44
210.0
 45
297.0
 46
0.0
 47
0.0
 48
0.0
 49
0.0
140
0.0
141
0.0
142
1.0
143
1.0
 70
0
 72
1
 73
0
 74
0
  7

 75
0
147
1.0
148
0.0
149
0.0
100
AcDbLayout
  1
Layout1
 70
0
 71
1
 10
0.0
 20
0.0
 11
210.0
 21
297.0
 12
0.0
 22
0.0
 32
0.0
 14
0.0
 24
0.0
 34
0.0
 15
0.0
 25
0.0
 35
0.0
146
0.0
 13
0.0
 23
0.0
 33
0.0
 16
1.0
 26
0.0
 36
0.0
 17
0.0
 27
1.0
 37
0.0
 76
0
330
212
345
0
346
0
  0
ENDSEC
  0
EOF
