999
DXF file: C:\Users\sesa63760\Dev\_Creo\CAD\MCADID0004901_3D-CAD\drw0001_4.dxf
999
Pro/ENGINEER 2019471 by Parametric Technology Corporation
  0
SECTION
  2
HEADER
  9
$ACADVER
  1
AC1024
  9
$DWGCODEPAGE
  3
ANSI_1252
  9
$EXTMAX
 10
695.2041100674
 20
983.2172413811
 30
0.0
  9
$EXTMIN
 10
0.0
 20
0.0
 30
0.0
  9
$LIMMIN
 10
0.0
 20
0.0
  9
$LIMMAX
 10
695.2041100674
 20
983.2172413811
  9
$VIEWCTR
 10
347.6020550337
 20
491.6086206905
  9
$VIEWSIZE
 40
983.2172413811
  9
$CLAYER
  8
0
  9
$LTSCALE
 40
64.0911979567
  9
$CELTYPE
  6
BYLAYER
  9
$DIMSCALE
 40
1.0
  9
$DIMASZ
 40
8.2762394056
  9
$DIMEXO
 40
1.0
  9
$DIMDLI
 40
44.2811913155
  9
$DIMEXE
 40
1.0
  9
$DIMCEN
 40
10.4876505747
  9
$DIMLFAC
 40
1.0
  9
$DIMBLK
  1
_FILLED
  9
$DIMALT
 70
0
  9
$DIMALTF
 40
0.0393700787
  9
$DIMTXT
 40
11.5867351678
  9
$DIMTOL
 70
1
  9
$DIMLIM
 70
0
  9
$DIMTFAC
 40
1.0
  9
$DIMTP
 40
0.01
  9
$DIMTM
 40
0.01
  9
$DIMGAP
 40
0.625
  9
$DIMDSEP
 70
46
  9
$AUNITS
 70
0
  9
$PDMODE
 70
3
  9
$PDSIZE
 40
0.3125
  9
$HANDSEED
  5
37A
  9
$TILEMODE
 70
1
  9
$MEASUREMENT
 70
1
  9
$INSUNITS
 70
4
  0
ENDSEC
  0
SECTION
  2
CLASSES
  0
CLASS
  1
ACDBDICTIONARYWDFLT
  2
AcDbDictionaryWithDefault
  3
AutoCAD 2000
 90
0
 91
1
280
0
281
0
  0
CLASS
  1
ACDBPLACEHOLDER
  2
AcDbPlaceHolder
  3
AutoCAD 2000
 90
0
 91
1
280
0
281
0
  0
CLASS
  1
LAYOUT
  2
AcDbLayout
  3
AutoCAD 2000
 90
0
 91
0
280
0
281
0
  0
ENDSEC
  0
SECTION
  2
TABLES
  0
TABLE
  2
VPORT
  5
8
100
AcDbSymbolTable
 70
2
  0
VPORT
  5
1F4
100
AcDbSymbolTableRecord
100
AcDbViewportTableRecord
  2
*ACTIVE
 70
0
 10
0.0
 20
0.0
 11
1.0
 21
1.0
 12
347.6020550337
 22
491.6086206905
 13
0.0
 23
0.0
 14
1.0
 24
1.0
 15
0.0
 25
0.0
 16
0.0
 26
0.0
 36
1.0
 17
0.0
 27
0.0
 37
0.0
 40
983.2172413811
 41
0.7070707071
 42
50.0
 43
0.0
 44
0.0
 50
0.0
 51
0.0
 71
0
 72
100
 73
1
 74
1
 75
0
 76
0
 77
0
 78
0
  0
ENDTAB
  0
TABLE
  2
LTYPE
  5
5
100
AcDbSymbolTable
 70
6
  0
LTYPE
  5
14
100
AcDbSymbolTableRecord
100
AcDbLinetypeTableRecord
  2
BYBLOCK
 70
0
  3

 72
65
 73
0
 40
0.0
  0
LTYPE
  5
15
100
AcDbSymbolTableRecord
100
AcDbLinetypeTableRecord
  2
BYLAYER
 70
0
  3

 72
65
 73
0
 40
0.0
  0
LTYPE
  5
16
100
AcDbSymbolTableRecord
100
AcDbLinetypeTableRecord
  2
CONTINUOUS
 70
64
  3
Solid line
 72
65
 73
0
 40
0.0
  0
LTYPE
  5
1F5
100
AcDbSymbolTableRecord
100
AcDbLinetypeTableRecord
  2
CENTER
 70
64
  3
____ _ ____ _ ____ _ ____ _ ____ _ ____ _ ____
 72
65
 73
4
 40
0.6
 49
0.375
 74
0
 49
-0.075
 74
0
 49
0.075
 74
0
 49
-0.075
 74
0
  0
LTYPE
  5
1F6
100
AcDbSymbolTableRecord
100
AcDbLinetypeTableRecord
  2
HIDDEN
 70
64
  3
- - - - - - - - - - - - - - - - - - - -
 72
65
 73
2
 40
0.2
 49
0.1
 74
0
 49
-0.1
 74
0
  0
LTYPE
  5
1F7
100
AcDbSymbolTableRecord
100
AcDbLinetypeTableRecord
  2
PHANTOM
 70
64
  3
_____ _ _ _____ _ _ _____ _ _ _____
 72
65
 73
6
 40
0.8
 49
0.45
 74
0
 49
-0.05
 74
0
 49
0.1
 74
0
 49
-0.05
 74
0
 49
0.1
 74
0
 49
-0.05
 74
0
  0
LTYPE
  5
1F8
100
AcDbSymbolTableRecord
100
AcDbLinetypeTableRecord
  2
DOT
 70
64
  3
. . . . . . . . . . . . . . . . . . . .
 72
65
 73
2
 40
0.2
 49
0.1
 74
0
 49
-0.1
 74
0
  0
LTYPE
  5
1F9
100
AcDbSymbolTableRecord
100
AcDbLinetypeTableRecord
  2
DASHED
 70
64
  3
- - - - - - - - - - - - - - - - - - - -
 72
65
 73
2
 40
0.2
 49
0.1
 74
0
 49
-0.1
 74
0
  0
ENDTAB
  0
TABLE
  2
LAYER
  5
2
100
AcDbSymbolTable
 70
36
  0
LAYER
  5
10
100
AcDbSymbolTableRecord
100
AcDbLayerTableRecord
  2
0
 70
0
 62
7
  6
CONTINUOUS
370
-3
390
F
  0
LAYER
  5
1FA
100
AcDbSymbolTableRecord
100
AcDbLayerTableRecord
  2
DEFAULT_1
 70
0
 62
7
  6
CENTER
370
-3
390
F
  0
LAYER
  5
1FB
100
AcDbSymbolTableRecord
100
AcDbLayerTableRecord
  2
DEFAULT_2
 70
0
 62
7
  6
HIDDEN
370
-3
390
F
  0
LAYER
  5
1FC
100
AcDbSymbolTableRecord
100
AcDbLayerTableRecord
  2
DEFAULT_3
 70
0
 62
7
  6
PHANTOM
370
-3
390
F
  0
LAYER
  5
1FD
100
AcDbSymbolTableRecord
100
AcDbLayerTableRecord
  2
00_COMPONENTS
 70
0
 62
7
  6
CONTINUOUS
370
-3
390
F
  0
LAYER
  5
1FE
100
AcDbSymbolTableRecord
100
AcDbLayerTableRecord
  2
01_1_DEFAULT_DATUMS
 70
0
 62
7
  6
CONTINUOUS
370
-3
390
F
  0
LAYER
  5
1FF
100
AcDbSymbolTableRecord
100
AcDbLayerTableRecord
  2
01_PLANES
 70
0
 62
7
  6
CONTINUOUS
370
-3
390
F
  0
LAYER
  5
200
100
AcDbSymbolTableRecord
100
AcDbLayerTableRecord
  2
02_COORD_SYS
 70
0
 62
7
  6
CONTINUOUS
370
-3
390
F
  0
LAYER
  5
201
100
AcDbSymbolTableRecord
100
AcDbLayerTableRecord
  2
03_AXES
 70
0
 62
7
  6
CONTINUOUS
370
-3
390
F
  0
LAYER
  5
202
100
AcDbSymbolTableRecord
100
AcDbLayerTableRecord
  2
04_POINTS
 70
0
 62
7
  6
CONTINUOUS
370
-3
390
F
  0
LAYER
  5
203
100
AcDbSymbolTableRecord
100
AcDbLayerTableRecord
  2
05_CURVES
 70
0
 62
7
  6
CONTINUOUS
370
-3
390
F
  0
LAYER
  5
204
100
AcDbSymbolTableRecord
100
AcDbLayerTableRecord
  2
06_SURFS
 70
0
 62
7
  6
CONTINUOUS
370
-3
390
F
  0
LAYER
  5
205
100
AcDbSymbolTableRecord
100
AcDbLayerTableRecord
  2
07_COSMETICS
 70
0
 62
7
  6
CONTINUOUS
370
-3
390
F
  0
LAYER
  5
206
100
AcDbSymbolTableRecord
100
AcDbLayerTableRecord
  2
10_NOTES
 70
0
 62
7
  6
CONTINUOUS
370
-3
390
F
  0
LAYER
  5
207
100
AcDbSymbolTableRecord
100
AcDbLayerTableRecord
  2
11_NOTES_PUB
 70
0
 62
7
  6
CONTINUOUS
370
-3
390
F
  0
LAYER
  5
208
100
AcDbSymbolTableRecord
100
AcDbLayerTableRecord
  2
13_REF_GTOL
 70
0
 62
7
  6
CONTINUOUS
370
-3
390
F
  0
LAYER
  5
209
100
AcDbSymbolTableRecord
100
AcDbLayerTableRecord
  2
16_MISC
 70
0
 62
7
  6
CONTINUOUS
370
-3
390
F
  0
LAYER
  5
20A
100
AcDbSymbolTableRecord
100
AcDbLayerTableRecord
  2
17_NO_PRINT
 70
0
 62
7
  6
CONTINUOUS
370
-3
390
F
  0
LAYER
  5
20B
100
AcDbSymbolTableRecord
100
AcDbLayerTableRecord
  2
18_DATUM_CAMS_JOINTS
 70
0
 62
7
  6
CONTINUOUS
370
-3
390
F
  0
LAYER
  5
20C
100
AcDbSymbolTableRecord
100
AcDbLayerTableRecord
  2
19_DATUM_FUNCTIONAL
 70
0
 62
7
  6
CONTINUOUS
370
-3
390
F
  0
LAYER
  5
20D
100
AcDbSymbolTableRecord
100
AcDbLayerTableRecord
  2
20_DATUM_KINEMATIC_SCHEME
 70
0
 62
7
  6
CONTINUOUS
370
-3
390
F
  0
ENDTAB
  0
TABLE
  2
STYLE
  5
3
100
AcDbSymbolTable
 70
1
  0
STYLE
  5
11
100
AcDbSymbolTableRecord
100
AcDbTextStyleTableRecord
  2
STANDARD
 70
0
 40
0.0
 41
1.0
 50
0.0
 71
0
 42
0.2
  3
ARIAL.TTF
  4

  0
STYLE
  5
20E
100
AcDbSymbolTableRecord
100
AcDbTextStyleTableRecord
  2
TEXTSTYLE_1
 70
0
 40
0.0
 41
0.8
 50
0.0
 71
0
 42
0.2
  3
gdt
  4

  0
ENDTAB
  0
TABLE
  2
VIEW
  5
6
100
AcDbSymbolTable
 70
0
  0
ENDTAB
  0
TABLE
  2
UCS
  5
7
100
AcDbSymbolTable
 70
0
  0
ENDTAB
  0
TABLE
  2
APPID
  5
9
100
AcDbSymbolTable
 70
1
  0
APPID
  5
20F
100
AcDbSymbolTableRecord
100
AcDbRegAppTableRecord
  2
ACAD
 70
0
  0
ENDTAB
  0
TABLE
  2
BLOCK_RECORD
  5
1
100
AcDbSymbolTable
 70
0
  0
BLOCK_RECORD
  5
210
100
AcDbSymbolTableRecord
100
AcDbBlockTableRecord
  2
*Model_Space
  0
BLOCK_RECORD
  5
211
100
AcDbSymbolTableRecord
100
AcDbBlockTableRecord
  2
*Paper_Space
  0
BLOCK_RECORD
  5
212
100
AcDbSymbolTableRecord
100
AcDbBlockTableRecord
  2
_FILLED
  0
ENDTAB
  0
TABLE
  2
DIMSTYLE
  5
A
100
AcDbSymbolTable
 70
1
100
AcDbDimStyleTable
 71
0
  0
DIMSTYLE
105
213
100
AcDbSymbolTableRecord
100
AcDbDimStyleTableRecord
  2
STANDARD
 70
0
  3

  4

 40
1.0
 41
8.2762394056
 42
1.0
 43
0.38
 44
1.0
 45
0.0
 46
0.0
 47
0.01
 48
0.01
140
11.5867351678
141
0.09
142
0.0
143
25.4
144
1.0
145
0.0
146
1.0
147
0.625
 71
1
 72
0
 73
0
 74
0
 75
0
 76
0
 77
1
 78
8
 79
2
170
0
171
1
172
0
173
0
174
0
175
0
176
0
177
0
178
0
270
2
179
2
271
2
272
2
273
2
274
2
275
0
280
0
281
0
282
0
283
1
284
8
285
0
286
0
287
3
288
0
340
11
278
46
341
212
342
212
343
212
344
212
  0
ENDTAB
  0
ENDSEC
  0
SECTION
  2
BLOCKS
  0
BLOCK
  5
20
100
AcDbEntity
  8
0
100
AcDbBlockBegin
  2
*Model_Space
 70
0
 10
0.0
 20
0.0
 30
0.0
  3
*Model_Space
  1

  0
ENDBLK
  5
21
100
AcDbEntity
  8
0
100
AcDbBlockEnd
  0
BLOCK
  5
1C
100
AcDbEntity
  8
0
100
AcDbBlockBegin
  2
*Paper_Space
 70
0
 10
0.0
 20
0.0
 30
0.0
  3
*Paper_Space
  1

  0
ENDBLK
  5
1D
100
AcDbEntity
  8
0
100
AcDbBlockEnd
  0
BLOCK
  5
214
100
AcDbEntity
  8
0
100
AcDbBlockBegin
  2
_FILLED
 70
64
 10
0.0
 20
0.0
  3
_FILLED
  1

  0
SOLID
  5
215
100
AcDbEntity
  8
0
  6
BYBLOCK
 62
0
100
AcDbTrace
 10
0.0
 20
0.0
 11
-1.0
 21
0.25
 12
-1.0
 22
-0.25
 13
-1.0
 23
-0.25
  0
ENDBLK
  5
216
100
AcDbEntity
  8
0
  6
BYBLOCK
 62
0
100
AcDbBlockEnd
  0
ENDSEC
  0
SECTION
  2
ENTITIES
  0
LINE
  5
217
100
AcDbEntity
  8
0
100
AcDbLine
 62
7
  6
BYLAYER
 10
80.04510659
 20
663.1828105143
 11
80.0279171024
 21
663.5000000005
  0
LINE
  5
218
100
AcDbEntity
  8
0
100
AcDbLine
 62
7
  6
BYLAYER
 10
77.4279171022
 20
316.2999494029
 11
77.4279171022
 21
660.9000818209
  0
LINE
  5
219
100
AcDbEntity
  8
0
100
AcDbLine
 62
7
  6
BYLAYER
 10
77.74510659
 20
316.3171894887
 11
77.74510659
 21
660.8828105144
  0
LINE
  5
21A
100
AcDbEntity
  8
0
100
AcDbLine
 62
7
  6
BYLAYER
 10
80.2779171032
 20
318.5000000014
 11
80.2779171032
 21
658.7000000014
  0
LINE
  5
21B
100
AcDbEntity
  8
0
100
AcDbLine
 62
7
  6
BYLAYER
 10
80.5279171032
 20
658.447974547
 11
80.5279171032
 21
318.7048138663
  0
LINE
  5
21C
100
AcDbEntity
  8
0
100
AcDbLine
 62
7
  6
BYLAYER
 10
80.04510659
 20
314.0171894887
 11
80.0279171024
 21
313.7000000021
  0
LINE
  5
21D
100
AcDbEntity
  8
0
100
AcDbLine
 62
7
  6
BYLAYER
 10
125.3939327236
 20
637.8441406059
 11
126.327917103
 21
641.5250000003
  0
LINE
  5
21E
100
AcDbEntity
  8
0
100
AcDbLine
 62
7
  6
BYLAYER
 10
125.4384639795
 20
641.9597656341
 11
124.6029171032
 21
638.8250000032
  0
LINE
  5
21F
100
AcDbEntity
  8
0
100
AcDbLine
 62
7
  6
BYLAYER
 10
117.5279171032
 20
644.4500000014
 11
117.5279171032
 21
635.4500000014
  0
LINE
  5
220
100
AcDbEntity
  8
0
100
AcDbLine
 62
7
  6
BYLAYER
 10
117.5279171032
 20
353.7500000014
 11
117.5279171032
 21
623.4500000014
  0
LINE
  5
221
100
AcDbEntity
  8
0
100
AcDbLine
 62
7
  6
BYLAYER
 10
121.8279171032
 20
637.5335937514
 11
121.8279171032
 21
642.0851562514
  0
LINE
  5
222
100
AcDbEntity
  8
0
100
AcDbLine
 62
7
  6
BYLAYER
 10
122.8779171029
 20
637.537109381
 11
122.8779171035
 21
641.5250000003
  0
LINE
  5
223
100
AcDbEntity
  8
0
100
AcDbLine
 62
7
  6
BYLAYER
 10
126.3279171032
 20
637.5371093764
 11
126.3279171029
 21
641.5250000014
  0
LINE
  5
224
100
AcDbEntity
  8
0
100
AcDbLine
 62
7
  6
BYLAYER
 10
127.3779171033
 20
637.5335937614
 11
127.3779171031
 21
642.0851562428
  0
LINE
  5
225
100
AcDbEntity
  8
0
100
AcDbLine
 62
7
  6
BYLAYER
 10
131.2029171032
 20
638.9750000004
 11
131.2029171032
 21
638.8332031264
  0
LINE
  5
226
100
AcDbEntity
  8
0
100
AcDbLine
 62
7
  6
BYLAYER
 10
136.2677608542
 20
640.6250000014
 11
136.2677608542
 21
640.4738281274
  0
LINE
  5
227
100
AcDbEntity
  8
0
100
AcDbLine
 62
7
  6
BYLAYER
 10
137.2779171032
 20
637.2863281274
 11
137.2779171032
 21
640.4164062514
  0
LINE
  5
228
100
AcDbEntity
  8
0
100
AcDbLine
 62
7
  6
BYLAYER
 10
143.2779171032
 20
637.5324218764
 11
143.2779171033
 21
642.2175781264
  0
LINE
  5
229
100
AcDbEntity
  8
0
100
AcDbLine
 62
7
  6
BYLAYER
 10
144.3279171032
 20
637.5324218763
 11
144.3279171032
 21
642.2175781263
  0
LINE
  5
22A
100
AcDbEntity
  8
0
100
AcDbLine
 62
7
  6
BYLAYER
 10
145.4529171032
 20
640.5863281273
 11
145.4529171032
 21
637.5253906253
  0
LINE
  5
22B
100
AcDbEntity
  8
0
100
AcDbLine
 62
7
  6
BYLAYER
 10
146.5029171031
 20
637.5253906191
 11
146.5029171033
 21
640.6179687561
  0
LINE
  5
22C
100
AcDbEntity
  8
0
100
AcDbLine
 62
7
  6
BYLAYER
 10
155.5279171032
 20
635.4500000014
 11
155.5279171032
 21
644.4500000014
  0
LINE
  5
22D
100
AcDbEntity
  8
0
100
AcDbLine
 62
7
  6
BYLAYER
 10
633.2280284248
 20
313.7000000014
 11
80.0278350511
 21
313.7000000014
  0
LINE
  5
22E
100
AcDbEntity
  8
0
100
AcDbLine
 62
7
  6
BYLAYER
 10
633.2107276159
 20
314.0171894887
 11
80.04510659
 21
314.0171894887
  0
LINE
  5
22F
100
AcDbEntity
  8
0
100
AcDbLine
 62
7
  6
BYLAYER
 10
124.6029171032
 20
638.8250000032
 11
123.7568233694
 21
641.9597655657
  0
LINE
  5
230
100
AcDbEntity
  8
0
100
AcDbLine
 62
7
  6
BYLAYER
 10
122.8779171035
 20
641.5250000003
 11
123.8119014745
 21
637.8441406439
  0
LINE
  5
231
100
AcDbEntity
  8
0
100
AcDbLine
 62
7
  6
BYLAYER
 10
363.404237139
 20
332.5648670937
 11
364.7514629631
 21
332.9036416504
  0
LINE
  5
232
100
AcDbEntity
  8
0
100
AcDbLine
 62
7
  6
BYLAYER
 10
365.5649033005
 20
328.7073332316
 11
365.6712149346
 21
328.7190576619
  0
LINE
  5
233
100
AcDbEntity
  8
0
100
AcDbLine
 62
7
  6
BYLAYER
 10
345.0594830938
 20
332.6169472182
 11
347.0198204327
 21
332.7855794845
  0
LINE
  5
234
100
AcDbEntity
  8
0
100
AcDbLine
 62
7
  6
BYLAYER
 10
77.74510659
 20
316.3171894887
 11
77.4279171024
 21
316.3000000021
  0
LINE
  5
235
100
AcDbEntity
  8
0
100
AcDbLine
 62
7
  6
BYLAYER
 10
630.9779171032
 20
316.5000000014
 11
82.2779171032
 21
316.5000000014
  0
LINE
  5
236
100
AcDbEntity
  8
0
100
AcDbLine
 62
7
  6
BYLAYER
 10
630.6328342992
 20
316.7500000014
 11
82.4827309662
 21
316.7500000014
  0
LINE
  5
237
100
AcDbEntity
  8
0
100
AcDbLine
 62
7
  6
BYLAYER
 10
357.2823699305
 20
328.7479556354
 11
357.6989096069
 21
328.7479556354
  0
LINE
  5
238
100
AcDbEntity
  8
0
100
AcDbLine
 62
7
  6
BYLAYER
 10
367.131957395
 20
328.7479556354
 11
367.5481563422
 21
328.7479556354
  0
LINE
  5
239
100
AcDbEntity
  8
0
100
AcDbLine
 62
7
  6
BYLAYER
 10
369.7744714688
 20
328.7479556344
 11
370.1910111443
 21
328.7479556344
  0
LINE
  5
23A
100
AcDbEntity
  8
0
100
AcDbLine
 62
7
  6
BYLAYER
 10
354.3560296414
 20
328.7500000011
 11
356.2124847927
 21
328.7500000017
  0
LINE
  5
23B
100
AcDbEntity
  8
0
100
AcDbLine
 62
7
  6
BYLAYER
 10
349.5388206966
 20
328.9440444564
 11
348.4328184163
 21
328.9440444564
  0
LINE
  5
23C
100
AcDbEntity
  8
0
100
AcDbLine
 62
7
  6
BYLAYER
 10
356.2124847927
 20
329.1639842191
 11
354.811923372
 21
329.1639842196
  0
LINE
  5
23D
100
AcDbEntity
  8
0
100
AcDbLine
 62
7
  6
BYLAYER
 10
348.6246481405
 20
329.6720092954
 11
349.3352358654
 21
329.6720092954
  0
LINE
  5
23E
100
AcDbEntity
  8
0
100
AcDbLine
 62
7
  6
BYLAYER
 10
352.4658424422
 20
329.6946676914
 11
351.5760319191
 21
329.6946676914
  0
LINE
  5
23F
100
AcDbEntity
  8
0
100
AcDbLine
 62
7
  6
BYLAYER
 10
359.1848233293
 20
329.7437324874
 11
360.6688630495
 21
329.7437324874
  0
LINE
  5
240
100
AcDbEntity
  8
0
100
AcDbLine
 62
7
  6
BYLAYER
 10
360.2533455573
 20
330.0219366964
 11
359.192489703
 21
330.0219366964
  0
LINE
  5
241
100
AcDbEntity
  8
0
100
AcDbLine
 62
7
  6
BYLAYER
 10
348.7227777332
 20
330.0972375294
 11
347.7581774701
 21
330.0972375294
  0
LINE
  5
242
100
AcDbEntity
  8
0
100
AcDbLine
 62
7
  6
BYLAYER
 10
351.7116415647
 20
330.1529465174
 11
352.7518833894
 21
330.1529465174
  0
LINE
  5
243
100
AcDbEntity
  8
0
100
AcDbLine
 62
7
  6
BYLAYER
 10
354.8119233724
 20
330.1607832543
 11
356.1238955775
 21
330.1607832544
  0
LINE
  5
244
100
AcDbEntity
  8
0
100
AcDbLine
 62
7
  6
BYLAYER
 10
364.4563799914
 20
330.4878818953
 11
364.8715694947
 21
330.4878818954
  0
LINE
  5
245
100
AcDbEntity
  8
0
100
AcDbLine
 62
7
  6
BYLAYER
 10
365.2865758952
 20
330.4878818962
 11
365.955083743
 21
330.4878818965
  0
LINE
  5
246
100
AcDbEntity
  8
0
100
AcDbLine
 62
7
  6
BYLAYER
 10
347.898386938
 20
330.5565385374
 11
348.8798532259
 21
330.5565385374
  0
LINE
  5
247
100
AcDbEntity
  8
0
100
AcDbLine
 62
7
  6
BYLAYER
 10
356.1238955773
 20
330.5754489273
 11
354.8119233725
 21
330.5754489274
  0
LINE
  5
248
100
AcDbEntity
  8
0
100
AcDbLine
 62
7
  6
BYLAYER
 10
352.9529356469
 20
330.5885669464
 11
351.8160746208
 21
330.5885669464
  0
LINE
  5
249
100
AcDbEntity
  8
0
100
AcDbLine
 62
7
  6
BYLAYER
 10
370.1910111451
 20
330.8631935134
 11
369.7744714688
 21
330.8631935134
  0
LINE
  5
24A
100
AcDbEntity
  8
0
100
AcDbLine
 62
7
  6
BYLAYER
 10
367.5481563434
 20
330.8631935134
 11
367.1319573954
 21
330.8631935134
  0
LINE
  5
24B
100
AcDbEntity
  8
0
100
AcDbLine
 62
7
  6
BYLAYER
 10
365.9550837431
 20
330.8631935134
 11
365.2865758951
 21
330.8631935134
  0
LINE
  5
24C
100
AcDbEntity
  8
0
100
AcDbLine
 62
7
  6
BYLAYER
 10
348.9360733047
 20
330.9907960554
 11
348.108445597
 21
330.9907960554
  0
LINE
  5
24D
100
AcDbEntity
  8
0
100
AcDbLine
 62
7
  6
BYLAYER
 10
351.9424846169
 20
331.0468457714
 11
353.0929518674
 21
331.0468457714
  0
LINE
  5
24E
100
AcDbEntity
  8
0
100
AcDbLine
 62
7
  6
BYLAYER
 10
348.4043676496
 20
331.4500970634
 11
349.0970671676
 21
331.4500970634
  0
LINE
  5
24F
100
AcDbEntity
  8
0
100
AcDbLine
 62
7
  6
BYLAYER
 10
352.2448804953
 20
331.4519710674
 11
351.5608695351
 21
331.4519710674
  0
LINE
  5
250
100
AcDbEntity
  8
0
100
AcDbLine
 62
7
  6
BYLAYER
 10
354.8119233729
 20
331.5417528297
 11
356.1717678265
 21
331.5417528291
  0
LINE
  5
251
100
AcDbEntity
  8
0
100
AcDbLine
 62
7
  6
BYLAYER
 10
356.1717678266
 20
331.9553963192
 11
354.356029641
 21
331.9553963195
  0
LINE
  5
252
100
AcDbEntity
  8
0
100
AcDbLine
 62
7
  6
BYLAYER
 10
357.6989096069
 20
331.9562481393
 11
357.2823699311
 21
331.9562481394
  0
LINE
  5
253
100
AcDbEntity
  8
0
100
AcDbLine
 62
7
  6
BYLAYER
 10
351.2572811093
 20
332.1215010974
 11
352.3896897897
 21
332.1215010974
  0
LINE
  5
254
100
AcDbEntity
  8
0
100
AcDbLine
 62
7
  6
BYLAYER
 10
360.3279649341
 20
332.6024383184
 11
361.4973425758
 21
332.6024383183
  0
LINE
  5
255
100
AcDbEntity
  8
0
100
AcDbLine
 62
7
  6
BYLAYER
 10
364.7514629631
 20
332.6036308664
 11
365.9210109679
 21
332.6036308664
  0
LINE
  5
256
100
AcDbEntity
  8
0
100
AcDbLine
 62
7
  6
BYLAYER
 10
372.0515550292
 20
332.6075492354
 11
370.8806441121
 21
332.6075492356
  0
LINE
  5
257
100
AcDbEntity
  8
0
100
AcDbLine
 62
7
  6
BYLAYER
 10
355.5254072825
 20
332.6121490594
 11
354.3550074577
 21
332.6121490592
  0
LINE
  5
258
100
AcDbEntity
  8
0
100
AcDbLine
 62
7
  6
BYLAYER
 10
347.5031427475
 20
332.6133416074
 11
348.6735425722
 21
332.6133416074
  0
LINE
  5
259
100
AcDbEntity
  8
0
100
AcDbLine
 62
7
  6
BYLAYER
 10
357.200935998
 20
334.2667230184
 11
359.8753081159
 21
334.2667230184
  0
LINE
  5
25A
100
AcDbEntity
  8
0
100
AcDbLine
 62
7
  6
BYLAYER
 10
367.6275459086
 20
334.2667230184
 11
370.300895844
 21
334.2667230184
  0
LINE
  5
25B
100
AcDbEntity
  8
0
100
AcDbLine
 62
7
  6
BYLAYER
 10
369.2701943969
 20
334.8841217034
 11
367.6519079431
 21
334.8841217034
  0
LINE
  5
25C
100
AcDbEntity
  8
0
100
AcDbLine
 62
7
  6
BYLAYER
 10
358.8422215758
 20
334.8841217034
 11
357.2259794892
 21
334.8841217034
  0
LINE
  5
25D
100
AcDbEntity
  8
0
100
AcDbLine
 62
7
  6
BYLAYER
 10
361.4973425758
 20
336.3303406413
 11
360.3279649341
 21
336.3303406415
  0
LINE
  5
25E
100
AcDbEntity
  8
0
100
AcDbLine
 62
7
  6
BYLAYER
 10
352.9547867657
 20
336.3303406433
 11
351.7845573036
 21
336.3303406435
  0
LINE
  5
25F
100
AcDbEntity
  8
0
100
AcDbLine
 62
7
  6
BYLAYER
 10
372.0515550295
 20
336.3342590124
 11
370.8806441127
 21
336.3342590124
  0
LINE
  5
260
100
AcDbEntity
  8
0
100
AcDbLine
 62
7
  6
BYLAYER
 10
635.5107276159
 20
316.3171894884
 11
635.8279171025
 21
316.3000000014
  0
LINE
  5
261
100
AcDbEntity
  8
0
100
AcDbLine
 62
7
  6
BYLAYER
 10
365.3462813361
 20
328.7310691042
 11
365.5649033005
 21
328.7073332316
  0
LINE
  5
262
100
AcDbEntity
  8
0
100
AcDbLine
 62
7
  6
BYLAYER
 10
345.7477957716
 20
335.5188101346
 11
346.9629188983
 21
335.2870322694
  0
LINE
  5
263
100
AcDbEntity
  8
0
100
AcDbLine
 62
7
  6
BYLAYER
 10
362.6282026254
 20
330.4939202573
 11
363.3888926859
 21
330.3081480074
  0
LINE
  5
264
100
AcDbEntity
  8
0
100
AcDbLine
 62
7
  6
BYLAYER
 10
365.9210109679
 20
338.1091098663
 11
364.7514629631
 21
338.1091098664
  0
LINE
  5
265
100
AcDbEntity
  8
0
100
AcDbLine
 62
7
  6
BYLAYER
 10
348.6735425724
 20
338.1091098673
 11
347.503142748
 21
338.1091098674
  0
LINE
  5
266
100
AcDbEntity
  8
0
100
AcDbLine
 62
7
  6
BYLAYER
 10
383.6281333082
 20
341.7500000014
 11
329.6276919627
 21
341.7500000014
  0
LINE
  5
267
100
AcDbEntity
  8
0
100
AcDbLine
 62
7
  6
BYLAYER
 10
595.7279171032
 20
353.7500000014
 11
117.5279171032
 21
353.7500000014
  0
LINE
  5
268
100
AcDbEntity
  8
0
100
AcDbLine
 62
7
  6
BYLAYER
 10
363.8134699411
 20
335.5817500097
 11
364.7514629631
 21
335.4010057014
  0
LINE
  5
269
100
AcDbEntity
  8
0
100
AcDbLine
 62
7
  6
BYLAYER
 10
372.2024919314
 20
330.5022765279
 11
372.9386397292
 21
330.3081480074
  0
LINE
  5
26A
100
AcDbEntity
  8
0
100
AcDbLine
 62
7
  6
BYLAYER
 10
365.1757258001
 20
328.7956070422
 11
365.3462813361
 21
328.7310691042
  0
LINE
  5
26B
100
AcDbEntity
  8
0
100
AcDbLine
 62
7
  6
BYLAYER
 10
365.0428490764
 20
328.8969814348
 11
365.1757258001
 21
328.7956070422
  0
LINE
  5
26C
100
AcDbEntity
  8
0
100
AcDbLine
 62
7
  6
BYLAYER
 10
364.9144612622
 20
329.1070347698
 11
365.0428490764
 21
328.8969814348
  0
LINE
  5
26D
100
AcDbEntity
  8
0
100
AcDbLine
 62
7
  6
BYLAYER
 10
325.6279171032
 20
337.7502162062
 11
325.6279171032
 21
316.7500000014
  0
LINE
  5
26E
100
AcDbEntity
  8
0
100
AcDbLine
 62
7
  6
BYLAYER
 10
339.2256731271
 20
333.0666798794
 11
339.225673127
 21
334.2520717254
  0
LINE
  5
26F
100
AcDbEntity
  8
0
100
AcDbLine
 62
7
  6
BYLAYER
 10
343.0844149078
 20
336.6765200395
 11
343.0844149078
 21
337.7498124544
  0
LINE
  5
270
100
AcDbEntity
  8
0
100
AcDbLine
 62
7
  6
BYLAYER
 10
346.9629188983
 20
335.2870322694
 11
346.9629188982
 21
336.1587842204
  0
LINE
  5
271
100
AcDbEntity
  8
0
100
AcDbLine
 62
7
  6
BYLAYER
 10
347.0198204327
 20
332.7855794845
 11
347.0198204325
 21
333.6281992144
  0
LINE
  5
272
100
AcDbEntity
  8
0
100
AcDbLine
 62
7
  6
BYLAYER
 10
347.5031427475
 20
332.6133416074
 11
347.503142748
 21
338.1091098674
  0
LINE
  5
273
100
AcDbEntity
  8
0
100
AcDbLine
 62
7
  6
BYLAYER
 10
348.6735425722
 20
332.6133416074
 11
348.6735425723
 21
334.9750960135
  0
LINE
  5
274
100
AcDbEntity
  8
0
100
AcDbLine
 62
7
  6
BYLAYER
 10
348.6735425723
 20
335.7614615729
 11
348.6735425724
 21
338.1091098673
  0
LINE
  5
275
100
AcDbEntity
  8
0
100
AcDbLine
 62
7
  6
BYLAYER
 10
350.0614970665
 20
333.4152443694
 11
350.0614970663
 21
334.7250018444
  0
LINE
  5
276
100
AcDbEntity
  8
0
100
AcDbLine
 62
7
  6
BYLAYER
 10
351.2318968914
 20
333.7871487083
 11
351.2318968918
 21
334.9750960139
  0
LINE
  5
277
100
AcDbEntity
  8
0
100
AcDbLine
 62
7
  6
BYLAYER
 10
351.7845573036
 20
336.3303406435
 11
351.7845573035
 21
333.7968594494
  0
LINE
  5
278
100
AcDbEntity
  8
0
100
AcDbLine
 62
7
  6
BYLAYER
 10
352.9547867648
 20
333.2634501566
 11
352.9547867653
 21
335.0043986001
  0
LINE
  5
279
100
AcDbEntity
  8
0
100
AcDbLine
 62
7
  6
BYLAYER
 10
352.9547867655
 20
335.7969313497
 11
352.9547867657
 21
336.3303406433
  0
LINE
  5
27A
100
AcDbEntity
  8
0
100
AcDbLine
 62
7
  6
BYLAYER
 10
354.3550074578
 20
334.8754331467
 11
354.3550074577
 21
332.6121490593
  0
LINE
  5
27B
100
AcDbEntity
  8
0
100
AcDbLine
 62
7
  6
BYLAYER
 10
354.356029641
 20
331.9553963195
 11
354.3560296414
 21
328.7500000011
  0
LINE
  5
27C
100
AcDbEntity
  8
0
100
AcDbLine
 62
7
  6
BYLAYER
 10
354.811923372
 20
329.1639842196
 11
354.8119233724
 21
330.1607832543
  0
LINE
  5
27D
100
AcDbEntity
  8
0
100
AcDbLine
 62
7
  6
BYLAYER
 10
354.8119233725
 20
330.5754489274
 11
354.8119233729
 21
331.5417528297
  0
LINE
  5
27E
100
AcDbEntity
  8
0
100
AcDbLine
 62
7
  6
BYLAYER
 10
355.5254072825
 20
332.6121490594
 11
355.5254072823
 21
334.9721998272
  0
LINE
  5
27F
100
AcDbEntity
  8
0
100
AcDbLine
 62
7
  6
BYLAYER
 10
356.1238955775
 20
330.1607832544
 11
356.1238955773
 21
330.5754489273
  0
LINE
  5
280
100
AcDbEntity
  8
0
100
AcDbLine
 62
7
  6
BYLAYER
 10
356.1717678265
 20
331.5417528291
 11
356.1717678266
 21
331.9553963192
  0
LINE
  5
281
100
AcDbEntity
  8
0
100
AcDbLine
 62
7
  6
BYLAYER
 10
356.2124847927
 20
328.7500000017
 11
356.2124847927
 21
329.1639842191
  0
LINE
  5
282
100
AcDbEntity
  8
0
100
AcDbLine
 62
7
  6
BYLAYER
 10
357.2823699311
 20
331.9562481394
 11
357.2823699305
 21
328.7479556354
  0
LINE
  5
283
100
AcDbEntity
  8
0
100
AcDbLine
 62
7
  6
BYLAYER
 10
357.6989096069
 20
328.7479556354
 11
357.6989096069
 21
331.9562481393
  0
LINE
  5
284
100
AcDbEntity
  8
0
100
AcDbLine
 62
7
  6
BYLAYER
 10
364.8715694947
 20
329.3714874192
 11
364.9144612622
 21
329.1070347698
  0
LINE
  5
285
100
AcDbEntity
  8
0
100
AcDbLine
 62
7
  6
BYLAYER
 10
359.8097180249
 20
333.0297109184
 11
359.8097180249
 21
333.7575053944
  0
LINE
  5
286
100
AcDbEntity
  8
0
100
AcDbLine
 62
7
  6
BYLAYER
 10
360.3279649341
 20
336.3303406415
 11
360.3279649341
 21
332.6024383184
  0
LINE
  5
287
100
AcDbEntity
  8
0
100
AcDbLine
 62
7
  6
BYLAYER
 10
360.6322348162
 20
328.9576735664
 11
360.6322348162
 21
329.3633099534
  0
LINE
  5
288
100
AcDbEntity
  8
0
100
AcDbLine
 62
7
  6
BYLAYER
 10
361.4973425758
 20
332.6024383183
 11
361.4973425758
 21
336.3303406413
  0
LINE
  5
289
100
AcDbEntity
  8
0
100
AcDbLine
 62
7
  6
BYLAYER
 10
363.3888926859
 20
330.3081480074
 11
363.3888926859
 21
330.7580790024
  0
LINE
  5
28A
100
AcDbEntity
  8
0
100
AcDbLine
 62
7
  6
BYLAYER
 10
363.435402024
 20
328.8299006582
 11
363.4354020239
 21
329.2406479634
  0
LINE
  5
28B
100
AcDbEntity
  8
0
100
AcDbLine
 62
7
  6
BYLAYER
 10
364.7514629631
 20
338.1091098664
 11
364.7514629631
 21
336.1666209584
  0
LINE
  5
28C
100
AcDbEntity
  8
0
100
AcDbLine
 62
7
  6
BYLAYER
 10
364.7514629631
 20
335.4010057014
 11
364.7514629631
 21
333.6213846574
  0
LINE
  5
28D
100
AcDbEntity
  8
0
100
AcDbLine
 62
7
  6
BYLAYER
 10
364.7514629631
 20
332.9036416504
 11
364.7514629631
 21
332.6036308664
  0
LINE
  5
28E
100
AcDbEntity
  8
0
100
AcDbLine
 62
7
  6
BYLAYER
 10
364.8715694947
 20
330.4878818954
 11
364.8715694947
 21
329.3714874192
  0
LINE
  5
28F
100
AcDbEntity
  8
0
100
AcDbLine
 62
7
  6
BYLAYER
 10
365.2865758957
 20
329.4028343739
 11
365.2865758952
 21
330.4878818962
  0
LINE
  5
290
100
AcDbEntity
  8
0
100
AcDbLine
 62
7
  6
BYLAYER
 10
365.2865758951
 20
330.8631935134
 11
365.2865758949
 21
331.3000064899
  0
LINE
  5
291
100
AcDbEntity
  8
0
100
AcDbLine
 62
7
  6
BYLAYER
 10
365.9210109679
 20
332.6036308664
 11
365.9210109679
 21
338.1091098663
  0
LINE
  5
292
100
AcDbEntity
  8
0
100
AcDbLine
 62
7
  6
BYLAYER
 10
365.955083743
 20
330.4878818965
 11
365.9550837431
 21
330.8631935134
  0
LINE
  5
293
100
AcDbEntity
  8
0
100
AcDbLine
 62
7
  6
BYLAYER
 10
366.0625833485
 20
328.8488110486
 11
366.0625833486
 21
329.2396257804
  0
LINE
  5
294
100
AcDbEntity
  8
0
100
AcDbLine
 62
7
  6
BYLAYER
 10
367.131957395
 20
328.7479556354
 11
367.1319573954
 21
330.8631935134
  0
LINE
  5
295
100
AcDbEntity
  8
0
100
AcDbLine
 62
7
  6
BYLAYER
 10
367.5481563431
 20
330.361791817
 11
367.5481563434
 21
330.8631935134
  0
LINE
  5
296
100
AcDbEntity
  8
0
100
AcDbLine
 62
7
  6
BYLAYER
 10
367.5481563422
 20
328.7479556354
 11
367.5481563428
 21
329.8508913645
  0
LINE
  5
297
100
AcDbEntity
  8
0
100
AcDbLine
 62
7
  6
BYLAYER
 10
369.7744714688
 20
330.8631935134
 11
369.7744714688
 21
328.7479556344
  0
LINE
  5
298
100
AcDbEntity
  8
0
100
AcDbLine
 62
7
  6
BYLAYER
 10
370.1910111443
 20
328.7479556344
 11
370.1910111451
 21
330.8631935134
  0
LINE
  5
299
100
AcDbEntity
  8
0
100
AcDbLine
 62
7
  6
BYLAYER
 10
370.2375204826
 20
333.0297109184
 11
370.2375204826
 21
333.7575053944
  0
LINE
  5
29A
100
AcDbEntity
  8
0
100
AcDbLine
 62
7
  6
BYLAYER
 10
370.8806441122
 20
332.6075492354
 11
370.8806441127
 21
336.3342590124
  0
LINE
  5
29B
100
AcDbEntity
  8
0
100
AcDbLine
 62
7
  6
BYLAYER
 10
372.0515550282
 20
332.6075492353
 11
372.0515550288
 21
334.2156138566
  0
LINE
  5
29C
100
AcDbEntity
  8
0
100
AcDbLine
 62
7
  6
BYLAYER
 10
372.0515550291
 20
335.2294900776
 11
372.0515550295
 21
336.3342590124
  0
LINE
  5
29D
100
AcDbEntity
  8
0
100
AcDbLine
 62
7
  6
BYLAYER
 10
372.9386397292
 20
330.3081480074
 11
372.9386397292
 21
330.7580790024
  0
LINE
  5
29E
100
AcDbEntity
  8
0
100
AcDbLine
 62
7
  6
BYLAYER
 10
372.9861712504
 20
328.8299006593
 11
372.9861712502
 21
329.2406479634
  0
LINE
  5
29F
100
AcDbEntity
  8
0
100
AcDbLine
 62
7
  6
BYLAYER
 10
387.6279171032
 20
316.7500000014
 11
387.6279171032
 21
337.7502251421
  0
LINE
  5
2A0
100
AcDbEntity
  8
0
100
AcDbLine
 62
7
  6
BYLAYER
 10
352.3896897897
 20
332.1215010974
 11
352.2448804953
 21
331.4519710674
  0
LINE
  5
2A1
100
AcDbEntity
  8
0
100
AcDbLine
 62
7
  6
BYLAYER
 10
349.5550052645
 20
329.8376029802
 11
349.849905133
 21
331.0752965385
  0
LINE
  5
2A2
100
AcDbEntity
  8
0
100
AcDbLine
 62
7
  6
BYLAYER
 10
348.4328184163
 20
328.9440444564
 11
348.6246481405
 21
329.6720092954
  0
LINE
  5
2A3
100
AcDbEntity
  8
0
100
AcDbLine
 62
7
  6
BYLAYER
 10
351.4179855124
 20
331.4002037783
 11
351.0320600657
 21
329.936925122
  0
LINE
  5
2A4
100
AcDbEntity
  8
0
100
AcDbLine
 62
7
  6
BYLAYER
 10
351.8160746208
 20
330.5885669464
 11
351.9424846169
 21
331.0468457714
  0
LINE
  5
2A5
100
AcDbEntity
  8
0
100
AcDbLine
 62
7
  6
BYLAYER
 10
351.5760319191
 20
329.6946676914
 11
351.7116415647
 21
330.1529465174
  0
LINE
  5
2A6
100
AcDbEntity
  8
0
100
AcDbLine
 62
7
  6
BYLAYER
 10
348.8798532259
 20
330.5565385374
 11
348.7227777332
 21
330.0972375294
  0
LINE
  5
2A7
100
AcDbEntity
  8
0
100
AcDbLine
 62
7
  6
BYLAYER
 10
349.0970671676
 20
331.4500970634
 11
348.9360733047
 21
330.9907960554
  0
LINE
  5
2A8
100
AcDbEntity
  8
0
100
AcDbLine
 62
7
  6
BYLAYER
 10
373.7081733546
 20
335.0291013622
 11
374.0301610798
 21
336.0625286312
  0
LINE
  5
2A9
100
AcDbEntity
  8
0
100
AcDbLine
 62
7
  6
BYLAYER
 10
368.4497219729
 20
330.2916227114
 11
368.6703431917
 21
330.6587568633
  0
LINE
  5
2AA
100
AcDbEntity
  8
0
100
AcDbLine
 62
7
  6
BYLAYER
 10
365.2865758949
 20
331.3000064899
 11
364.4563799914
 21
330.4878818953
  0
LINE
  5
2AB
100
AcDbEntity
  8
0
100
AcDbLine
 62
7
  6
BYLAYER
 10
358.5834292406
 20
332.5552370781
 11
359.8097180249
 21
333.0297109184
  0
LINE
  5
2AC
100
AcDbEntity
  8
0
100
AcDbLine
 62
7
  6
BYLAYER
 10
369.0103362048
 20
332.5553755884
 11
370.2375204826
 21
333.0297109184
  0
LINE
  5
2AD
100
AcDbEntity
  8
0
100
AcDbLine
 62
7
  6
BYLAYER
 10
365.6712149346
 20
328.7190576619
 11
366.0625833485
 21
328.8488110486
  0
LINE
  5
2AE
100
AcDbEntity
  8
0
100
AcDbLine
 62
7
  6
BYLAYER
 10
595.7279171032
 20
623.4500000009
 11
117.5279171042
 21
623.4500000014
  0
LINE
  5
2AF
100
AcDbEntity
  8
0
100
AcDbLine
 62
7
  6
BYLAYER
 10
120.5279171032
 20
632.4500000014
 11
152.5279171032
 21
632.4500000014
  0
LINE
  5
2B0
100
AcDbEntity
  8
0
100
AcDbLine
 62
7
  6
BYLAYER
 10
139.3029171022
 20
638.8250000014
 11
141.4158077282
 21
638.8250000014
  0
LINE
  5
2B1
100
AcDbEntity
  8
0
100
AcDbLine
 62
7
  6
BYLAYER
 10
141.2611202282
 20
639.4250000004
 11
139.3029171022
 21
639.4250000004
  0
LINE
  5
2B2
100
AcDbEntity
  8
0
100
AcDbLine
 62
7
  6
BYLAYER
 10
126.6513546035
 20
642.7250000013
 11
126.2904171037
 21
642.7250000014
  0
LINE
  5
2B3
100
AcDbEntity
  8
0
100
AcDbLine
 62
7
  6
BYLAYER
 10
122.9095577095
 20
642.7250000023
 11
122.549792115
 21
642.7250000024
  0
LINE
  5
2B4
100
AcDbEntity
  8
0
100
AcDbLine
 62
7
  6
BYLAYER
 10
635.5107276159
 20
660.8828105143
 11
635.8279171025
 21
660.9000000005
  0
LINE
  5
2B5
100
AcDbEntity
  8
0
100
AcDbLine
 62
7
  6
BYLAYER
 10
152.5279171032
 20
647.4500000014
 11
120.5279171032
 21
647.4500000014
  0
LINE
  5
2B6
100
AcDbEntity
  8
0
100
AcDbLine
 62
7
  6
BYLAYER
 10
82.5299425552
 20
660.4500000014
 11
630.7361496952
 21
660.4500000014
  0
LINE
  5
2B7
100
AcDbEntity
  8
0
100
AcDbLine
 62
7
  6
BYLAYER
 10
82.2779171032
 20
660.7000000014
 11
630.9779171032
 21
660.7000000014
  0
LINE
  5
2B8
100
AcDbEntity
  8
0
100
AcDbLine
 62
7
  6
BYLAYER
 10
80.04510659
 20
663.1828105143
 11
633.2107276162
 21
663.1828105143
  0
LINE
  5
2B9
100
AcDbEntity
  8
0
100
AcDbLine
 62
7
  6
BYLAYER
 10
80.0278667902
 20
663.5000000004
 11
633.2280330405
 21
663.5000000004
  0
LINE
  5
2BA
100
AcDbEntity
  8
0
100
AcDbLine
 62
7
  6
BYLAYER
 10
77.74510659
 20
660.8828105144
 11
77.4279171024
 21
660.9000000004
  0
LINE
  5
2BB
100
AcDbEntity
  8
0
100
AcDbLine
 62
7
  6
BYLAYER
 10
595.7279171029
 20
353.7500000014
 11
595.7279171032
 21
623.4500000014
  0
LINE
  5
2BC
100
AcDbEntity
  8
0
100
AcDbLine
 62
7
  6
BYLAYER
 10
633.2107276159
 20
314.0171894887
 11
633.2279171025
 21
313.7000000021
  0
LINE
  5
2BD
100
AcDbEntity
  8
0
100
AcDbLine
 62
7
  6
BYLAYER
 10
632.7279171032
 20
318.8450828059
 11
632.7279171032
 21
658.4582325952
  0
LINE
  5
2BE
100
AcDbEntity
  8
0
100
AcDbLine
 62
7
  6
BYLAYER
 10
632.9779171032
 20
658.7000000014
 11
632.9779171032
 21
318.5000000014
  0
LINE
  5
2BF
100
AcDbEntity
  8
0
100
AcDbLine
 62
7
  6
BYLAYER
 10
635.5107276159
 20
660.8828105143
 11
635.5107276159
 21
316.3171894884
  0
LINE
  5
2C0
100
AcDbEntity
  8
0
100
AcDbLine
 62
7
  6
BYLAYER
 10
635.8279171032
 20
660.9001113222
 11
635.8279171032
 21
316.2998840643
  0
LINE
  5
2C1
100
AcDbEntity
  8
0
100
AcDbLine
 62
7
  6
BYLAYER
 10
633.2107276162
 20
663.1828105143
 11
633.2279171032
 21
663.5000000005
  0
ARC
  5
2C2
100
AcDbEntity
  8
0
100
AcDbCircle
 62
7
  6
BYLAYER
 10
45.5965472372
 20
639.5477970474
 40
86.6645776363
100
AcDbArc
 50
359.2114434829
 51
0.018330174
  0
ARC
  5
2C3
100
AcDbEntity
  8
0
100
AcDbCircle
 62
7
  6
BYLAYER
 10
349.1943773579
 20
332.0617938364
 40
4.0372697769
100
AcDbArc
 50
331.7833739029
 51
338.596511396
  0
ARC
  5
2C4
100
AcDbEntity
  8
0
100
AcDbCircle
 62
7
  6
BYLAYER
 10
383.6276378489
 20
337.749720747
 40
4.0002792641
100
AcDbArc
 50
0.0072244227
 51
89.9929035628
  0
ARC
  5
2C5
100
AcDbEntity
  8
0
100
AcDbCircle
 62
7
  6
BYLAYER
 10
329.6281963575
 20
337.749720747
 40
4.0002792641
100
AcDbArc
 50
90.0072244196
 51
179.9929035658
  0
ARC
  5
2C6
100
AcDbEntity
  8
0
100
AcDbCircle
 62
7
  6
BYLAYER
 10
351.5040366919
 20
329.0803503094
 40
3.8961316497
100
AcDbArc
 50
150.6367894574
 51
157.7353279728
  0
ARC
  5
2C7
100
AcDbEntity
  8
0
100
AcDbCircle
 62
7
  6
BYLAYER
 10
120.5281265475
 20
644.449790557
 40
3.0002094516
100
AcDbArc
 50
90.0039998127
 51
179.9960001873
  0
ARC
  5
2C8
100
AcDbEntity
  8
0
100
AcDbCircle
 62
7
  6
BYLAYER
 10
120.5281265475
 20
635.4502094457
 40
3.0002094516
100
AcDbArc
 50
180.0039998127
 51
269.9960001873
  0
ARC
  5
2C9
100
AcDbEntity
  8
0
100
AcDbCircle
 62
7
  6
BYLAYER
 10
152.5277076589
 20
635.4502094457
 40
3.0002094516
100
AcDbArc
 50
270.0039998127
 51
359.9960001873
  0
ARC
  5
2CA
100
AcDbEntity
  8
0
100
AcDbCircle
 62
7
  6
BYLAYER
 10
152.5277076589
 20
644.449790557
 40
3.0002094516
100
AcDbArc
 50
0.0039998127
 51
89.9960001873
  0
ARC
  5
2CB
100
AcDbEntity
  8
0
100
AcDbCircle
 62
7
  6
BYLAYER
 10
80.0280986187
 20
316.3001815178
 40
2.6001815228
100
AcDbArc
 50
180.0051147214
 51
269.9941922102
  0
ARC
  5
2CC
100
AcDbEntity
  8
0
100
AcDbCircle
 62
7
  6
BYLAYER
 10
633.2277355867
 20
316.3001815178
 40
2.6001815228
100
AcDbArc
 50
270.0064527747
 51
359.9934455222
  0
ARC
  5
2CD
100
AcDbEntity
  8
0
100
AcDbCircle
 62
7
  6
BYLAYER
 10
633.2277355878
 20
660.899818485
 40
2.6001815217
100
AcDbArc
 50
0.0064527559
 51
89.9934455407
  0
ARC
  5
2CE
100
AcDbEntity
  8
0
100
AcDbCircle
 62
7
  6
BYLAYER
 10
80.0280986176
 20
660.899818485
 40
2.6001815217
100
AcDbArc
 50
90.005108387
 51
179.9941973136
  0
ARC
  5
2CF
100
AcDbEntity
  8
0
100
AcDbCircle
 62
7
  6
BYLAYER
 10
80.0452671609
 20
316.3173500591
 40
2.3001605763
100
AcDbArc
 50
180.0039997308
 51
269.9960002692
  0
ARC
  5
2D0
100
AcDbEntity
  8
0
100
AcDbCircle
 62
7
  6
BYLAYER
 10
80.0452671609
 20
660.8826499437
 40
2.3001605763
100
AcDbArc
 50
90.0039997308
 51
179.9960002692
  0
ARC
  5
2D1
100
AcDbEntity
  8
0
100
AcDbCircle
 62
7
  6
BYLAYER
 10
633.2105670455
 20
660.8826499437
 40
2.3001605763
100
AcDbArc
 50
0.0039997308
 51
89.9960002692
  0
ARC
  5
2D2
100
AcDbEntity
  8
0
100
AcDbCircle
 62
7
  6
BYLAYER
 10
633.2105670455
 20
316.3173500591
 40
2.3001605763
100
AcDbArc
 50
270.0039997308
 51
359.9960002692
  0
ARC
  5
2D3
100
AcDbEntity
  8
0
100
AcDbCircle
 62
7
  6
BYLAYER
 10
630.6328342992
 20
318.8450828054
 40
2.0950828039
100
AcDbArc
 50
269.9999999864
 51
360.0
  0
ARC
  5
2D4
100
AcDbEntity
  8
0
100
AcDbCircle
 62
7
  6
BYLAYER
 10
82.5299425552
 20
658.4479745494
 40
2.0020254515
100
AcDbArc
 50
89.9999999329
 51
180.000000067
  0
ARC
  5
2D5
100
AcDbEntity
  8
0
100
AcDbCircle
 62
7
  6
BYLAYER
 10
82.2779171032
 20
318.5000000014
 40
2.0
100
AcDbArc
 50
180.0
 51
270.0
  0
ARC
  5
2D6
100
AcDbEntity
  8
0
100
AcDbCircle
 62
7
  6
BYLAYER
 10
630.9779171032
 20
318.5000000014
 40
2.0
100
AcDbArc
 50
270.0
 51
360.0
  0
ARC
  5
2D7
100
AcDbEntity
  8
0
100
AcDbCircle
 62
7
  6
BYLAYER
 10
630.9779171032
 20
658.7000000014
 40
2.0
100
AcDbArc
 50
0.0
 51
90.0
  0
ARC
  5
2D8
100
AcDbEntity
  8
0
100
AcDbCircle
 62
7
  6
BYLAYER
 10
82.2779171032
 20
658.7000000014
 40
2.0
100
AcDbArc
 50
90.0
 51
180.0
  0
ARC
  5
2D9
100
AcDbEntity
  8
0
100
AcDbCircle
 62
7
  6
BYLAYER
 10
630.7361496952
 20
658.4582325934
 40
1.9917674084
100
AcDbArc
 50
0.000000053
 51
89.9999999469
  0
ARC
  5
2DA
100
AcDbEntity
  8
0
100
AcDbCircle
 62
7
  6
BYLAYER
 10
82.4827309662
 20
318.7048138644
 40
1.9548138626
100
AcDbArc
 50
179.9999999445
 51
270.0000000555
  0
ARC
  5
2DB
100
AcDbEntity
  8
0
100
AcDbCircle
 62
7
  6
BYLAYER
 10
363.876256895
 20
334.5890935703
 40
1.8900682911
100
AcDbArc
 50
149.0182774388
 51
160.4523430746
  0
ARC
  5
2DC
100
AcDbEntity
  8
0
100
AcDbCircle
 62
7
  6
BYLAYER
 10
349.3854365804
 20
329.8689738004
 40
0.172446128
100
AcDbArc
 50
317.1695676183
 51
349.518581375
  0
SPLINE
  5
2DD
100
AcDbEntity
  8
0
100
AcDbSpline
 62
7
  6
BYLAYER
 70
0
 71
3
 72
14
 73
10
 74
0
 42
0.0000001
 43
0.0000001
 44
0.0000000001
 40
0.0
 40
0.0
 40
0.0
 40
0.0
 40
0.1269786077
 40
0.2497231568
 40
0.3810387123
 40
0.5290048653
 40
0.6735449253
 40
0.8018384405
 40
1.0
 40
1.0
 40
1.0
 40
1.0
 10
124.6029171037
 20
636.8750000024
 30
0.0
 10
124.6620546588
 20
636.8767689757
 30
0.0
 10
124.7785843995
 20
636.882459543
 30
0.0
 10
124.9498603365
 20
636.9407444151
 30
0.0
 10
125.0947651352
 20
637.0644615435
 30
0.0
 10
125.2102432873
 20
637.212164309
 30
0.0
 10
125.2716794297
 20
637.3968084937
 30
0.0
 10
125.332664923
 20
637.6078313355
 30
0.0
 10
125.3711992689
 20
637.7547349794
 30
0.0
 10
125.393932724
 20
637.8441406058
 30
0.0
  0
SPLINE
  5
2DE
100
AcDbEntity
  8
0
100
AcDbSpline
 62
7
  6
BYLAYER
 70
0
 71
3
 72
11
 73
7
 74
0
 42
0.0000001
 43
0.0000001
 44
0.0000000001
 40
0.0
 40
0.0
 40
0.0
 40
0.0
 40
0.0663828011
 40
0.4440679256
 40
0.7940252707
 40
1.0
 40
1.0
 40
1.0
 40
1.0
 10
126.3279171032
 20
637.5371093753
 30
0.0
 10
126.3285651499
 20
637.516177999
 30
0.0
 10
126.3324830309
 20
637.3768240834
 30
0.0
 10
126.3730497537
 20
637.1131806499
 30
0.0
 10
126.6133683887
 20
636.8969921868
 30
0.0
 10
126.7821273765
 20
636.878517234
 30
0.0
 10
126.8470577282
 20
636.8750000024
 30
0.0
  0
SPLINE
  5
2DF
100
AcDbEntity
  8
0
100
AcDbSpline
 62
7
  6
BYLAYER
 70
0
 71
3
 72
12
 73
8
 74
0
 42
0.0000001
 43
0.0000001
 44
0.0000000001
 40
0.0
 40
0.0
 40
0.0
 40
0.0
 40
0.1005868416
 40
0.2697989569
 40
0.4402568165
 40
0.6121720005
 40
1.0
 40
1.0
 40
1.0
 40
1.0
 10
126.8470577282
 20
636.8750000024
 30
0.0
 10
126.8795821865
 20
636.8766724157
 30
0.0
 10
126.9665494584
 20
636.8804731898
 30
0.0
 10
127.1076105281
 20
636.9254960612
 30
0.0
 10
127.2391611577
 20
637.0294459028
 30
0.0
 10
127.3631882735
 20
637.2397329211
 30
0.0
 10
127.3740009976
 20
637.4081429026
 30
0.0
 10
127.3779171025
 20
637.5335937614
 30
0.0
  0
SPLINE
  5
2E0
100
AcDbEntity
  8
0
100
AcDbSpline
 62
7
  6
BYLAYER
 70
0
 71
3
 72
16
 73
12
 74
0
 42
0.0000001
 43
0.0000001
 44
0.0000000001
 40
0.0
 40
0.0
 40
0.0
 40
0.0
 40
0.0958315181
 40
0.193442797
 40
0.2728031628
 40
0.3521635287
 40
0.4256934754
 40
0.4992234221
 40
0.6236214224
 40
0.8003394728
 40
1.0
 40
1.0
 40
1.0
 40
1.0
 10
127.3779171024
 20
642.0851562428
 30
0.0
 10
127.3768275223
 20
642.1209948319
 30
0.0
 10
127.3753777751
 20
642.1942960787
 30
0.0
 10
127.3615184851
 20
642.2921059936
 30
0.0
 10
127.3373322047
 20
642.3862120285
 30
0.0
 10
127.3002756485
 20
642.4649337724
 30
0.0
 10
127.2534582032
 20
642.5363345969
 30
0.0
 10
127.1752210886
 20
642.6028242414
 30
0.0
 10
127.0497653097
 20
642.6675615106
 30
0.0
 10
126.8673969528
 20
642.7174376132
 30
0.0
 10
126.7260737167
 20
642.7229642514
 30
0.0
 10
126.6513546035
 20
642.7250000014
 30
0.0
  0
SPLINE
  5
2E1
100
AcDbEntity
  8
0
100
AcDbSpline
 62
7
  6
BYLAYER
 70
0
 71
3
 72
13
 73
9
 74
0
 42
0.0000001
 43
0.0000001
 44
0.0000000001
 40
0.0
 40
0.0
 40
0.0
 40
0.0
 40
0.1661598386
 40
0.3171458398
 40
0.4338925004
 40
0.5531089769
 40
0.6707843263
 40
1.0
 40
1.0
 40
1.0
 40
1.0
 10
126.2904171037
 20
642.7250000014
 30
0.0
 10
126.2157278369
 20
642.7240599164
 30
0.0
 10
126.0707257166
 20
642.7212132602
 30
0.0
 10
125.8857739919
 20
642.6965787781
 30
0.0
 10
125.7242060806
 20
642.6288830164
 30
0.0
 10
125.6175539036
 20
642.5083665593
 30
0.0
 10
125.5229568854
 20
642.2706688386
 30
0.0
 10
125.4761138051
 20
642.1029006225
 30
0.0
 10
125.4384639792
 20
641.9597656342
 30
0.0
  0
SPLINE
  5
2E2
100
AcDbEntity
  8
0
100
AcDbSpline
 62
7
  6
BYLAYER
 70
0
 71
3
 72
13
 73
9
 74
0
 42
0.0000001
 43
0.0000001
 44
0.0000000001
 40
0.0
 40
0.0
 40
0.0
 40
0.0
 40
0.3346690592
 40
0.4575609521
 40
0.5737479524
 40
0.684623753
 40
0.8047790346
 40
1.0
 40
1.0
 40
1.0
 40
1.0
 10
123.7568233682
 20
641.9597655654
 30
0.0
 10
123.7188349634
 20
642.1042514325
 30
0.0
 10
123.6724007748
 20
642.2687937852
 30
0.0
 10
123.5765526225
 20
642.5137835819
 30
0.0
 10
123.4668103985
 20
642.6312838848
 30
0.0
 10
123.323966624
 20
642.691194279
 30
0.0
 10
123.1388171023
 20
642.7214079544
 30
0.0
 10
122.9966922739
 20
642.7239232916
 30
0.0
 10
122.9095577095
 20
642.7250000016
 30
0.0
  0
SPLINE
  5
2E3
100
AcDbEntity
  8
0
100
AcDbSpline
 62
7
  6
BYLAYER
 70
0
 71
3
 72
14
 73
10
 74
0
 42
0.0000001
 43
0.0000001
 44
0.0000000001
 40
0.0
 40
0.0
 40
0.0
 40
0.0
 40
0.1772704972
 40
0.3713397536
 40
0.5138822014
 40
0.5885431343
 40
0.6632040673
 40
0.8003918517
 40
1.0
 40
1.0
 40
1.0
 40
1.0
 10
122.549792115
 20
642.7250000017
 30
0.0
 10
122.4836674877
 20
642.7232028316
 30
0.0
 10
122.3450873079
 20
642.7186140673
 30
0.0
 10
122.1566455575
 20
642.6695109619
 30
0.0
 10
122.0216651881
 20
642.6006024028
 30
0.0
 10
121.9412915286
 20
642.524872049
 30
0.0
 10
121.8859274998
 20
642.4326903729
 30
0.0
 10
121.8344850483
 20
642.2863671326
 30
0.0
 10
121.8300318899
 20
642.1595790279
 30
0.0
 10
121.8279171032
 20
642.0851562512
 30
0.0
  0
SPLINE
  5
2E4
100
AcDbEntity
  8
0
100
AcDbSpline
 62
7
  6
BYLAYER
 70
0
 71
3
 72
11
 73
7
 74
0
 42
0.0000001
 43
0.0000001
 44
0.0000000001
 40
0.0
 40
0.0
 40
0.0
 40
0.0
 40
0.2630637595
 40
0.6220547557
 40
0.7957648871
 40
1.0
 40
1.0
 40
1.0
 40
1.0
 10
121.8279171032
 20
637.5335937512
 30
0.0
 10
121.8306425082
 20
637.4497747813
 30
0.0
 10
121.8385529723
 20
637.2547156429
 30
0.0
 10
121.9601570128
 20
637.0138887642
 30
0.0
 10
122.1713386264
 20
636.8910189822
 30
0.0
 10
122.2854839365
 20
636.878440999
 30
0.0
 10
122.3505733532
 20
636.8750000024
 30
0.0
  0
SPLINE
  5
2E5
100
AcDbEntity
  8
0
100
AcDbSpline
 62
7
  6
BYLAYER
 70
0
 71
3
 72
12
 73
8
 74
0
 42
0.0000001
 43
0.0000001
 44
0.0000000001
 40
0.0
 40
0.0
 40
0.0
 40
0.0
 40
0.1020962745
 40
0.2690335475
 40
0.4368665802
 40
0.6135784977
 40
1.0
 40
1.0
 40
1.0
 40
1.0
 10
122.3505733532
 20
636.8750000024
 30
0.0
 10
122.3837410065
 20
636.876720794
 30
0.0
 10
122.4709237046
 20
636.8806330977
 30
0.0
 10
122.6108947028
 20
636.9268338013
 30
0.0
 10
122.7414855746
 20
637.0335173783
 30
0.0
 10
122.8638660051
 20
637.2447302997
 30
0.0
 10
122.8741344357
 20
637.4115121025
 30
0.0
 10
122.8779171023
 20
637.537109381
 30
0.0
  0
SPLINE
  5
2E6
100
AcDbEntity
  8
0
100
AcDbSpline
 62
7
  6
BYLAYER
 70
0
 71
3
 72
15
 73
11
 74
0
 42
0.0000001
 43
0.0000001
 44
0.0000000001
 40
0.0
 40
0.0
 40
0.0
 40
0.0
 40
0.1991509472
 40
0.3954023219
 40
0.5353230192
 40
0.6042588638
 40
0.6731947083
 40
0.8001334359
 40
0.900066718
 40
1.0
 40
1.0
 40
1.0
 40
1.0
 10
123.8119014744
 20
637.8441406439
 30
0.0
 10
123.8362254395
 20
637.7559273297
 30
0.0
 10
123.8811361291
 20
637.580377461
 30
0.0
 10
123.9500167028
 20
637.3421986531
 30
0.0
 10
124.0305937963
 20
637.1769655696
 30
0.0
 10
124.1113858087
 20
637.0769877522
 30
0.0
 10
124.1993722039
 20
636.9931001919
 30
0.0
 10
124.3189272563
 20
636.9200616205
 30
0.0
 10
124.4649836568
 20
636.8813609302
 30
0.0
 10
124.5570011418
 20
636.876543449
 30
0.0
 10
124.6029171037
 20
636.8750000024
 30
0.0
  0
SPLINE
  5
2E7
100
AcDbEntity
  8
0
100
AcDbSpline
 62
7
  6
BYLAYER
 70
0
 71
3
 72
12
 73
8
 74
0
 42
0.0000001
 43
0.0000001
 44
0.0000000001
 40
0.0
 40
0.0
 40
0.0
 40
0.0
 40
0.0952805736
 40
0.2648393075
 40
0.4351115168
 40
0.6130723922
 40
1.0
 40
1.0
 40
1.0
 40
1.0
 10
143.7970577282
 20
636.8750000024
 30
0.0
 10
143.8277906832
 20
636.8766890607
 30
0.0
 10
143.9129491073
 20
636.8805956218
 30
0.0
 10
144.0521831755
 20
636.9255628731
 30
0.0
 10
144.1846349525
 20
637.0303065596
 30
0.0
 10
144.3134194806
 20
637.2396794891
 30
0.0
 10
144.3242810882
 20
637.4075074647
 30
0.0
 10
144.3279171032
 20
637.5324218763
 30
0.0
  0
SPLINE
  5
2E8
100
AcDbEntity
  8
0
100
AcDbSpline
 62
7
  6
BYLAYER
 70
0
 71
3
 72
11
 73
7
 74
0
 42
0.0000001
 43
0.0000001
 44
0.0000000001
 40
0.0
 40
0.0
 40
0.0
 40
0.0
 40
0.0677864639
 40
0.4441725615
 40
0.7950235348
 40
1.0
 40
1.0
 40
1.0
 40
1.0
 10
144.3279171032
 20
642.2175781263
 30
0.0
 10
144.3272223932
 20
642.239115438
 30
0.0
 10
144.3231504423
 20
642.3795559172
 30
0.0
 10
144.2802580086
 20
642.64547783
 30
0.0
 10
144.0336114031
 20
642.8551815068
 30
0.0
 10
143.8621793282
 20
642.871648384
 30
0.0
 10
143.7970577282
 20
642.8750000024
 30
0.0
  0
SPLINE
  5
2E9
100
AcDbEntity
  8
0
100
AcDbSpline
 62
7
  6
BYLAYER
 70
0
 71
3
 72
11
 73
7
 74
0
 42
0.0000001
 43
0.0000001
 44
0.0000000001
 40
0.0
 40
0.0
 40
0.0
 40
0.0
 40
0.0934218961
 40
0.2598555633
 40
0.6067973917
 40
1.0
 40
1.0
 40
1.0
 40
1.0
 10
143.7970577282
 20
642.8750000024
 30
0.0
 10
143.7673395099
 20
642.8734394557
 30
0.0
 10
143.685088039
 20
642.8697991851
 30
0.0
 10
143.4917431043
 20
642.8112649103
 30
0.0
 10
143.300752205
 20
642.5782816727
 30
0.0
 10
143.2823166592
 20
642.3426563895
 30
0.0
 10
143.2779171024
 20
642.2175781335
 30
0.0
  0
SPLINE
  5
2EA
100
AcDbEntity
  8
0
100
AcDbSpline
 62
7
  6
BYLAYER
 70
0
 71
3
 72
11
 73
7
 74
0
 42
0.0000001
 43
0.0000001
 44
0.0000000001
 40
0.0
 40
0.0
 40
0.0
 40
0.0
 40
0.2668317308
 40
0.4471606876
 40
0.7968464502
 40
1.0
 40
1.0
 40
1.0
 40
1.0
 10
143.2779171024
 20
637.5324218704
 30
0.0
 10
143.2806129208
 20
637.4476125359
 30
0.0
 10
143.2897210187
 20
637.3116050678
 30
0.0
 10
143.375556104
 20
637.0685063088
 30
0.0
 10
143.5633591111
 20
636.8975669957
 30
0.0
 10
143.7324772682
 20
636.8782171057
 30
0.0
 10
143.7970577282
 20
636.8750000024
 30
0.0
  0
SPLINE
  5
2EB
100
AcDbEntity
  8
0
100
AcDbSpline
 62
7
  6
BYLAYER
 70
0
 71
3
 72
10
 73
6
 74
0
 42
0.0000001
 43
0.0000001
 44
0.0000000001
 40
0.0
 40
0.0
 40
0.0
 40
0.0
 40
0.251403613
 40
0.7969715106
 40
1.0
 40
1.0
 40
1.0
 40
1.0
 10
145.9720577282
 20
641.2250000024
 30
0.0
 10
145.9469894399
 20
641.2236194374
 30
0.0
 10
145.8677595275
 20
641.2198882684
 30
0.0
 10
145.7682479907
 20
641.1924594875
 30
0.0
 10
145.7032830502
 20
641.1548349448
 30
0.0
 10
145.6864502064
 20
641.1434867664
 30
0.0
  0
SPLINE
  5
2EC
100
AcDbEntity
  8
0
100
AcDbSpline
 62
7
  6
BYLAYER
 70
0
 71
3
 72
10
 73
6
 74
0
 42
0.0000001
 43
0.0000001
 44
0.0000000001
 40
0.0
 40
0.0
 40
0.0
 40
0.0
 40
0.1621512741
 40
0.428172302
 40
1.0
 40
1.0
 40
1.0
 40
1.0
 10
145.6864502064
 20
641.1434867664
 30
0.0
 10
145.6577345793
 20
641.1241275859
 30
0.0
 10
145.5879523382
 20
641.0642175409
 30
0.0
 10
145.4691601875
 20
640.8792389476
 30
0.0
 10
145.4570259699
 20
640.708157794
 30
0.0
 10
145.4529171032
 20
640.5863281273
 30
0.0
  0
SPLINE
  5
2ED
100
AcDbEntity
  8
0
100
AcDbSpline
 62
7
  6
BYLAYER
 70
0
 71
3
 72
11
 73
7
 74
0
 42
0.0000001
 43
0.0000001
 44
0.0000000001
 40
0.0
 40
0.0
 40
0.0
 40
0.0
 40
0.2553668853
 40
0.6250263612
 40
0.798592093
 40
1.0
 40
1.0
 40
1.0
 40
1.0
 10
145.4529171032
 20
637.5253906253
 30
0.0
 10
145.4556217665
 20
637.443982007
 30
0.0
 10
145.4684334975
 20
637.2481238954
 30
0.0
 10
145.5829458179
 20
637.0212997029
 30
0.0
 10
145.7946189829
 20
636.8904979725
 30
0.0
 10
145.9078163715
 20
636.8781513554
 30
0.0
 10
145.9720577282
 20
636.8750000004
 30
0.0
  0
SPLINE
  5
2EE
100
AcDbEntity
  8
0
100
AcDbSpline
 62
7
  6
BYLAYER
 70
0
 71
3
 72
13
 73
9
 74
0
 42
0.0000001
 43
0.0000001
 44
0.0000000001
 40
0.0
 40
0.0
 40
0.0
 40
0.0
 40
0.0795944291
 40
0.2548971055
 40
0.4315217722
 40
0.6130362174
 40
0.7995339082
 40
1.0
 40
1.0
 40
1.0
 40
1.0
 10
145.9720577282
 20
636.8750000004
 30
0.0
 10
145.9971110932
 20
636.876367362
 30
0.0
 10
146.077102186
 20
636.8800310175
 30
0.0
 10
146.2126378414
 20
636.9184896224
 30
0.0
 10
146.3492062542
 20
637.0207835357
 30
0.0
 10
146.4458301394
 20
637.1659496473
 30
0.0
 10
146.4959375285
 20
637.340165998
 30
0.0
 10
146.5009684424
 20
637.4622638162
 30
0.0
 10
146.502917104
 20
637.5253906191
 30
0.0
  0
SPLINE
  5
2EF
100
AcDbEntity
  8
0
100
AcDbSpline
 62
7
  6
BYLAYER
 70
0
 71
3
 72
11
 73
7
 74
0
 42
0.0000001
 43
0.0000001
 44
0.0000000001
 40
0.0
 40
0.0
 40
0.0
 40
0.0
 40
0.2435574267
 40
0.4305480207
 40
0.7975833953
 40
1.0
 40
1.0
 40
1.0
 40
1.0
 10
146.502917104
 20
640.6179687561
 30
0.0
 10
146.5002965307
 20
640.6920887928
 30
0.0
 10
146.4915626387
 20
640.8188093887
 30
0.0
 10
146.3970318515
 20
641.0477392037
 30
0.0
 10
146.2026665539
 20
641.2056370434
 30
0.0
 10
146.0335998032
 20
641.221466879
 30
0.0
 10
145.9720577282
 20
641.2250000024
 30
0.0
  0
SPLINE
  5
2F0
100
AcDbEntity
  8
0
100
AcDbSpline
 62
7
  6
BYLAYER
 70
0
 71
3
 72
11
 73
7
 74
0
 42
0.0000001
 43
0.0000001
 44
0.0000000001
 40
0.0
 40
0.0
 40
0.0
 40
0.0
 40
0.2403620887
 40
0.4178397461
 40
0.7979607769
 40
1.0
 40
1.0
 40
1.0
 40
1.0
 10
146.5029171022
 20
642.2773437514
 30
0.0
 10
146.5007794705
 20
642.3445493014
 30
0.0
 10
146.4912300876
 20
642.4561854595
 30
0.0
 10
146.3858493514
 20
642.6603751288
 30
0.0
 10
146.1960213345
 20
642.7811500013
 30
0.0
 10
146.0401948092
 20
642.7974826507
 30
0.0
 10
145.9837764792
 20
642.8000000024
 30
0.0
  0
SPLINE
  5
2F1
100
AcDbEntity
  8
0
100
AcDbSpline
 62
7
  6
BYLAYER
 70
0
 71
3
 72
11
 73
7
 74
0
 42
0.0000001
 43
0.0000001
 44
0.0000000001
 40
0.0
 40
0.0
 40
0.0
 40
0.0
 40
0.2045944851
 40
0.4040682194
 40
0.7982447086
 40
1.0
 40
1.0
 40
1.0
 40
1.0
 10
145.9837764792
 20
642.8000000024
 30
0.0
 10
145.9272277292
 20
642.7969700374
 30
0.0
 10
145.8183255001
 20
642.7873021667
 30
0.0
 10
145.6190630578
 20
642.6817610655
 30
0.0
 10
145.4700048598
 20
642.4966373645
 30
0.0
 10
145.4560818592
 20
642.3331096714
 30
0.0
 10
145.4529171042
 20
642.2773437514
 30
0.0
  0
SPLINE
  5
2F2
100
AcDbEntity
  8
0
100
AcDbSpline
 62
7
  6
BYLAYER
 70
0
 71
3
 72
11
 73
7
 74
0
 42
0.0000001
 43
0.0000001
 44
0.0000000001
 40
0.0
 40
0.0
 40
0.0
 40
0.0
 40
0.2147771357
 40
0.5992820615
 40
0.7977037715
 40
1.0
 40
1.0
 40
1.0
 40
1.0
 10
145.4529171042
 20
642.2773437514
 30
0.0
 10
145.4553053875
 20
642.2166884414
 30
0.0
 10
145.466319164
 20
642.0477777394
 30
0.0
 10
145.6110543529
 20
641.8586667746
 30
0.0
 10
145.817430725
 20
641.7615418134
 30
0.0
 10
145.9266407849
 20
641.7522351847
 30
0.0
 10
145.9837764782
 20
641.7500000014
 30
0.0
  0
SPLINE
  5
2F3
100
AcDbEntity
  8
0
100
AcDbSpline
 62
7
  6
BYLAYER
 70
0
 71
3
 72
9
 73
5
 74
0
 42
0.0000001
 43
0.0000001
 44
0.0000000001
 40
0.0
 40
0.0
 40
0.0
 40
0.0
 40
0.6384045561
 40
1.0
 40
1.0
 40
1.0
 40
1.0
 10
145.9837764782
 20
641.7500000014
 30
0.0
 10
146.0494913365
 20
641.7524909597
 30
0.0
 10
146.1444516599
 20
641.7637386277
 30
0.0
 10
146.2377695075
 20
641.8099574655
 30
0.0
 10
146.2694202147
 20
641.8297653704
 30
0.0
  0
SPLINE
  5
2F4
100
AcDbEntity
  8
0
100
AcDbSpline
 62
7
  6
BYLAYER
 70
0
 71
3
 72
10
 73
6
 74
0
 42
0.0000001
 43
0.0000001
 44
0.0000000001
 40
0.0
 40
0.0
 40
0.0
 40
0.0
 40
0.1018459215
 40
0.695015668
 40
1.0
 40
1.0
 40
1.0
 40
1.0
 10
146.2694202147
 20
641.8297653704
 30
0.0
 10
146.2851220213
 20
641.8395920036
 30
0.0
 10
146.3887595431
 20
641.911849529
 30
0.0
 10
146.4880037698
 20
642.0547754895
 30
0.0
 10
146.5007931905
 20
642.2220574264
 30
0.0
 10
146.5029171022
 20
642.2773437514
 30
0.0
  0
SPLINE
  5
2F5
100
AcDbEntity
  8
0
100
AcDbSpline
 62
7
  6
BYLAYER
 70
0
 71
3
 72
15
 73
11
 74
0
 42
0.0000001
 43
0.0000001
 44
0.0000000001
 40
0.0
 40
0.0
 40
0.0
 40
0.0
 40
0.1037879724
 40
0.303362507
 40
0.5029413824
 40
0.6877054887
 40
0.8003152226
 40
0.9002187346
 40
0.9501093675
 40
1.0
 40
1.0
 40
1.0
 40
1.0
 10
149.6201046032
 20
639.5093750014
 30
0.0
 10
149.5727177432
 20
639.520941523
 30
0.0
 10
149.4340739813
 20
639.554509592
 30
0.0
 10
149.2058865365
 20
639.6139104123
 30
0.0
 10
148.9377668454
 20
639.6824666459
 30
0.0
 10
148.7255965389
 20
639.7661559894
 30
0.0
 10
148.5639639919
 20
639.8653024604
 30
0.0
 10
148.4869145692
 20
639.9653391741
 30
0.0
 10
148.4560657319
 20
640.0551305905
 30
0.0
 10
148.4540474432
 20
640.102287893
 30
0.0
 10
148.4529171032
 20
640.1257812514
 30
0.0
  0
SPLINE
  5
2F6
100
AcDbEntity
  8
0
100
AcDbSpline
 62
7
  6
BYLAYER
 70
0
 71
3
 72
13
 73
9
 74
0
 42
0.0000001
 43
0.0000001
 44
0.0000000001
 40
0.0
 40
0.0
 40
0.0
 40
0.0
 40
0.0896060438
 40
0.1570788975
 40
0.4050051939
 40
0.6069816813
 40
0.8026941732
 40
1.0
 40
1.0
 40
1.0
 40
1.0
 10
148.4529171032
 20
640.1257812514
 30
0.0
 10
148.4547715249
 20
640.151796273
 30
0.0
 10
148.4576980774
 20
640.1975478428
 30
0.0
 10
148.49874145
 20
640.3091577616
 30
0.0
 10
148.6067001295
 20
640.4153450476
 30
0.0
 10
148.7713742855
 20
640.5002437232
 30
0.0
 10
148.946198834
 20
640.5442164207
 30
0.0
 10
149.0624767432
 20
640.5487635697
 30
0.0
 10
149.1197139782
 20
640.5500000014
 30
0.0
  0
SPLINE
  5
2F7
100
AcDbEntity
  8
0
100
AcDbSpline
 62
7
  6
BYLAYER
 70
0
 71
3
 72
12
 73
8
 74
0
 42
0.0000001
 43
0.0000001
 44
0.0000000001
 40
0.0
 40
0.0
 40
0.0
 40
0.0
 40
0.2013583968
 40
0.3973322567
 40
0.5962498033
 40
0.7948162717
 40
1.0
 40
1.0
 40
1.0
 40
1.0
 10
149.1197139782
 20
640.5500000014
 30
0.0
 10
149.1752970949
 20
640.548828423
 30
0.0
 10
149.2831469873
 20
640.5450416676
 30
0.0
 10
149.4537195046
 20
640.51283376
 30
0.0
 10
149.6013614526
 20
640.4397019507
 30
0.0
 10
149.7387285924
 20
640.3348427378
 30
0.0
 10
149.8086357982
 20
640.254652604
 30
0.0
 10
149.8451046032
 20
640.2113281274
 30
0.0
  0
SPLINE
  5
2F8
100
AcDbEntity
  8
0
100
AcDbSpline
 62
7
  6
BYLAYER
 70
0
 71
3
 72
11
 73
7
 74
0
 42
0.0000001
 43
0.0000001
 44
0.0000000001
 40
0.0
 40
0.0
 40
0.0
 40
0.0
 40
0.4056831975
 40
0.6001846505
 40
0.7987849991
 40
1.0
 40
1.0
 40
1.0
 40
1.0
 10
149.8451046032
 20
640.2113281274
 30
0.0
 10
149.9047137215
 20
640.1345719874
 30
0.0
 10
149.9881212725
 20
640.0365458486
 30
0.0
 10
150.1269170575
 20
639.897770982
 30
0.0
 10
150.253723478
 20
639.8334511613
 30
0.0
 10
150.3441247099
 20
639.8238905337
 30
0.0
 10
150.3923702282
 20
639.8222656254
 30
0.0
  0
SPLINE
  5
2F9
100
AcDbEntity
  8
0
100
AcDbSpline
 62
7
  6
BYLAYER
 70
0
 71
3
 72
12
 73
8
 74
0
 42
0.0000001
 43
0.0000001
 44
0.0000000001
 40
0.0
 40
0.0
 40
0.0
 40
0.0
 40
0.2000674422
 40
0.397618443
 40
0.5973898103
 40
0.7971767363
 40
1.0
 40
1.0
 40
1.0
 40
1.0
 10
150.3923702282
 20
639.8222656254
 30
0.0
 10
150.4400784682
 20
639.8236105904
 30
0.0
 10
150.5342325188
 20
639.8284805252
 30
0.0
 10
150.6747962144
 20
639.8765867994
 30
0.0
 10
150.7835556624
 20
639.9705055336
 30
0.0
 10
150.8581255137
 20
640.0990276709
 30
0.0
 10
150.8653547515
 20
640.1935242747
 30
0.0
 10
150.8681514782
 20
640.2417968764
 30
0.0
  0
SPLINE
  5
2FA
100
AcDbEntity
  8
0
100
AcDbSpline
 62
7
  6
BYLAYER
 70
0
 71
3
 72
14
 73
10
 74
0
 42
0.0000001
 43
0.0000001
 44
0.0000000001
 40
0.0
 40
0.0
 40
0.0
 40
0.0
 40
0.0641648964
 40
0.1338249609
 40
0.2295797804
 40
0.3426949569
 40
0.4896865074
 40
0.8073216806
 40
1.0
 40
1.0
 40
1.0
 40
1.0
 10
150.8681514782
 20
640.2417968764
 30
0.0
 10
150.8658370065
 20
640.2900918547
 30
0.0
 10
150.8559508076
 20
640.3849820558
 30
0.0
 10
150.7834129389
 20
640.5481238097
 30
0.0
 10
150.6603395471
 20
640.7124349623
 30
0.0
 10
150.4643544288
 20
640.8817930387
 30
0.0
 10
150.070114098
 20
641.0976343049
 30
0.0
 10
149.641976645
 20
641.2029759648
 30
0.0
 10
149.2342312465
 20
641.2221413257
 30
0.0
 10
149.0892452282
 20
641.2250000024
 30
0.0
  0
SPLINE
  5
2FB
100
AcDbEntity
  8
0
100
AcDbSpline
 62
7
  6
BYLAYER
 70
0
 71
3
 72
14
 73
10
 74
0
 42
0.0000001
 43
0.0000001
 44
0.0000000001
 40
0.0
 40
0.0
 40
0.0
 40
0.0
 40
0.1927758493
 40
0.3316485148
 40
0.4705601572
 40
0.5828680924
 40
0.7998451555
 40
0.8993964626
 40
1.0
 40
1.0
 40
1.0
 40
1.0
 10
149.0892452282
 20
641.2250000024
 30
0.0
 10
148.9398428482
 20
641.221838439
 30
0.0
 10
148.6962197461
 20
641.2106847285
 30
0.0
 10
148.3345694813
 20
641.1290443415
 30
0.0
 10
148.0569672147
 20
641.0081650263
 30
0.0
 10
147.7490887853
 20
640.8128672411
 30
0.0
 10
147.5334967509
 20
640.5458742712
 30
0.0
 10
147.4185246379
 20
640.2386926384
 30
0.0
 10
147.4059492442
 20
640.0865984197
 30
0.0
 10
147.4029171042
 20
640.0085937514
 30
0.0
  0
SPLINE
  5
2FC
100
AcDbEntity
  8
0
100
AcDbSpline
 62
7
  6
BYLAYER
 70
0
 71
3
 72
14
 73
10
 74
0
 42
0.0000001
 43
0.0000001
 44
0.0000000001
 40
0.0
 40
0.0
 40
0.0
 40
0.0
 40
0.0982952163
 40
0.1914124224
 40
0.2883814111
 40
0.390163761
 40
0.5185496937
 40
0.7954064311
 40
1.0
 40
1.0
 40
1.0
 40
1.0
 10
147.4029171042
 20
640.0085937514
 30
0.0
 10
147.4056110575
 20
639.9325595414
 30
0.0
 10
147.4150919111
 20
639.7826604363
 30
0.0
 10
147.4959889665
 20
639.5682033725
 30
0.0
 10
147.6285379031
 20
639.3844552067
 30
0.0
 10
147.8194803662
 20
639.2154625466
 30
0.0
 10
148.1541305032
 20
639.0132557827
 30
0.0
 10
148.6247384499
 20
638.8593590516
 30
0.0
 10
148.9660367232
 20
638.772011609
 30
0.0
 10
149.1197139782
 20
638.7347656274
 30
0.0
  0
SPLINE
  5
2FD
100
AcDbEntity
  8
0
100
AcDbSpline
 62
7
  6
BYLAYER
 70
0
 71
3
 72
12
 73
8
 74
0
 42
0.0000001
 43
0.0000001
 44
0.0000000001
 40
0.0
 40
0.0
 40
0.0
 40
0.0
 40
0.3350589624
 40
0.5375062821
 40
0.8014408665
 40
0.9007204336
 40
1.0
 40
1.0
 40
1.0
 40
1.0
 10
149.1197139782
 20
638.7347656274
 30
0.0
 10
149.2525328082
 20
638.7013574374
 30
0.0
 10
149.4683349219
 20
638.6453772883
 30
0.0
 10
149.7660675733
 20
638.5325568614
 30
0.0
 10
149.9603014366
 20
638.3938670145
 30
0.0
 10
150.022265757
 20
638.2096294176
 30
0.0
 10
150.0259913159
 20
638.128516573
 30
0.0
 10
150.0279171042
 20
638.0878906264
 30
0.0
  0
SPLINE
  5
2FE
100
AcDbEntity
  8
0
100
AcDbSpline
 62
7
  6
BYLAYER
 70
0
 71
3
 72
14
 73
10
 74
0
 42
0.0000001
 43
0.0000001
 44
0.0000000001
 40
0.0
 40
0.0
 40
0.0
 40
0.0
 40
0.0883117753
 40
0.1523767681
 40
0.2317969771
 40
0.3987294565
 40
0.5997610441
 40
0.8006165023
 40
1.0
 40
1.0
 40
1.0
 40
1.0
 10
150.0279171042
 20
638.0878906264
 30
0.0
 10
150.0255725659
 20
638.059871383
 30
0.0
 10
150.0217124642
 20
638.0112368601
 30
0.0
 10
149.9939923102
 20
637.942516468
 30
0.0
 10
149.9398237962
 20
637.859266645
 30
0.0
 10
149.8325600996
 20
637.7632158938
 30
0.0
 10
149.6730135832
 20
637.6801123705
 30
0.0
 10
149.4886684739
 20
637.632459582
 30
0.0
 10
149.3610388132
 20
637.6273916337
 30
0.0
 10
149.2978389782
 20
637.6250000004
 30
0.0
  0
SPLINE
  5
2FF
100
AcDbEntity
  8
0
100
AcDbSpline
 62
7
  6
BYLAYER
 70
0
 71
3
 72
11
 73
7
 74
0
 42
0.0000001
 43
0.0000001
 44
0.0000000001
 40
0.0
 40
0.0
 40
0.0
 40
0.0
 40
0.2711292619
 40
0.4412690391
 40
0.7997442694
 40
1.0
 40
1.0
 40
1.0
 40
1.0
 10
149.2978389782
 20
637.6250000004
 30
0.0
 10
149.1853765282
 20
637.626883382
 30
0.0
 10
149.0164237583
 20
637.6373347624
 30
0.0
 10
148.6886945531
 20
637.7257157917
 30
0.0
 10
148.4496966542
 20
637.9249811072
 30
0.0
 10
148.3255064525
 20
638.113348214
 30
0.0
 10
148.2818233542
 20
638.1839843774
 30
0.0
  0
SPLINE
  5
300
100
AcDbEntity
  8
0
100
AcDbSpline
 62
7
  6
BYLAYER
 70
0
 71
3
 72
11
 73
7
 74
0
 42
0.0000001
 43
0.0000001
 44
0.0000000001
 40
0.0
 40
0.0
 40
0.0
 40
0.0
 40
0.1997237381
 40
0.6009002715
 40
0.8003674351
 40
1.0
 40
1.0
 40
1.0
 40
1.0
 10
148.2818233542
 20
638.1839843774
 30
0.0
 10
148.2608181109
 20
638.2168013607
 30
0.0
 10
148.1976724074
 20
638.3150320821
 30
0.0
 10
148.0931609961
 20
638.4366077514
 30
0.0
 10
147.9417499126
 20
638.4882411342
 30
0.0
 10
147.8637495615
 20
638.4912305654
 30
0.0
 10
147.8247921032
 20
638.4921875004
 30
0.0
  0
SPLINE
  5
301
100
AcDbEntity
  8
0
100
AcDbSpline
 62
7
  6
BYLAYER
 70
0
 71
3
 72
12
 73
8
 74
0
 42
0.0000001
 43
0.0000001
 44
0.0000000001
 40
0.0
 40
0.0
 40
0.0
 40
0.0
 40
0.1984662311
 40
0.398557932
 40
0.5990190307
 40
0.7973418541
 40
1.0
 40
1.0
 40
1.0
 40
1.0
 10
147.8247921032
 20
638.4921875004
 30
0.0
 10
147.7771827932
 20
638.4898858137
 30
0.0
 10
147.6803597814
 20
638.4832762778
 30
0.0
 10
147.5489659402
 20
638.4209241366
 30
0.0
 10
147.4440869946
 20
638.3246401765
 30
0.0
 10
147.3675002582
 20
638.195464323
 30
0.0
 10
147.3586299825
 20
638.1025294997
 30
0.0
 10
147.3560421042
 20
638.0539062514
 30
0.0
  0
SPLINE
  5
302
100
AcDbEntity
  8
0
100
AcDbSpline
 62
7
  6
BYLAYER
 70
0
 71
3
 72
13
 73
9
 74
0
 42
0.0000001
 43
0.0000001
 44
0.0000000001
 40
0.0
 40
0.0
 40
0.0
 40
0.0
 40
0.0936974814
 40
0.1781736747
 40
0.285026259
 40
0.5073826518
 40
0.7971757164
 40
1.0
 40
1.0
 40
1.0
 40
1.0
 10
147.3560421042
 20
638.0539062514
 30
0.0
 10
147.3604688692
 20
637.9786568014
 30
0.0
 10
147.3744628114
 20
637.8416853273
 30
0.0
 10
147.4680269899
 20
637.6270513023
 30
0.0
 10
147.6567972417
 20
637.3531563485
 30
0.0
 10
148.0882297687
 20
637.0560855369
 30
0.0
 10
148.6281727073
 20
636.8975586782
 30
0.0
 10
149.0106222199
 20
636.878684432
 30
0.0
 10
149.1736202282
 20
636.8750000004
 30
0.0
  0
SPLINE
  5
303
100
AcDbEntity
  8
0
100
AcDbSpline
 62
7
  6
BYLAYER
 70
0
 71
3
 72
14
 73
10
 74
0
 42
0.0000001
 43
0.0000001
 44
0.0000000001
 40
0.0
 40
0.0
 40
0.0
 40
0.0
 40
0.1262445845
 40
0.2663144142
 40
0.3945786797
 40
0.6048472144
 40
0.7994079975
 40
0.900539165
 40
1.0
 40
1.0
 40
1.0
 40
1.0
 10
149.1736202282
 20
636.8750000004
 30
0.0
 10
149.2862866065
 20
636.8770983487
 30
0.0
 10
149.5330893463
 20
636.8834631692
 30
0.0
 10
149.8857724111
 20
636.9352380223
 30
0.0
 10
150.2968454078
 20
637.0587793855
 30
0.0
 10
150.7074154408
 20
637.2902178069
 30
0.0
 10
150.978337723
 20
637.7062358723
 30
0.0
 10
151.0653071389
 20
638.0436444635
 30
0.0
 10
151.0747907415
 20
638.2299866597
 30
0.0
 10
151.0779171032
 20
638.3187500014
 30
0.0
  0
SPLINE
  5
304
100
AcDbEntity
  8
0
100
AcDbSpline
 62
7
  6
BYLAYER
 70
0
 71
3
 72
13
 73
9
 74
0
 42
0.0000001
 43
0.0000001
 44
0.0000000001
 40
0.0
 40
0.0
 40
0.0
 40
0.0
 40
0.1369775298
 40
0.250262746
 40
0.3570027891
 40
0.6291805607
 40
0.7987323583
 40
1.0
 40
1.0
 40
1.0
 40
1.0
 10
151.0779171032
 20
638.3187500014
 30
0.0
 10
151.0738960499
 20
638.413530908
 30
0.0
 10
151.0565958185
 20
638.5741466449
 30
0.0
 10
150.9505797943
 20
638.800037682
 30
0.0
 10
150.7248315911
 20
639.0623205206
 30
0.0
 10
150.4140605893
 20
639.2509009356
 30
0.0
 10
149.9890251642
 20
639.4138581569
 30
0.0
 10
149.7552793315
 20
639.475840868
 30
0.0
 10
149.6201046032
 20
639.5093750014
 30
0.0
  0
SPLINE
  5
305
100
AcDbEntity
  8
0
100
AcDbSpline
 62
7
  6
BYLAYER
 70
0
 71
3
 72
12
 73
8
 74
0
 42
0.0000001
 43
0.0000001
 44
0.0000000001
 40
0.0
 40
0.0
 40
0.0
 40
0.0
 40
0.4211593968
 40
0.6157612379
 40
0.8111622815
 40
0.9055811407
 40
1.0
 40
1.0
 40
1.0
 40
1.0
 10
131.2029171032
 20
638.8332031264
 30
0.0
 10
131.2019212199
 20
638.718940248
 30
0.0
 10
131.1992140111
 20
638.5915789461
 30
0.0
 10
131.1663858372
 20
638.3719436667
 30
0.0
 10
131.1345956815
 20
638.2526063082
 30
0.0
 10
131.096422758
 20
638.1541404364
 30
0.0
 10
131.0706486359
 20
638.1099564614
 30
0.0
 10
131.0576046042
 20
638.0878906264
 30
0.0
  0
SPLINE
  5
306
100
AcDbEntity
  8
0
100
AcDbSpline
 62
7
  6
BYLAYER
 70
0
 71
3
 72
11
 73
7
 74
0
 42
0.0000001
 43
0.0000001
 44
0.0000000001
 40
0.0
 40
0.0
 40
0.0
 40
0.0
 40
0.214960865
 40
0.3995953234
 40
0.8044269244
 40
1.0
 40
1.0
 40
1.0
 40
1.0
 10
131.0576046042
 20
638.0878906264
 30
0.0
 10
131.0100128275
 20
638.019821913
 30
0.0
 10
130.9212218032
 20
637.909464192
 30
0.0
 10
130.652058392
 20
637.7319014293
 30
0.0
 10
130.3830273038
 20
637.641322797
 30
0.0
 10
130.1475649199
 20
637.627131028
 30
0.0
 10
130.0720577282
 20
637.6250000014
 30
0.0
  0
SPLINE
  5
307
100
AcDbEntity
  8
0
100
AcDbSpline
 62
7
  6
BYLAYER
 70
0
 71
3
 72
12
 73
8
 74
0
 42
0.0000001
 43
0.0000001
 44
0.0000000001
 40
0.0
 40
0.0
 40
0.0
 40
0.0
 40
0.2406570482
 40
0.434528627
 40
0.6249843989
 40
0.7956828801
 40
1.0
 40
1.0
 40
1.0
 40
1.0
 10
130.0720577282
 20
637.6250000014
 30
0.0
 10
129.9940969399
 20
637.627367148
 30
0.0
 10
129.8592046701
 20
637.6369928199
 30
0.0
 10
129.666525859
 20
637.7151587239
 30
0.0
 10
129.5272509489
 20
637.8300203215
 30
0.0
 10
129.42218413
 20
637.988699654
 30
0.0
 10
129.4067949539
 20
638.102578944
 30
0.0
 10
129.4029171022
 20
638.1687500024
 30
0.0
  0
SPLINE
  5
308
100
AcDbEntity
  8
0
100
AcDbSpline
 62
7
  6
BYLAYER
 70
0
 71
3
 72
19
 73
15
 74
0
 42
0.0000001
 43
0.0000001
 44
0.0000000001
 40
0.0
 40
0.0
 40
0.0
 40
0.0
 40
0.0457194794
 40
0.0854561022
 40
0.1238383277
 40
0.1622205533
 40
0.2332523815
 40
0.3402536725
 40
0.4086355098
 40
0.5276905379
 40
0.6012689496
 40
0.7983712825
 40
0.8991856412
 40
1.0
 40
1.0
 40
1.0
 40
1.0
 10
129.4029171022
 20
638.1687500024
 30
0.0
 10
129.4041717155
 20
638.200675899
 30
0.0
 10
129.4062279418
 20
638.2606086545
 30
0.0
 10
129.4318530287
 20
638.3435986113
 30
0.0
 10
129.4681718156
 20
638.4170772199
 30
0.0
 10
129.5355341188
 20
638.4961287334
 30
0.0
 10
129.6576211099
 20
638.5836314524
 30
0.0
 10
129.824335913
 20
638.6613202095
 30
0.0
 10
130.0230376121
 20
638.704350615
 30
0.0
 10
130.2019650377
 20
638.7425173293
 30
0.0
 10
130.4664250123
 20
638.7960179754
 30
0.0
 10
130.7326830619
 20
638.849683485
 30
0.0
 10
131.0011224979
 20
638.9126347389
 30
0.0
 10
131.1360871449
 20
638.9532758454
 30
0.0
 10
131.2029171032
 20
638.9750000004
 30
0.0
  0
SPLINE
  5
309
100
AcDbEntity
  8
0
100
AcDbSpline
 62
7
  6
BYLAYER
 70
0
 71
3
 72
13
 73
9
 74
0
 42
0.0000001
 43
0.0000001
 44
0.0000000001
 40
0.0
 40
0.0
 40
0.0
 40
0.0
 40
0.2073503211
 40
0.4065160946
 40
0.605673287
 40
0.8007101169
 40
0.9003550585
 40
1.0
 40
1.0
 40
1.0
 40
1.0
 10
131.9458858522
 20
636.8750000014
 30
0.0
 10
131.9967809789
 20
636.8772076897
 30
0.0
 10
132.0931452394
 20
636.8863336343
 30
0.0
 10
132.2306913716
 20
636.9522383636
 30
0.0
 10
132.3438881806
 20
637.0445741024
 30
0.0
 10
132.4176679478
 20
637.1426086858
 30
0.0
 10
132.4498351622
 20
637.2351099369
 30
0.0
 10
132.4528613099
 20
637.2841475564
 30
0.0
 10
132.4544796032
 20
637.3085937514
 30
0.0
  0
SPLINE
  5
30A
100
AcDbEntity
  8
0
100
AcDbSpline
 62
7
  6
BYLAYER
 70
0
 71
3
 72
13
 73
9
 74
0
 42
0.0000001
 43
0.0000001
 44
0.0000000001
 40
0.0
 40
0.0
 40
0.0
 40
0.0
 40
0.1003687155
 40
0.2007374311
 40
0.4014701764
 40
0.5985248868
 40
0.7993057564
 40
1.0
 40
1.0
 40
1.0
 40
1.0
 10
132.4544796032
 20
637.3085937514
 30
0.0
 10
132.4517790482
 20
637.344163808
 30
0.0
 10
132.4430827374
 20
637.4150223392
 30
0.0
 10
132.4062130147
 20
637.5533640404
 30
0.0
 10
132.354962913
 20
637.7208058619
 30
0.0
 10
132.2958656762
 20
637.9323180622
 30
0.0
 10
132.2608689369
 20
638.1407985609
 30
0.0
 10
132.254185864
 20
638.2837629895
 30
0.0
 10
132.2529171041
 20
638.355078131
 30
0.0
  0
SPLINE
  5
30B
100
AcDbEntity
  8
0
100
AcDbSpline
 62
7
  6
BYLAYER
 70
0
 71
3
 72
17
 73
13
 74
0
 42
0.0000001
 43
0.0000001
 44
0.0000000001
 40
0.0
 40
0.0
 40
0.0
 40
0.0
 40
0.1466729649
 40
0.2580540969
 40
0.3355566727
 40
0.4134897381
 40
0.495016398
 40
0.5941715256
 40
0.6810720012
 40
0.7987518163
 40
0.8979070582
 40
1.0
 40
1.0
 40
1.0
 40
1.0
 10
132.261124309
 20
639.5755225644
 30
0.0
 10
132.2602337323
 20
639.7185026157
 30
0.0
 10
132.2494023835
 20
639.961696239
 30
0.0
 10
132.1917420663
 20
640.2772532494
 30
0.0
 10
132.1010449958
 20
640.5368989916
 30
0.0
 10
131.9773547928
 20
640.7427363552
 30
0.0
 10
131.7935272901
 20
640.9181964116
 30
0.0
 10
131.591503302
 20
641.0388051198
 30
0.0
 10
131.2964378515
 20
641.1409956271
 30
0.0
 10
131.0170459187
 20
641.1932926114
 30
0.0
 10
130.6992415306
 20
641.2207860134
 30
0.0
 10
130.5160993205
 20
641.2244589587
 30
0.0
 10
130.4165889772
 20
641.2250000004
 30
0.0
  0
SPLINE
  5
30C
100
AcDbEntity
  8
0
100
AcDbSpline
 62
7
  6
BYLAYER
 70
0
 71
3
 72
13
 73
9
 74
0
 42
0.0000001
 43
0.0000001
 44
0.0000000001
 40
0.0
 40
0.0
 40
0.0
 40
0.0
 40
0.1952230902
 40
0.3374522362
 40
0.5980322908
 40
0.8055981135
 40
0.897644319
 40
1.0
 40
1.0
 40
1.0
 40
1.0
 10
130.4165889772
 20
641.2250000004
 30
0.0
 10
130.2562853289
 20
641.2222596454
 30
0.0
 10
129.9874590936
 20
641.2127255887
 30
0.0
 10
129.5026029165
 20
641.1221496829
 30
0.0
 10
129.0218517941
 20
640.9182281599
 30
0.0
 10
128.7041551898
 20
640.5966863664
 30
0.0
 10
128.562421452
 20
640.28992938
 30
0.0
 10
128.5450709182
 20
640.140651643
 30
0.0
 10
128.5404171032
 20
640.0566406264
 30
0.0
  0
SPLINE
  5
30D
100
AcDbEntity
  8
0
100
AcDbSpline
 62
7
  6
BYLAYER
 70
0
 71
3
 72
12
 73
8
 74
0
 42
0.0000001
 43
0.0000001
 44
0.0000000001
 40
0.0
 40
0.0
 40
0.0
 40
0.0
 40
0.0996827256
 40
0.1993654512
 40
0.3984704747
 40
0.7975160485
 40
1.0
 40
1.0
 40
1.0
 40
1.0
 10
128.5404171032
 20
640.0566406264
 30
0.0
 10
128.5415051715
 20
640.0341381747
 30
0.0
 10
128.5434163651
 20
639.9890611652
 30
0.0
 10
128.5641216728
 20
639.9012154109
 30
0.0
 10
128.6396251105
 20
639.7598218409
 30
0.0
 10
128.8035649391
 20
639.6561616779
 30
0.0
 10
128.9353510422
 20
639.6436735797
 30
0.0
 10
128.9810421022
 20
639.6417968764
 30
0.0
  0
SPLINE
  5
30E
100
AcDbEntity
  8
0
100
AcDbSpline
 62
7
  6
BYLAYER
 70
0
 71
3
 72
16
 73
12
 74
0
 42
0.0000001
 43
0.0000001
 44
0.0000000001
 40
0.0
 40
0.0
 40
0.0
 40
0.0
 40
0.0769405465
 40
0.1308327646
 40
0.17912631
 40
0.2315585166
 40
0.2839907233
 40
0.4383246449
 40
0.6828827276
 40
0.7968846816
 40
1.0
 40
1.0
 40
1.0
 40
1.0
 10
128.9810421022
 20
639.6417968764
 30
0.0
 10
129.0264773822
 20
639.6427595997
 30
0.0
 10
129.102839528
 20
639.6468407925
 30
0.0
 10
129.2087129534
 20
639.6758047269
 30
0.0
 10
129.269846829
 20
639.7471450098
 30
0.0
 10
129.3192222561
 20
639.821651282
 30
0.0
 10
129.40777246
 20
639.9499415886
 30
0.0
 10
129.5187335088
 20
640.1484923854
 30
0.0
 10
129.7884976477
 20
640.3844401228
 30
0.0
 10
130.1094799976
 20
640.4654543575
 30
0.0
 10
130.2908777539
 20
640.472792917
 30
0.0
 10
130.4107296022
 20
640.4750000004
 30
0.0
  0
SPLINE
  5
30F
100
AcDbEntity
  8
0
100
AcDbSpline
 62
7
  6
BYLAYER
 70
0
 71
3
 72
13
 73
9
 74
0
 42
0.0000001
 43
0.0000001
 44
0.0000000001
 40
0.0
 40
0.0
 40
0.0
 40
0.0
 40
0.2651702257
 40
0.4067129672
 40
0.474882482
 40
0.5430519968
 40
0.8002140485
 40
1.0
 40
1.0
 40
1.0
 40
1.0
 10
130.4107296022
 20
640.4750000004
 30
0.0
 10
130.5285799522
 20
640.472796912
 30
0.0
 10
130.7128551651
 20
640.4639291576
 30
0.0
 10
130.9088399329
 20
640.3877300385
 30
0.0
 10
131.0082278135
 20
640.311804077
 30
0.0
 10
131.1117432808
 20
640.1687728073
 30
0.0
 10
131.1809849284
 20
639.9410242044
 30
0.0
 10
131.1972838315
 20
639.7386601747
 30
0.0
 10
131.2029171032
 20
639.6500000014
 30
0.0
  0
SPLINE
  5
310
100
AcDbEntity
  8
0
100
AcDbSpline
 62
7
  6
BYLAYER
 70
0
 71
3
 72
14
 73
10
 74
0
 42
0.0000001
 43
0.0000001
 44
0.0000000001
 40
0.0
 40
0.0
 40
0.0
 40
0.0
 40
0.3674390845
 40
0.5967369949
 40
0.6975530509
 40
0.7983691068
 40
0.8991841263
 40
0.9495920631
 40
1.0
 40
1.0
 40
1.0
 40
1.0
 10
131.2029171032
 20
639.6500000014
 30
0.0
 10
130.9833802415
 20
639.5851435464
 30
0.0
 10
130.5064598331
 20
639.4530593546
 30
0.0
 10
130.1960360863
 20
639.385024082
 30
0.0
 10
129.9234851487
 20
639.3245638611
 30
0.0
 10
129.7407931176
 20
639.2875055026
 30
0.0
 10
129.5870099606
 20
639.2534363754
 30
0.0
 10
129.4641985296
 20
639.2273149491
 30
0.0
 10
129.4030639232
 20
639.2128547107
 30
0.0
 10
129.3724483532
 20
639.2058593774
 30
0.0
  0
SPLINE
  5
311
100
AcDbEntity
  8
0
100
AcDbSpline
 62
7
  6
BYLAYER
 70
0
 71
3
 72
14
 73
10
 74
0
 42
0.0000001
 43
0.0000001
 44
0.0000000001
 40
0.0
 40
0.0
 40
0.0
 40
0.0
 40
0.2129606891
 40
0.3541538155
 40
0.4990674149
 40
0.6469335178
 40
0.7966576042
 40
0.8974686016
 40
1.0
 40
1.0
 40
1.0
 40
1.0
 10
129.3724483532
 20
639.2058593774
 30
0.0
 10
129.2582015282
 20
639.1786201057
 30
0.0
 10
129.0836362278
 20
639.1291627097
 30
0.0
 10
128.8125823198
 20
638.9773862579
 30
0.0
 10
128.6390082871
 20
638.824033925
 30
0.0
 10
128.4853047618
 20
638.6218461815
 30
0.0
 10
128.3993545692
 20
638.4202597369
 30
0.0
 10
128.3596315977
 20
638.2266645787
 30
0.0
 10
128.3544581165
 20
638.1186413464
 30
0.0
 10
128.3529171032
 20
638.0621093764
 30
0.0
  0
SPLINE
  5
312
100
AcDbEntity
  8
0
100
AcDbSpline
 62
7
  6
BYLAYER
 70
0
 71
3
 72
14
 73
10
 74
0
 42
0.0000001
 43
0.0000001
 44
0.0000000001
 40
0.0
 40
0.0
 40
0.0
 40
0.0
 40
0.1498410977
 40
0.2759321079
 40
0.3992664225
 40
0.5324644161
 40
0.6683067874
 40
0.7986574623
 40
1.0
 40
1.0
 40
1.0
 40
1.0
 10
128.3529171032
 20
638.0621093764
 30
0.0
 10
128.3566829565
 20
637.9596914114
 30
0.0
 10
128.3741598681
 20
637.7858111424
 30
0.0
 10
128.4732872814
 20
637.529729646
 30
0.0
 10
128.623219576
 20
637.311123958
 30
0.0
 10
128.8196745739
 20
637.1338210797
 30
0.0
 10
129.0520752844
 20
636.9975769545
 30
0.0
 10
129.3655146672
 20
636.8934230005
 30
0.0
 10
129.5805994882
 20
636.879432123
 30
0.0
 10
129.7181514782
 20
636.8750000014
 30
0.0
  0
SPLINE
  5
313
100
AcDbEntity
  8
0
100
AcDbSpline
 62
7
  6
BYLAYER
 70
0
 71
3
 72
11
 73
7
 74
0
 42
0.0000001
 43
0.0000001
 44
0.0000000001
 40
0.0
 40
0.0
 40
0.0
 40
0.0
 40
0.2208537034
 40
0.4059136131
 40
0.600220241
 40
1.0
 40
1.0
 40
1.0
 40
1.0
 10
129.7181514782
 20
636.8750000014
 30
0.0
 10
129.8465872549
 20
636.8785127647
 30
0.0
 10
130.0690608577
 20
636.8908660706
 30
0.0
 10
130.4148718061
 20
636.9798501051
 30
0.0
 10
130.8189629928
 20
637.1737586079
 30
0.0
 10
131.0931924375
 20
637.3750424214
 30
0.0
 10
131.2744014792
 20
637.5207031264
 30
0.0
  0
SPLINE
  5
314
100
AcDbEntity
  8
0
100
AcDbSpline
 62
7
  6
BYLAYER
 70
0
 71
3
 72
12
 73
8
 74
0
 42
0.0000001
 43
0.0000001
 44
0.0000000001
 40
0.0
 40
0.0
 40
0.0
 40
0.0
 40
0.2197134687
 40
0.6233152004
 40
0.8016023311
 40
0.9008011656
 40
1.0
 40
1.0
 40
1.0
 40
1.0
 10
131.2744014792
 20
637.5207031264
 30
0.0
 10
131.3105547642
 20
637.4589781064
 30
0.0
 10
131.4165108833
 20
637.2847025489
 30
0.0
 10
131.565389795
 20
637.0774875148
 30
0.0
 10
131.7350606821
 20
636.9347044323
 30
0.0
 10
131.848826057
 20
636.8834728279
 30
0.0
 10
131.9136149689
 20
636.877505963
 30
0.0
 10
131.9458858522
 20
636.8750000014
 30
0.0
  0
SPLINE
  5
315
100
AcDbEntity
  8
0
100
AcDbSpline
 62
7
  6
BYLAYER
 70
0
 71
3
 72
14
 73
10
 74
0
 42
0.0000001
 43
0.0000001
 44
0.0000000001
 40
0.0
 40
0.0
 40
0.0
 40
0.0
 40
0.1600934108
 40
0.3077017315
 40
0.4362444239
 40
0.5642377107
 40
0.679155646
 40
0.7952892982
 40
1.0
 40
1.0
 40
1.0
 40
1.0
 10
134.1279171032
 20
639.0757812514
 30
0.0
 10
134.1297992982
 20
639.176364078
 30
0.0
 10
134.1356941949
 20
639.3583340727
 30
0.0
 10
134.1905976371
 20
639.6407540977
 30
0.0
 10
134.2849113476
 20
639.8835681349
 30
0.0
 10
134.4187869164
 20
640.0808588024
 30
0.0
 10
134.59230816
 20
640.2410908386
 30
0.0
 10
134.8362484559
 20
640.3717785838
 30
0.0
 10
135.0317564042
 20
640.395734783
 30
0.0
 10
135.1603389792
 20
640.4000000014
 30
0.0
  0
SPLINE
  5
316
100
AcDbEntity
  8
0
100
AcDbSpline
 62
7
  6
BYLAYER
 70
0
 71
3
 72
13
 73
9
 74
0
 42
0.0000001
 43
0.0000001
 44
0.0000000001
 40
0.0
 40
0.0
 40
0.0
 40
0.0
 40
0.15642522
 40
0.270978058
 40
0.3890152227
 40
0.6502731636
 40
0.7891900299
 40
1.0
 40
1.0
 40
1.0
 40
1.0
 10
135.1603389792
 20
640.4000000014
 30
0.0
 10
135.2633599425
 20
640.396890203
 30
0.0
 10
135.4315159205
 20
640.3823022118
 30
0.0
 10
135.6769404148
 20
640.2779996577
 30
0.0
 10
135.9331757558
 20
640.0753912486
 30
0.0
 10
136.1149250521
 20
639.7806096981
 30
0.0
 10
136.2168365291
 20
639.3673236684
 30
0.0
 10
136.2258043582
 20
639.1724668997
 30
0.0
 10
136.2279171032
 20
639.0335937514
 30
0.0
  0
SPLINE
  5
317
100
AcDbEntity
  8
0
100
AcDbSpline
 62
7
  6
BYLAYER
 70
0
 71
3
 72
14
 73
10
 74
0
 42
0.0000001
 43
0.0000001
 44
0.0000000001
 40
0.0
 40
0.0
 40
0.0
 40
0.0
 40
0.2594104358
 40
0.4091279742
 40
0.5496044609
 40
0.6763894447
 40
0.8022811059
 40
0.9011405529
 40
1.0
 40
1.0
 40
1.0
 40
1.0
 10
136.2279171032
 20
639.0335937514
 30
0.0
 10
136.2237595349
 20
638.872530883
 30
0.0
 10
136.2054703008
 20
638.63236323
 30
0.0
 10
136.071331246
 20
638.3139676544
 30
0.0
 10
135.9233993565
 20
638.1028153704
 30
0.0
 10
135.7397905073
 20
637.939788844
 30
0.0
 10
135.546090209
 20
637.8428217527
 30
0.0
 10
135.3517885176
 20
637.784397875
 30
0.0
 10
135.2287177765
 20
637.777691033
 30
0.0
 10
135.1673702282
 20
637.7750000014
 30
0.0
  0
SPLINE
  5
318
100
AcDbEntity
  8
0
100
AcDbSpline
 62
7
  6
BYLAYER
 70
0
 71
3
 72
15
 73
11
 74
0
 42
0.0000001
 43
0.0000001
 44
0.0000000001
 40
0.0
 40
0.0
 40
0.0
 40
0.0
 40
0.0239799981
 40
0.1565704797
 40
0.2893861273
 40
0.4187306748
 40
0.549147315
 40
0.6751298446
 40
0.801754135
 40
1.0
 40
1.0
 40
1.0
 40
1.0
 10
135.1673702282
 20
637.7750000014
 30
0.0
 10
135.1521992815
 20
637.7752554647
 30
0.0
 10
135.0534713056
 20
637.7763895439
 30
0.0
 10
134.8638233041
 20
637.8058520835
 30
0.0
 10
134.6445618214
 20
637.8995154405
 30
0.0
 10
134.4450962317
 20
638.0585244184
 30
0.0
 10
134.3000031146
 20
638.2522648445
 30
0.0
 10
134.2068054811
 20
638.4688228762
 30
0.0
 10
134.1406044298
 20
638.7430934912
 30
0.0
 10
134.1302910599
 20
638.9504350797
 30
0.0
 10
134.1279171032
 20
639.0757812514
 30
0.0
  0
SPLINE
  5
319
100
AcDbEntity
  8
0
100
AcDbSpline
 62
7
  6
BYLAYER
 70
0
 71
3
 72
14
 73
10
 74
0
 42
0.0000001
 43
0.0000001
 44
0.0000000001
 40
0.0
 40
0.0
 40
0.0
 40
0.0
 40
0.0256348146
 40
0.124658608
 40
0.2236824014
 40
0.4250138652
 40
0.6224342438
 40
0.8019602255
 40
1.0
 40
1.0
 40
1.0
 40
1.0
 10
136.7611202282
 20
641.2332031254
 30
0.0
 10
136.7536143715
 20
641.2328896254
 30
0.0
 10
136.7171183248
 20
641.2313778705
 30
0.0
 10
136.6517886183
 20
641.2262657439
 30
0.0
 10
136.5395360894
 20
641.1883349525
 30
0.0
 10
136.4214994178
 20
641.106599633
 30
0.0
 10
136.324749213
 20
640.9644383702
 30
0.0
 10
136.2743951596
 20
640.7952291798
 30
0.0
 10
136.2690981325
 20
640.6829645314
 30
0.0
 10
136.2677608542
 20
640.6250000014
 30
0.0
  0
SPLINE
  5
31A
100
AcDbEntity
  8
0
100
AcDbSpline
 62
7
  6
BYLAYER
 70
0
 71
3
 72
11
 73
7
 74
0
 42
0.0000001
 43
0.0000001
 44
0.0000000001
 40
0.0
 40
0.0
 40
0.0
 40
0.0
 40
0.2939850682
 40
0.4695007408
 40
0.8050823928
 40
1.0
 40
1.0
 40
1.0
 40
1.0
 10
136.2677608542
 20
640.4738281274
 30
0.0
 10
136.1641654909
 20
640.6084867974
 30
0.0
 10
136.0121478187
 20
640.7885887426
 30
0.0
 10
135.6321788197
 20
641.0767750455
 30
0.0
 10
135.2710429252
 20
641.2036689303
 30
0.0
 10
134.9647330299
 20
641.221735048
 30
0.0
 10
134.8521358532
 20
641.2250000014
 30
0.0
  0
SPLINE
  5
31B
100
AcDbEntity
  8
0
100
AcDbSpline
 62
7
  6
BYLAYER
 70
0
 71
3
 72
15
 73
11
 74
0
 42
0.0000001
 43
0.0000001
 44
0.0000000001
 40
0.0
 40
0.0
 40
0.0
 40
0.0
 40
0.0761340028
 40
0.1738564088
 40
0.2727504655
 40
0.472411939
 40
0.6833993386
 40
0.8012296318
 40
0.9006148159
 40
1.0
 40
1.0
 40
1.0
 40
1.0
 10
134.8521358532
 20
641.2250000014
 30
0.0
 10
134.7736522382
 20
641.2232443997
 30
0.0
 10
134.5898277529
 20
641.2168092198
 30
0.0
 10
134.3100068167
 20
641.1567697508
 30
0.0
 10
133.931345619
 20
641.0035829424
 30
0.0
 10
133.5115603424
 20
640.6544406038
 30
0.0
 10
133.2590504651
 20
640.2094448266
 30
0.0
 10
133.1339203102
 20
639.778609926
 30
0.0
 10
133.0854434292
 20
639.4560901871
 30
0.0
 10
133.0798999439
 20
639.2508713447
 30
0.0
 10
133.0779171022
 20
639.1484375014
 30
0.0
  0
SPLINE
  5
31C
100
AcDbEntity
  8
0
100
AcDbSpline
 62
7
  6
BYLAYER
 70
0
 71
3
 72
16
 73
12
 74
0
 42
0.0000001
 43
0.0000001
 44
0.0000000001
 40
0.0
 40
0.0
 40
0.0
 40
0.0
 40
0.1939229778
 40
0.3118587236
 40
0.4180178779
 40
0.5223350874
 40
0.6215617796
 40
0.7163323259
 40
0.8000927143
 40
0.8963392459
 40
1.0
 40
1.0
 40
1.0
 40
1.0
 10
133.0779171022
 20
639.1484375014
 30
0.0
 10
133.0833453705
 20
638.940365268
 30
0.0
 10
133.1000728433
 20
638.6257517267
 30
0.0
 10
133.2128273863
 20
638.1870088822
 30
0.0
 10
133.3541335975
 20
637.8541071946
 30
0.0
 10
133.5400576139
 20
637.5660269761
 30
0.0
 10
133.7306367222
 20
637.3635245249
 30
0.0
 10
133.9732228877
 20
637.1782393374
 30
0.0
 10
134.2442863581
 20
637.0444795545
 30
0.0
 10
134.5592995457
 20
636.9627303346
 30
0.0
 10
134.7491124932
 20
636.952418622
 30
0.0
 10
134.8603389782
 20
636.9500000004
 30
0.0
  0
SPLINE
  5
31D
100
AcDbEntity
  8
0
100
AcDbSpline
 62
7
  6
BYLAYER
 70
0
 71
3
 72
11
 73
7
 74
0
 42
0.0000001
 43
0.0000001
 44
0.0000000001
 40
0.0
 40
0.0
 40
0.0
 40
0.0
 40
0.2699666628
 40
0.4413765052
 40
0.7997795584
 40
1.0
 40
1.0
 40
1.0
 40
1.0
 10
134.8603389782
 20
636.9500000004
 30
0.0
 10
135.0056326999
 20
636.9541489404
 30
0.0
 10
135.224902705
 20
636.9700220848
 30
0.0
 10
135.6402499608
 20
637.1103861912
 30
0.0
 10
135.9649973528
 20
637.3601813907
 30
0.0
 10
136.1439720099
 20
637.594564373
 30
0.0
 10
136.2079952282
 20
637.6812500014
 30
0.0
  0
SPLINE
  5
31E
100
AcDbEntity
  8
0
100
AcDbSpline
 62
7
  6
BYLAYER
 70
0
 71
3
 72
20
 73
16
 74
0
 42
0.0000001
 43
0.0000001
 44
0.0000000001
 40
0.0
 40
0.0
 40
0.0
 40
0.0
 40
0.1190879604
 40
0.1681872457
 40
0.217286531
 40
0.277975728
 40
0.3083203269
 40
0.3386649258
 40
0.4582307759
 40
0.5457624342
 40
0.6300709454
 40
0.7125951134
 40
0.8039428607
 40
0.9015872396
 40
1.0
 40
1.0
 40
1.0
 40
1.0
 10
136.2079952282
 20
637.6812500014
 30
0.0
 10
136.2063409482
 20
637.585652898
 30
0.0
 10
136.2043539681
 20
637.4506329272
 30
0.0
 10
136.1997653828
 20
637.2762417169
 30
0.0
 10
136.1958780423
 20
637.1487404602
 30
0.0
 10
136.1922970005
 20
637.0362772598
 30
0.0
 10
136.1857791274
 20
636.9390364243
 30
0.0
 10
136.1789288863
 20
636.7944842872
 30
0.0
 10
136.1428223548
 20
636.6054802256
 30
0.0
 10
136.0646910337
 20
636.3861189891
 30
0.0
 10
135.9422730099
 20
636.2207993467
 30
0.0
 10
135.7712989558
 20
636.0975682389
 30
0.0
 10
135.5683168838
 20
636.0195441592
 30
0.0
 10
135.3307712173
 20
635.9801604058
 30
0.0
 10
135.1690676609
 20
635.976090893
 30
0.0
 10
135.0900264792
 20
635.9750000014
 30
0.0
  0
SPLINE
  5
31F
100
AcDbEntity
  8
0
100
AcDbSpline
 62
7
  6
BYLAYER
 70
0
 71
3
 72
12
 73
8
 74
0
 42
0.0000001
 43
0.0000001
 44
0.0000000001
 40
0.0
 40
0.0
 40
0.0
 40
0.0
 40
0.055700983
 40
0.4372262265
 40
0.6244439509
 40
0.8003713671
 40
1.0
 40
1.0
 40
1.0
 40
1.0
 10
135.0900264792
 20
635.9750000014
 30
0.0
 10
135.0669757009
 20
635.9755328397
 30
0.0
 10
134.8864579244
 20
635.9791162562
 30
0.0
 10
134.6201100996
 20
636.0163881255
 30
0.0
 10
134.3641984991
 20
636.1828050852
 30
0.0
 10
134.2065722554
 20
636.3574393409
 30
0.0
 10
134.1106750092
 20
636.4791022597
 30
0.0
 10
134.0587764792
 20
636.5433593764
 30
0.0
  0
SPLINE
  5
320
100
AcDbEntity
  8
0
100
AcDbSpline
 62
7
  6
BYLAYER
 70
0
 71
3
 72
9
 73
5
 74
0
 42
0.0000001
 43
0.0000001
 44
0.0000000001
 40
0.0
 40
0.0
 40
0.0
 40
0.0
 40
0.5984920438
 40
1.0
 40
1.0
 40
1.0
 40
1.0
 10
134.0587764792
 20
636.5433593764
 30
0.0
 10
133.9979884275
 20
636.6260939947
 30
0.0
 10
133.8876519946
 20
636.7602026339
 30
0.0
 10
133.7243912599
 20
636.7939778424
 30
0.0
 10
133.6556514782
 20
636.8000000024
 30
0.0
  0
SPLINE
  5
321
100
AcDbEntity
  8
0
100
AcDbSpline
 62
7
  6
BYLAYER
 70
0
 71
3
 72
13
 73
9
 74
0
 42
0.0000001
 43
0.0000001
 44
0.0000000001
 40
0.0
 40
0.0
 40
0.0
 40
0.0
 40
0.1003257153
 40
0.2006514305
 40
0.4010401694
 40
0.6016261629
 40
0.799510984
 40
1.0
 40
1.0
 40
1.0
 40
1.0
 10
133.6556514782
 20
636.8000000024
 30
0.0
 10
133.6316956099
 20
636.798890249
 30
0.0
 10
133.5836883005
 20
636.7969564155
 30
0.0
 10
133.4903981488
 20
636.7740730786
 30
0.0
 10
133.3827171772
 20
636.7173717283
 30
0.0
 10
133.2826746464
 20
636.6131292417
 30
0.0
 10
133.2206474442
 20
636.4775546549
 30
0.0
 10
133.2135742132
 20
636.3826141104
 30
0.0
 10
133.2115108532
 20
636.3347656254
 30
0.0
  0
SPLINE
  5
322
100
AcDbEntity
  8
0
100
AcDbSpline
 62
7
  6
BYLAYER
 70
0
 71
3
 72
13
 73
9
 74
0
 42
0.0000001
 43
0.0000001
 44
0.0000000001
 40
0.0
 40
0.0
 40
0.0
 40
0.0
 40
0.0853624169
 40
0.1567843146
 40
0.3623546451
 40
0.4879430026
 40
0.7971494772
 40
1.0
 40
1.0
 40
1.0
 40
1.0
 10
133.2115108532
 20
636.3347656254
 30
0.0
 10
133.2162010882
 20
636.2654008587
 30
0.0
 10
133.2307352775
 20
636.1416936478
 30
0.0
 10
133.3673009606
 20
635.8720888901
 30
0.0
 10
133.5921100583
 20
635.6510262956
 30
0.0
 10
134.0502886567
 20
635.3912641278
 30
0.0
 10
134.5584513487
 20
635.2472161406
 30
0.0
 10
134.9532725282
 20
635.2286785847
 30
0.0
 10
135.1181514782
 20
635.2250000014
 30
0.0
  0
SPLINE
  5
323
100
AcDbEntity
  8
0
100
AcDbSpline
 62
7
  6
BYLAYER
 70
0
 71
3
 72
15
 73
11
 74
0
 42
0.0000001
 43
0.0000001
 44
0.0000000001
 40
0.0
 40
0.0
 40
0.0
 40
0.0
 40
0.062970848
 40
0.2887224111
 40
0.3803465234
 40
0.5406215393
 40
0.6227057442
 40
0.7131652703
 40
0.7994509454
 40
1.0
 40
1.0
 40
1.0
 40
1.0
 10
135.1181514782
 20
635.2250000014
 30
0.0
 10
135.1920381065
 20
635.2262721464
 30
0.0
 10
135.5310630778
 20
635.2321258166
 30
0.0
 10
135.9735548302
 20
635.2781212073
 30
0.0
 10
136.5079141582
 20
635.4819618269
 30
0.0
 10
136.802140155
 20
635.6934892265
 30
0.0
 10
137.0309388178
 20
636.0173232334
 30
0.0
 10
137.1500388705
 20
636.2919245643
 30
0.0
 10
137.25827847
 20
636.7273712227
 30
0.0
 10
137.2743835682
 20
637.0509963924
 30
0.0
 10
137.2779171032
 20
637.2863281274
 30
0.0
  0
SPLINE
  5
324
100
AcDbEntity
  8
0
100
AcDbSpline
 62
7
  6
BYLAYER
 70
0
 71
3
 72
12
 73
8
 74
0
 42
0.0000001
 43
0.0000001
 44
0.0000000001
 40
0.0
 40
0.0
 40
0.0
 40
0.0
 40
0.1790076431
 40
0.5407650739
 40
0.6681339265
 40
0.8000173671
 40
1.0
 40
1.0
 40
1.0
 40
1.0
 10
137.2779171032
 20
640.4164062514
 30
0.0
 10
137.2771762065
 20
640.4820083564
 30
0.0
 10
137.2728518077
 20
640.6775990866
 30
0.0
 10
137.2333397161
 20
640.9365337324
 30
0.0
 10
137.1095263169
 20
641.131908948
 30
0.0
 10
136.960191048
 20
641.2198878248
 30
0.0
 10
136.8343714315
 20
641.231079692
 30
0.0
 10
136.7611202282
 20
641.2332031254
 30
0.0
  0
SPLINE
  5
325
100
AcDbEntity
  8
0
100
AcDbSpline
 62
7
  6
BYLAYER
 70
0
 71
3
 72
13
 73
9
 74
0
 42
0.0000001
 43
0.0000001
 44
0.0000000001
 40
0.0
 40
0.0
 40
0.0
 40
0.0
 40
0.1972010265
 40
0.3775727376
 40
0.5222325854
 40
0.6628329273
 40
0.8014679029
 40
1.0
 40
1.0
 40
1.0
 40
1.0
 10
139.3029171022
 20
639.4250000004
 30
0.0
 10
139.3164688472
 20
639.5307604037
 30
0.0
 10
139.3458934788
 20
639.7177900213
 30
0.0
 10
139.4420028171
 20
639.9763999984
 30
0.0
 10
139.5859142347
 20
640.189680668
 30
0.0
 10
139.7563661446
 20
640.3366092227
 30
0.0
 10
139.9940848891
 20
640.4529379701
 30
0.0
 10
140.1729722399
 20
640.4714913764
 30
0.0
 10
140.2802608532
 20
640.4750000014
 30
0.0
  0
SPLINE
  5
326
100
AcDbEntity
  8
0
100
AcDbSpline
 62
7
  6
BYLAYER
 70
0
 71
3
 72
14
 73
10
 74
0
 42
0.0000001
 43
0.0000001
 44
0.0000000001
 40
0.0
 40
0.0
 40
0.0
 40
0.0
 40
0.0991248576
 40
0.2417603828
 40
0.3774447124
 40
0.5111874016
 40
0.6481344747
 40
0.7916401861
 40
1.0
 40
1.0
 40
1.0
 40
1.0
 10
140.2802608532
 20
640.4750000014
 30
0.0
 10
140.3348821682
 20
640.474337783
 30
0.0
 10
140.4657817733
 20
640.4678033147
 30
0.0
 10
140.6543907894
 20
640.4216932458
 30
0.0
 10
140.8580077207
 20
640.31714135
 30
0.0
 10
141.0215054665
 20
640.1616251803
 30
0.0
 10
141.1386073225
 20
639.9732586079
 30
0.0
 10
141.2308501288
 20
639.701299861
 30
0.0
 10
141.2515372449
 20
639.5393955787
 30
0.0
 10
141.2611202282
 20
639.4250000004
 30
0.0
  0
SPLINE
  5
327
100
AcDbEntity
  8
0
100
AcDbSpline
 62
7
  6
BYLAYER
 70
0
 71
3
 72
17
 73
13
 74
0
 42
0.0000001
 43
0.0000001
 44
0.0000000001
 40
0.0
 40
0.0
 40
0.0
 40
0.0
 40
0.0842489531
 40
0.2886249842
 40
0.3975229253
 40
0.4911471273
 40
0.5410940334
 40
0.5910409395
 40
0.6936945542
 40
0.7958296411
 40
0.8956105096
 40
1.0
 40
1.0
 40
1.0
 40
1.0
 10
142.3052608542
 20
639.4554687514
 30
0.0
 10
142.3020461275
 20
639.5391100247
 30
0.0
 10
142.2874878166
 20
639.8356890476
 30
0.0
 10
142.1360633499
 20
640.2190945955
 30
0.0
 10
141.9354678356
 20
640.5289811448
 30
0.0
 10
141.7444112385
 20
640.7249409889
 30
0.0
 10
141.5945322352
 20
640.8405942349
 30
0.0
 10
141.4276725935
 20
640.9557261849
 30
0.0
 10
141.2078587989
 20
641.0688771963
 30
0.0
 10
140.9081153498
 20
641.1682758648
 30
0.0
 10
140.6028398617
 20
641.2157607415
 30
0.0
 10
140.4190798965
 20
641.2241716964
 30
0.0
 10
140.3154171032
 20
641.2250000014
 30
0.0
  0
SPLINE
  5
328
100
AcDbEntity
  8
0
100
AcDbSpline
 62
7
  6
BYLAYER
 70
0
 71
3
 72
15
 73
11
 74
0
 42
0.0000001
 43
0.0000001
 44
0.0000000001
 40
0.0
 40
0.0
 40
0.0
 40
0.0
 40
0.1166075943
 40
0.2182307095
 40
0.4076304423
 40
0.5912584952
 40
0.6903174125
 40
0.8015075249
 40
0.9007537625
 40
1.0
 40
1.0
 40
1.0
 40
1.0
 10
140.3154171032
 20
641.2250000014
 30
0.0
 10
140.1826092015
 20
641.222363918
 30
0.0
 10
139.9460186712
 20
641.211205313
 30
0.0
 10
139.4866043435
 20
641.1119846134
 30
0.0
 10
138.9867329617
 20
640.8678968733
 30
0.0
 10
138.6379531931
 20
640.479124227
 30
0.0
 10
138.4304406303
 20
640.0740853093
 30
0.0
 10
138.3252144091
 20
639.7420748382
 30
0.0
 10
138.2629638857
 20
639.3924966236
 30
0.0
 10
138.2549860082
 20
639.1665426114
 30
0.0
 10
138.2529171032
 20
639.0535156264
 30
0.0
  0
SPLINE
  5
329
100
AcDbEntity
  8
0
100
AcDbSpline
 62
7
  6
BYLAYER
 70
0
 71
3
 72
15
 73
11
 74
0
 42
0.0000001
 43
0.0000001
 44
0.0000000001
 40
0.0
 40
0.0
 40
0.0
 40
0.0
 40
0.1217423469
 40
0.3321882826
 40
0.432544679
 40
0.5240724213
 40
0.7052947191
 40
0.8013797674
 40
0.9006898837
 40
1.0
 40
1.0
 40
1.0
 40
1.0
 10
138.2529171032
 20
639.0535156264
 30
0.0
 10
138.2553734215
 20
638.911652643
 30
0.0
 10
138.2701815024
 20
638.5406279856
 30
0.0
 10
138.4034365566
 20
638.0471554852
 30
0.0
 10
138.638656632
 20
637.6471664808
 30
0.0
 10
138.9210141928
 20
637.3166068448
 30
0.0
 10
139.2890556586
 20
637.0778310622
 30
0.0
 10
139.7080620242
 20
636.9424664887
 30
0.0
 10
140.0477728197
 20
636.8845294634
 30
0.0
 10
140.2793936259
 20
636.8775041047
 30
0.0
 10
140.3951046042
 20
636.8750000014
 30
0.0
  0
SPLINE
  5
32A
100
AcDbEntity
  8
0
100
AcDbSpline
 62
7
  6
BYLAYER
 70
0
 71
3
 72
16
 73
12
 74
0
 42
0.0000001
 43
0.0000001
 44
0.0000000001
 40
0.0
 40
0.0
 40
0.0
 40
0.0
 40
0.144161055
 40
0.29121171
 40
0.4409330009
 40
0.5737554789
 40
0.6996362418
 40
0.79847221
 40
0.8994076599
 40
0.9493417245
 40
1.0
 40
1.0
 40
1.0
 40
1.0
 10
140.3951046042
 20
636.8750000014
 30
0.0
 10
140.5088575242
 20
636.8766508814
 30
0.0
 10
140.7314237763
 20
636.8841856319
 30
0.0
 10
141.0810855662
 20
636.9494209722
 30
0.0
 10
141.3877403354
 20
637.061374539
 30
0.0
 10
141.6736798789
 20
637.2101177834
 30
0.0
 10
141.8980316588
 20
637.389834284
 30
0.0
 10
142.0799405516
 20
637.5912450434
 30
0.0
 10
142.1751219213
 20
637.7611569842
 30
0.0
 10
142.232327364
 20
637.9123175042
 30
0.0
 10
142.2396128515
 20
637.9893620014
 30
0.0
 10
142.2419796032
 20
638.0292968764
 30
0.0
  0
SPLINE
  5
32B
100
AcDbEntity
  8
0
100
AcDbSpline
 62
7
  6
BYLAYER
 70
0
 71
3
 72
12
 73
8
 74
0
 42
0.0000001
 43
0.0000001
 44
0.0000000001
 40
0.0
 40
0.0
 40
0.0
 40
0.0
 40
0.200006559
 40
0.3999251817
 40
0.5999178831
 40
0.7999463294
 40
1.0
 40
1.0
 40
1.0
 40
1.0
 10
142.2419796032
 20
638.0292968764
 30
0.0
 10
142.2408487432
 20
638.0679600914
 30
0.0
 10
142.2355008089
 20
638.1457457749
 30
0.0
 10
142.1839297617
 20
638.2528522254
 30
0.0
 10
142.0962213468
 20
638.3322488162
 30
0.0
 10
141.9865827171
 20
638.3760210108
 30
0.0
 10
141.9091469415
 20
638.381847698
 30
0.0
 10
141.8704952282
 20
638.3832031264
 30
0.0
  0
SPLINE
  5
32C
100
AcDbEntity
  8
0
100
AcDbSpline
 62
7
  6
BYLAYER
 70
0
 71
3
 72
10
 73
6
 74
0
 42
0.0000001
 43
0.0000001
 44
0.0000000001
 40
0.0
 40
0.0
 40
0.0
 40
0.0
 40
0.4001232403
 40
0.7998216466
 40
1.0
 40
1.0
 40
1.0
 40
1.0
 10
141.8704952282
 20
638.3832031264
 30
0.0
 10
141.8367940399
 20
638.381933353
 30
0.0
 10
141.7694689685
 20
638.3785883498
 30
0.0
 10
141.6872110007
 20
638.3528062769
 30
0.0
 10
141.6462522515
 20
638.322844368
 30
0.0
 10
141.6326046032
 20
638.3128906264
 30
0.0
  0
SPLINE
  5
32D
100
AcDbEntity
  8
0
100
AcDbSpline
 62
7
  6
BYLAYER
 70
0
 71
3
 72
11
 73
7
 74
0
 42
0.0000001
 43
0.0000001
 44
0.0000000001
 40
0.0
 40
0.0
 40
0.0
 40
0.0
 40
0.2622997579
 40
0.4610651776
 40
0.8010640661
 40
1.0
 40
1.0
 40
1.0
 40
1.0
 10
141.6326046032
 20
638.3128906264
 30
0.0
 10
141.5358630982
 20
638.222564933
 30
0.0
 10
141.3949146014
 20
638.0911313657
 30
0.0
 10
141.0833542716
 20
637.8281706381
 30
0.0
 10
140.729555493
 20
637.6414337975
 30
0.0
 10
140.4638159739
 20
637.628749443
 30
0.0
 10
140.3634639772
 20
637.6250000014
 30
0.0
  0
SPLINE
  5
32E
100
AcDbEntity
  8
0
100
AcDbSpline
 62
7
  6
BYLAYER
 70
0
 71
3
 72
13
 73
9
 74
0
 42
0.0000001
 43
0.0000001
 44
0.0000000001
 40
0.0
 40
0.0
 40
0.0
 40
0.0
 40
0.1138730284
 40
0.2477868181
 40
0.5049176964
 40
0.6457124324
 40
0.7917671446
 40
1.0
 40
1.0
 40
1.0
 40
1.0
 10
140.3634639772
 20
637.6250000014
 30
0.0
 10
140.2950727289
 20
637.6279124347
 30
0.0
 10
140.1448411041
 20
637.6370828537
 30
0.0
 10
139.85913388
 20
637.7284582799
 30
0.0
 10
139.5914540525
 20
637.9395383054
 30
0.0
 10
139.4240601326
 20
638.219489224
 30
0.0
 10
139.3239272805
 20
638.5091469558
 30
0.0
 10
139.3073187655
 20
638.699877008
 30
0.0
 10
139.3029171022
 20
638.8250000014
 30
0.0
  0
SPLINE
  5
32F
100
AcDbEntity
  8
0
100
AcDbSpline
 62
7
  6
BYLAYER
 70
0
 71
3
 72
14
 73
10
 74
0
 42
0.0000001
 43
0.0000001
 44
0.0000000001
 40
0.0
 40
0.0
 40
0.0
 40
0.0
 40
0.273235114
 40
0.4564341035
 40
0.5714899505
 40
0.6277139185
 40
0.6839378865
 40
0.7987830033
 40
1.0
 40
1.0
 40
1.0
 40
1.0
 10
141.4158077282
 20
638.8250000014
 30
0.0
 10
141.5319952865
 20
638.8269201564
 30
0.0
 10
141.7201062689
 20
638.8339445969
 30
0.0
 10
141.9536727322
 20
638.8880322927
 30
0.0
 10
142.094486503
 20
638.9478857798
 30
0.0
 10
142.1694613994
 20
639.0102757276
 30
0.0
 10
142.2303754768
 20
639.0849980562
 30
0.0
 10
142.2963656817
 20
639.2418057455
 30
0.0
 10
142.3035652375
 20
639.3699146297
 30
0.0
 10
142.3052608542
 20
639.4554687514
 30
0.0
  0
SPLINE
  5
330
100
AcDbEntity
  8
0
100
AcDbSpline
 62
7
  6
BYLAYER
 70
0
 71
3
 72
27
 73
23
 74
0
 42
0.0000001
 43
0.0000001
 44
0.0000000001
 40
0.0
 40
0.0
 40
0.0
 40
0.0
 40
0.1132626173
 40
0.1976865943
 40
0.2716674678
 40
0.3322655306
 40
0.4130907788
 40
0.4673314423
 40
0.5499903583
 40
0.5788733116
 40
0.6094946643
 40
0.6824180691
 40
0.7848361215
 40
0.8007088439
 40
0.8292267129
 40
0.8435084048
 40
0.8577084877
 40
0.8721140298
 40
0.9051841705
 40
0.9289565131
 40
0.993891214
 40
1.0
 40
1.0
 40
1.0
 40
1.0
 10
343.0844149078
 20
337.7498124544
 30
0.0
 10
342.7041236857
 20
337.8882843011
 30
0.0
 10
342.0360668535
 20
338.1362386077
 30
0.0
 10
341.0789232818
 20
338.2073575815
 30
0.0
 10
340.3049301039
 20
338.0878970484
 30
0.0
 10
339.5996772263
 20
337.756112755
 30
0.0
 10
339.1541863893
 20
337.1741592519
 30
0.0
 10
339.0744062459
 20
336.3770823372
 30
0.0
 10
339.2537206946
 20
335.8231833357
 30
0.0
 10
339.5978896666
 20
335.4386225891
 30
0.0
 10
339.9694093981
 20
335.1457289696
 30
0.0
 10
340.6500091898
 20
334.8584854657
 30
0.0
 10
341.3188257763
 20
334.6753012563
 30
0.0
 10
341.7561079061
 20
334.3955999166
 30
0.0
 10
341.9075773841
 20
334.2328391892
 30
0.0
 10
341.9311085191
 20
334.0289287386
 30
0.0
 10
341.901835759
 20
333.877043235
 30
0.0
 10
341.7783391947
 20
333.6887330168
 30
0.0
 10
341.5298051143
 20
333.5799498128
 30
0.0
 10
341.1065086266
 20
333.5241827619
 30
0.0
 10
340.7641423663
 20
333.5518573155
 30
0.0
 10
340.5184619534
 20
333.6126239045
 30
0.0
 10
340.4974174711
 20
333.6181321774
 30
0.0
  0
SPLINE
  5
331
100
AcDbEntity
  8
0
100
AcDbSpline
 62
7
  6
BYLAYER
 70
0
 71
3
 72
18
 73
14
 74
0
 42
0.0000001
 43
0.0000001
 44
0.0000000001
 40
0.0
 40
0.0
 40
0.0
 40
0.0
 40
0.1598933539
 40
0.2730323019
 40
0.3844149675
 40
0.5134923635
 40
0.5924753154
 40
0.6723610891
 40
0.7501683192
 40
0.8261412746
 40
0.8688134863
 40
0.9665858054
 40
1.0
 40
1.0
 40
1.0
 40
1.0
 10
339.2256731271
 20
333.0666798794
 30
0.0
 10
339.5932942045
 20
332.9006907261
 30
0.0
 10
340.2265999413
 20
332.608169763
 30
0.0
 10
341.1727048521
 20
332.498910084
 30
0.0
 10
342.0638063669
 20
332.5936404063
 30
0.0
 10
342.8130380718
 20
332.9416482953
 30
0.0
 10
343.2483876693
 20
333.5537540297
 30
0.0
 10
343.36392833
 20
334.1377562838
 30
0.0
 10
343.2966859121
 20
334.7334560793
 30
0.0
 10
343.0282128619
 20
335.1663825541
 30
0.0
 10
342.6292197055
 20
335.5405153923
 30
0.0
 10
342.2372774172
 20
335.7476768672
 30
0.0
 10
341.9322019848
 20
335.8629111671
 30
0.0
 10
341.8541100738
 20
335.8910499439
 30
0.0
  0
SPLINE
  5
332
100
AcDbEntity
  8
0
100
AcDbSpline
 62
7
  6
BYLAYER
 70
0
 71
3
 72
16
 73
12
 74
0
 42
0.0000001
 43
0.0000001
 44
0.0000000001
 40
0.0
 40
0.0
 40
0.0
 40
0.0
 40
0.1287210962
 40
0.257345178
 40
0.376793781
 40
0.4865097346
 40
0.5999860327
 40
0.7193538136
 40
0.8294635378
 40
0.9394431893
 40
1.0
 40
1.0
 40
1.0
 40
1.0
 10
347.0198204325
 20
333.6281992144
 30
0.0
 10
346.8450949948
 20
333.5624918994
 30
0.0
 10
346.496378012
 20
333.4309850896
 30
0.0
 10
345.9500426669
 20
333.3368039431
 30
0.0
 10
345.4297752116
 20
333.4380202542
 30
0.0
 10
345.0272003154
 20
333.7604275056
 30
0.0
 10
344.8406304621
 20
334.22989625
 30
0.0
 10
344.848713049
 20
334.7494710755
 30
0.0
 10
345.0673461524
 20
335.2036309648
 30
0.0
 10
345.4206734769
 20
335.438972073
 30
0.0
 10
345.6610009603
 20
335.5048851926
 30
0.0
 10
345.7476404681
 20
335.5197173156
 30
0.0
  0
SPLINE
  5
333
100
AcDbEntity
  8
0
100
AcDbSpline
 62
7
  6
BYLAYER
 70
0
 71
3
 72
15
 73
11
 74
0
 42
0.0000001
 43
0.0000001
 44
0.0000000001
 40
0.0
 40
0.0
 40
0.0
 40
0.0
 40
0.1821558662
 40
0.3379936119
 40
0.4807274747
 40
0.5737432097
 40
0.7198566684
 40
0.810799494
 40
0.9016872027
 40
1.0
 40
1.0
 40
1.0
 40
1.0
 10
346.9629188982
 20
336.1587842204
 30
0.0
 10
346.5509078924
 20
336.2765542587
 30
0.0
 10
345.7759661079
 20
336.4955635944
 30
0.0
 10
344.6303272112
 20
336.2558872253
 30
0.0
 10
343.9154588287
 20
335.6403523744
 30
0.0
 10
343.5728502892
 20
334.8053286399
 30
0.0
 10
343.5890416668
 20
333.9970284598
 30
0.0
 10
343.9244499585
 20
333.2908744985
 30
0.0
 10
344.4199059915
 20
332.8401720958
 30
0.0
 10
344.8363015292
 20
332.6724057227
 30
0.0
 10
345.0593045831
 20
332.6162384698
 30
0.0
  0
SPLINE
  5
334
100
AcDbEntity
  8
0
100
AcDbSpline
 62
7
  6
BYLAYER
 70
0
 71
3
 72
14
 73
10
 74
0
 42
0.0000001
 43
0.0000001
 44
0.0000000001
 40
0.0
 40
0.0
 40
0.0
 40
0.0
 40
0.1993045738
 40
0.2953946073
 40
0.4756657195
 40
0.6382503289
 40
0.8068797351
 40
0.9120998852
 40
1.0
 40
1.0
 40
1.0
 40
1.0
 10
348.6735425723
 20
334.9750960135
 30
0.0
 10
348.7578908786
 20
335.0910940185
 30
0.0
 10
348.8837929999
 20
335.2631737056
 30
0.0
 10
349.1520493997
 20
335.4835841941
 30
0.0
 10
349.4536614128
 20
335.5792283189
 30
0.0
 10
349.8384988475
 20
335.4632559521
 30
0.0
 10
350.004006633
 20
335.1842739748
 30
0.0
 10
350.0544860329
 20
334.927202616
 30
0.0
 10
350.05917758
 20
334.7882451467
 30
0.0
 10
350.0614970662
 20
334.7250018429
 30
0.0
  0
SPLINE
  5
335
100
AcDbEntity
  8
0
100
AcDbSpline
 62
7
  6
BYLAYER
 70
0
 71
3
 72
9
 73
5
 74
0
 42
0.0000001
 43
0.0000001
 44
0.0000000001
 40
0.0
 40
0.0
 40
0.0
 40
0.0
 40
0.5942608983
 40
1.0
 40
1.0
 40
1.0
 40
1.0
 10
350.0614970665
 20
333.4152443694
 30
0.0
 10
350.2806988854
 20
333.5165514677
 30
0.0
 10
350.6733450657
 20
333.6949376984
 30
0.0
 10
351.069500594
 20
333.7595493967
 30
0.0
 10
351.2318968914
 20
333.7871487084
 30
0.0
  0
SPLINE
  5
336
100
AcDbEntity
  8
0
100
AcDbSpline
 62
7
  6
BYLAYER
 70
0
 71
3
 72
10
 73
6
 74
0
 42
0.0000001
 43
0.0000001
 44
0.0000000001
 40
0.0
 40
0.0
 40
0.0
 40
0.0
 40
0.3239146795
 40
0.6478293594
 40
1.0
 40
1.0
 40
1.0
 40
1.0
 10
351.2318968919
 20
334.9750960139
 30
0.0
 10
351.2249029436
 20
335.0951598404
 30
0.0
 10
351.2121768109
 20
335.3353019554
 30
0.0
 10
351.1043458507
 20
335.6953401724
 30
0.0
 10
350.9611874413
 20
335.9027318287
 30
0.0
 10
350.871937883
 20
335.9967976424
 30
0.0
  0
SPLINE
  5
337
100
AcDbEntity
  8
0
100
AcDbSpline
 62
7
  6
BYLAYER
 70
0
 71
3
 72
13
 73
9
 74
0
 42
0.0000001
 43
0.0000001
 44
0.0000000001
 40
0.0
 40
0.0
 40
0.0
 40
0.0
 40
0.1645585021
 40
0.3920422441
 40
0.6193988414
 40
0.8381027127
 40
0.9915745082
 40
1.0
 40
1.0
 40
1.0
 40
1.0
 10
350.871937883
 20
335.9967976424
 30
0.0
 10
350.77765111
 20
336.0961724985
 30
0.0
 10
350.5139939289
 20
336.2957935831
 30
0.0
 10
349.9968775188
 20
336.4271383847
 30
0.0
 10
349.4271641508
 20
336.3758863225
 30
0.0
 10
348.9787724433
 20
336.1081267638
 30
0.0
 10
348.7702241637
 20
335.8669170446
 30
0.0
 10
348.6801891191
 20
335.7650289647
 30
0.0
 10
348.6754976193
 20
335.7597304895
 30
0.0
  0
SPLINE
  5
338
100
AcDbEntity
  8
0
100
AcDbSpline
 62
7
  6
BYLAYER
 70
0
 71
3
 72
10
 73
6
 74
0
 42
0.0000001
 43
0.0000001
 44
0.0000000001
 40
0.0
 40
0.0
 40
0.0
 40
0.0
 40
0.3981590042
 40
0.8007337379
 40
1.0
 40
1.0
 40
1.0
 40
1.0
 10
351.7845573035
 20
333.7968594494
 30
0.0
 10
351.9592514854
 20
333.7664907427
 30
0.0
 10
352.3188159528
 20
333.7079569611
 30
0.0
 10
352.6847274553
 20
333.4986546616
 30
0.0
 10
352.8877903419
 20
333.3211913799
 30
0.0
 10
352.9547867648
 20
333.2634501566
 30
0.0
  0
SPLINE
  5
339
100
AcDbEntity
  8
0
100
AcDbSpline
 62
7
  6
BYLAYER
 70
0
 71
3
 72
14
 73
10
 74
0
 42
0.0000001
 43
0.0000001
 44
0.0000000001
 40
0.0
 40
0.0
 40
0.0
 40
0.0
 40
0.2005420508
 40
0.2978275857
 40
0.475334111
 40
0.5622567586
 40
0.7209529343
 40
0.8951714877
 40
1.0
 40
1.0
 40
1.0
 40
1.0
 10
352.9547867653
 20
335.0043986001
 30
0.0
 10
353.0367760219
 20
335.1223867152
 30
0.0
 10
353.1557090445
 20
335.2942966664
 30
0.0
 10
353.4063784145
 20
335.5330403884
 30
0.0
 10
353.6464684224
 20
335.6292589423
 30
0.0
 10
353.9564606709
 20
335.6151005455
 30
0.0
 10
354.2278891079
 20
335.4650787538
 30
0.0
 10
354.3446952019
 20
335.1487366593
 30
0.0
 10
354.3519944987
 20
334.9505507199
 30
0.0
 10
354.3550074578
 20
334.8754331467
 30
0.0
  0
SPLINE
  5
33A
100
AcDbEntity
  8
0
100
AcDbSpline
 62
7
  6
BYLAYER
 70
0
 71
3
 72
11
 73
7
 74
0
 42
0.0000001
 43
0.0000001
 44
0.0000000001
 40
0.0
 40
0.0
 40
0.0
 40
0.0
 40
0.1992010207
 40
0.4463456513
 40
0.8071631237
 40
1.0
 40
1.0
 40
1.0
 40
1.0
 10
355.5254072821
 20
334.9721998272
 30
0.0
 10
355.5180015687
 20
335.1181772659
 30
0.0
 10
355.4985278948
 20
335.4558318623
 30
0.0
 10
355.2518039076
 20
336.0048902286
 30
0.0
 10
354.7279887088
 20
336.3566996686
 30
0.0
 10
354.3092793191
 20
336.3895885324
 30
0.0
 10
354.1681182862
 20
336.4000194674
 30
0.0
  0
SPLINE
  5
33B
100
AcDbEntity
  8
0
100
AcDbSpline
 62
7
  6
BYLAYER
 70
0
 71
3
 72
10
 73
6
 74
0
 42
0.0000001
 43
0.0000001
 44
0.0000000001
 40
0.0
 40
0.0
 40
0.0
 40
0.0
 40
0.2015173922
 40
0.5824029392
 40
1.0
 40
1.0
 40
1.0
 40
1.0
 10
354.1681182862
 20
336.4000194674
 30
0.0
 10
354.0747746044
 20
336.3945614424
 30
0.0
 10
353.8062396575
 20
336.3824996645
 30
0.0
 10
353.347577451
 20
336.203760778
 30
0.0
 10
353.0912902502
 20
335.9354129146
 30
0.0
 10
352.9547867655
 20
335.7969313497
 30
0.0
  0
SPLINE
  5
33C
100
AcDbEntity
  8
0
100
AcDbSpline
 62
7
  6
BYLAYER
 70
0
 71
3
 72
12
 73
8
 74
0
 42
0.0000001
 43
0.0000001
 44
0.0000000001
 40
0.0
 40
0.0
 40
0.0
 40
0.0
 40
0.2052068349
 40
0.3619204814
 40
0.5309879415
 40
0.723778865
 40
1.0
 40
1.0
 40
1.0
 40
1.0
 10
361.5520293794
 20
337.8983697544
 30
0.0
 10
361.5236650271
 20
337.9589459994
 30
0.0
 10
361.4672796723
 20
338.0555293231
 30
0.0
 10
361.3111099446
 20
338.1457863312
 30
0.0
 10
361.1439192161
 20
338.1765663597
 30
0.0
 10
360.9335254372
 20
338.1540483446
 30
0.0
 10
360.7955798648
 20
338.0857806534
 30
0.0
 10
360.7146909318
 20
338.0460752334
 30
0.0
  0
SPLINE
  5
33D
100
AcDbEntity
  8
0
100
AcDbSpline
 62
7
  6
BYLAYER
 70
0
 71
3
 72
11
 73
7
 74
0
 42
0.0000001
 43
0.0000001
 44
0.0000000001
 40
0.0
 40
0.0
 40
0.0
 40
0.0
 40
0.1984839242
 40
0.3967522575
 40
0.7512940191
 40
1.0
 40
1.0
 40
1.0
 40
1.0
 10
360.7146909318
 20
338.0460752334
 30
0.0
 10
360.6554263851
 20
338.0050943417
 30
0.0
 10
360.5358417704
 20
337.9237705126
 30
0.0
 10
360.3546383679
 20
337.7191823182
 30
0.0
 10
360.2230925197
 20
337.4468036466
 30
0.0
 10
360.2535681429
 20
337.232627424
 30
0.0
 10
360.2756632241
 20
337.1448503324
 30
0.0
  0
SPLINE
  5
33E
100
AcDbEntity
  8
0
100
AcDbSpline
 62
7
  6
BYLAYER
 70
0
 71
3
 72
10
 73
6
 74
0
 42
0.0000001
 43
0.0000001
 44
0.0000000001
 40
0.0
 40
0.0
 40
0.0
 40
0.0
 40
0.4282998544
 40
0.7541934705
 40
1.0
 40
1.0
 40
1.0
 40
1.0
 10
360.2756632241
 20
337.1448503324
 30
0.0
 10
360.3037356222
 20
337.0841891007
 30
0.0
 10
360.3596898995
 20
336.9877219708
 30
0.0
 10
360.5006373838
 20
336.9064736959
 30
0.0
 10
360.587679133
 20
336.8855487323
 30
0.0
 10
360.6256587235
 20
336.8804961007
 30
0.0
  0
SPLINE
  5
33F
100
AcDbEntity
  8
0
100
AcDbSpline
 62
7
  6
BYLAYER
 70
0
 71
3
 72
10
 73
6
 74
0
 42
0.0000001
 43
0.0000001
 44
0.0000000001
 40
0.0
 40
0.0
 40
0.0
 40
0.0
 40
0.0983690894
 40
0.4696161868
 40
1.0
 40
1.0
 40
1.0
 40
1.0
 10
360.6256587235
 20
336.8804961007
 30
0.0
 10
360.6421713233
 20
336.8782993397
 30
0.0
 10
360.7215040239
 20
336.8713713335
 30
0.0
 10
360.89298032
 20
336.8897141157
 30
0.0
 10
361.0310811922
 20
336.9575607117
 30
0.0
 10
361.1119794892
 20
336.9969744884
 30
0.0
  0
SPLINE
  5
340
100
AcDbEntity
  8
0
100
AcDbSpline
 62
7
  6
BYLAYER
 70
0
 71
3
 72
11
 73
7
 74
0
 42
0.0000001
 43
0.0000001
 44
0.0000000001
 40
0.0
 40
0.0
 40
0.0
 40
0.0
 40
0.1984328786
 40
0.3966558078
 40
0.7509780574
 40
1.0
 40
1.0
 40
1.0
 40
1.0
 10
361.1119794892
 20
336.9969744884
 30
0.0
 10
361.1711096093
 20
337.038121895
 30
0.0
 10
361.2904183218
 20
337.119784389
 30
0.0
 10
361.4714284424
 20
337.3243679922
 30
0.0
 10
361.6036054628
 20
337.5963298479
 30
0.0
 10
361.5739484048
 20
337.810419911
 30
0.0
 10
361.5520293794
 20
337.8983697544
 30
0.0
  0
SPLINE
  5
341
100
AcDbEntity
  8
0
100
AcDbSpline
 62
7
  6
BYLAYER
 70
0
 71
3
 72
14
 73
10
 74
0
 42
0.0000001
 43
0.0000001
 44
0.0000000001
 40
0.0
 40
0.0
 40
0.0
 40
0.0
 40
0.3285716455
 40
0.4273631549
 40
0.5963361219
 40
0.6803451094
 40
0.7641354639
 40
0.8688634854
 40
1.0
 40
1.0
 40
1.0
 40
1.0
 10
372.0515550288
 20
334.2156138566
 30
0.0
 10
372.1440055531
 20
334.4514850435
 30
0.0
 10
372.2657653784
 20
334.7594326194
 30
0.0
 10
372.5477512309
 20
335.1224800694
 30
0.0
 10
372.7721037303
 20
335.2812339225
 30
0.0
 10
373.0351707727
 20
335.3133815821
 30
0.0
 10
373.2419833019
 20
335.2732903566
 30
0.0
 10
373.468372581
 20
335.1755988044
 30
0.0
 10
373.6224509248
 20
335.0815057956
 30
0.0
 10
373.7081733546
 20
335.0291013622
 30
0.0
  0
SPLINE
  5
342
100
AcDbEntity
  8
0
100
AcDbSpline
 62
7
  6
BYLAYER
 70
0
 71
3
 72
13
 73
9
 74
0
 42
0.0000001
 43
0.0000001
 44
0.0000000001
 40
0.0
 40
0.0
 40
0.0
 40
0.0
 40
0.1972902224
 40
0.3649477309
 40
0.5345567841
 40
0.7513938926
 40
0.98570886
 40
1.0
 40
1.0
 40
1.0
 40
1.0
 10
374.0301610798
 20
336.0625286312
 30
0.0
 10
373.8895775413
 20
336.1633457446
 30
0.0
 10
373.6293619068
 20
336.3579108971
 30
0.0
 10
373.1462224317
 20
336.4408182708
 30
0.0
 10
372.6864497734
 20
336.231179584
 30
0.0
 10
372.3338816336
 20
335.8068204004
 30
0.0
 10
372.1526636115
 20
335.4366167879
 30
0.0
 10
372.0580468487
 20
335.2402609833
 30
0.0
 10
372.0526104976
 20
335.2289813808
 30
0.0
  0
SPLINE
  5
343
100
AcDbEntity
  8
0
100
AcDbSpline
 62
7
  6
BYLAYER
 70
0
 71
3
 72
17
 73
13
 74
0
 42
0.0000001
 43
0.0000001
 44
0.0000000001
 40
0.0
 40
0.0
 40
0.0
 40
0.0
 40
0.129775302
 40
0.2221473509
 40
0.3772889845
 40
0.4483505603
 40
0.5192832698
 40
0.6778893869
 40
0.7590883686
 40
0.9030856379
 40
0.9733770123
 40
1.0
 40
1.0
 40
1.0
 40
1.0
 10
372.9861712502
 20
329.2406479634
 30
0.0
 10
372.8790443726
 20
329.1988862801
 30
0.0
 10
372.6948193944
 20
329.1258750156
 30
0.0
 10
372.3680379862
 20
329.082679267
 30
0.0
 10
372.0850171107
 20
329.1403512852
 30
0.0
 10
371.8748581228
 20
329.3043873657
 30
0.0
 10
371.728268987
 20
329.5300393491
 30
0.0
 10
371.6943794801
 20
329.8126830912
 30
0.0
 10
371.7587838636
 20
330.1469896529
 30
0.0
 10
371.9062999933
 20
330.3715354966
 30
0.0
 10
372.0962305458
 20
330.4740573825
 30
0.0
 10
372.1790521337
 20
330.4983396063
 30
0.0
 10
372.2021424692
 20
330.5037640815
 30
0.0
  0
SPLINE
  5
344
100
AcDbEntity
  8
0
100
AcDbSpline
 62
7
  6
BYLAYER
 70
0
 71
3
 72
19
 73
15
 74
0
 42
0.0000001
 43
0.0000001
 44
0.0000000001
 40
0.0
 40
0.0
 40
0.0
 40
0.0
 40
0.0995786387
 40
0.1544666731
 40
0.2570204103
 40
0.3546360149
 40
0.4072414194
 40
0.5255439314
 40
0.6294788802
 40
0.7306246175
 40
0.8367041199
 40
0.8952831952
 40
0.9769999685
 40
1.0
 40
1.0
 40
1.0
 40
1.0
 10
372.9386397292
 20
330.7580790024
 30
0.0
 10
372.7891195425
 20
330.810491189
 30
0.0
 10
372.5551224113
 20
330.8940605262
 30
0.0
 10
372.154094129
 20
330.9143003216
 30
0.0
 10
371.7530955265
 20
330.8003058925
 30
0.0
 10
371.4694025355
 20
330.5080178161
 30
0.0
 10
371.2995507828
 20
330.1130424288
 30
0.0
 10
371.2559053606
 20
329.6786341639
 30
0.0
 10
371.3924395755
 20
329.1794154053
 30
0.0
 10
371.7566724503
 20
328.8188937901
 30
0.0
 10
372.1689455441
 20
328.7003559811
 30
0.0
 10
372.5614580284
 20
328.7120976577
 30
0.0
 10
372.794169875
 20
328.7634762432
 30
0.0
 10
372.9518261714
 20
328.8181429043
 30
0.0
 10
372.9861712504
 20
328.8299006593
 30
0.0
  0
SPLINE
  5
345
100
AcDbEntity
  8
0
100
AcDbSpline
 62
7
  6
BYLAYER
 70
0
 71
3
 72
11
 73
7
 74
0
 42
0.0000001
 43
0.0000001
 44
0.0000000001
 40
0.0
 40
0.0
 40
0.0
 40
0.0
 40
0.4056564762
 40
0.6038319041
 40
0.8021611795
 40
1.0
 40
1.0
 40
1.0
 40
1.0
 10
369.9090589305
 20
331.6753181074
 30
0.0
 10
369.865872344
 20
331.645612584
 30
0.0
 10
369.8065468412
 20
331.5993136269
 30
0.0
 10
369.7570168675
 20
331.5065810511
 30
0.0
 10
369.7351254756
 20
331.4311310095
 30
0.0
 10
369.7456159752
 20
331.380109697
 30
0.0
 10
369.7516427097
 20
331.3552043854
 30
0.0
  0
SPLINE
  5
346
100
AcDbEntity
  8
0
100
AcDbSpline
 62
7
  6
BYLAYER
 70
0
 71
3
 72
11
 73
7
 74
0
 42
0.0000001
 43
0.0000001
 44
0.0000000001
 40
0.0
 40
0.0
 40
0.0
 40
0.0
 40
0.1546271625
 40
0.309254325
 40
0.6176306523
 40
1.0
 40
1.0
 40
1.0
 40
1.0
 10
369.7516427097
 20
331.3552043854
 30
0.0
 10
369.7564698165
 20
331.3447682504
 30
0.0
 10
369.7660297736
 20
331.3237700245
 30
0.0
 10
369.7968891641
 20
331.2890922464
 30
0.0
 10
369.8546559598
 20
331.2600698497
 30
0.0
 10
369.907107705
 20
331.2584190213
 30
0.0
 10
369.9355554169
 20
331.2624790317
 30
0.0
  0
SPLINE
  5
347
100
AcDbEntity
  8
0
100
AcDbSpline
 62
7
  6
BYLAYER
 70
0
 71
3
 72
9
 73
5
 74
0
 42
0.0000001
 43
0.0000001
 44
0.0000000001
 40
0.0
 40
0.0
 40
0.0
 40
0.0
 40
0.4287937238
 40
1.0
 40
1.0
 40
1.0
 40
1.0
 10
369.9355554169
 20
331.2624790317
 30
0.0
 10
369.9528589276
 20
331.2649485601
 30
0.0
 10
369.9927059514
 20
331.2749993882
 30
0.0
 10
370.0286823203
 20
331.2928716114
 30
0.0
 10
370.0494387636
 20
331.3029026764
 30
0.0
  0
SPLINE
  5
348
100
AcDbEntity
  8
0
100
AcDbSpline
 62
7
  6
BYLAYER
 70
0
 71
3
 72
10
 73
6
 74
0
 42
0.0000001
 43
0.0000001
 44
0.0000000001
 40
0.0
 40
0.0
 40
0.0
 40
0.0
 40
0.6018604809
 40
0.8958435083
 40
1.0
 40
1.0
 40
1.0
 40
1.0
 10
370.0494387636
 20
331.3029026764
 30
0.0
 10
370.0924142776
 20
331.3328180997
 30
0.0
 10
370.1514388347
 20
331.3793358673
 30
0.0
 10
370.1929908063
 20
331.4571144751
 30
0.0
 10
370.2050526441
 20
331.4901969927
 30
0.0
 10
370.2077207273
 20
331.4989510416
 30
0.0
  0
SPLINE
  5
349
100
AcDbEntity
  8
0
100
AcDbSpline
 62
7
  6
BYLAYER
 70
0
 71
3
 72
9
 73
5
 74
0
 42
0.0000001
 43
0.0000001
 44
0.0000000001
 40
0.0
 40
0.0
 40
0.0
 40
0.0
 40
0.3931453322
 40
1.0
 40
1.0
 40
1.0
 40
1.0
 10
370.2077207273
 20
331.4989510416
 30
0.0
 10
370.2125905842
 20
331.5149291655
 30
0.0
 10
370.2208474277
 20
331.5564132147
 30
0.0
 10
370.2114912755
 20
331.5982534167
 30
0.0
 10
370.2049809827
 20
331.6230163984
 30
0.0
  0
SPLINE
  5
34A
100
AcDbEntity
  8
0
100
AcDbSpline
 62
7
  6
BYLAYER
 70
0
 71
3
 72
12
 73
8
 74
0
 42
0.0000001
 43
0.0000001
 44
0.0000000001
 40
0.0
 40
0.0
 40
0.0
 40
0.0
 40
0.1001280589
 40
0.2002561177
 40
0.4610220902
 40
0.6616225133
 40
1.0
 40
1.0
 40
1.0
 40
1.0
 10
370.2049809827
 20
331.6230163984
 30
0.0
 10
370.2002202945
 20
331.63344944
 30
0.0
 10
370.1908007752
 20
331.6544265764
 30
0.0
 10
370.1558080555
 20
331.6947756596
 30
0.0
 10
370.0938066474
 20
331.7206694288
 30
0.0
 10
370.0004894169
 20
331.7195363877
 30
0.0
 10
369.9438214492
 20
331.692519109
 30
0.0
 10
369.9090589305
 20
331.6753181074
 30
0.0
  0
SPLINE
  5
34B
100
AcDbEntity
  8
0
100
AcDbSpline
 62
7
  6
BYLAYER
 70
0
 71
3
 72
12
 73
8
 74
0
 42
0.0000001
 43
0.0000001
 44
0.0000000001
 40
0.0
 40
0.0
 40
0.0
 40
0.0
 40
0.1976009141
 40
0.4652894978
 40
0.675421614
 40
0.7748834381
 40
1.0
 40
1.0
 40
1.0
 40
1.0
 10
367.5481563429
 20
329.8508913645
 30
0.0
 10
367.5557951219
 20
329.9405348631
 30
0.0
 10
367.5777003506
 20
330.1597622795
 30
0.0
 10
367.7548740826
 20
330.4237852088
 30
0.0
 10
368.0251644265
 20
330.5293472864
 30
0.0
 10
368.2627026316
 20
330.4512132485
 30
0.0
 10
368.3730607632
 20
330.3592279997
 30
0.0
 10
368.4497219729
 20
330.2916227114
 30
0.0
  0
SPLINE
  5
34C
100
AcDbEntity
  8
0
100
AcDbSpline
 62
7
  6
BYLAYER
 70
0
 71
3
 72
14
 73
10
 74
0
 42
0.0000001
 43
0.0000001
 44
0.0000000001
 40
0.0
 40
0.0
 40
0.0
 40
0.0
 40
0.1969356916
 40
0.4272020603
 40
0.5383667914
 40
0.6603603363
 40
0.820566985
 40
0.98978938
 40
1.0
 40
1.0
 40
1.0
 40
1.0
 10
368.6703431917
 20
330.6587568633
 30
0.0
 10
368.5999314987
 20
330.7209713584
 30
0.0
 10
368.4436661287
 20
330.8558771559
 30
0.0
 10
368.1800796256
 20
330.9289893156
 30
0.0
 10
367.9679932748
 20
330.8598466572
 30
0.0
 10
367.817480309
 20
330.743629325
 30
0.0
 10
367.6791448214
 20
330.5775336872
 30
0.0
 10
367.595533971
 20
330.4387723605
 30
0.0
 10
367.5512997192
 20
330.3655778386
 30
0.0
 10
367.5487812082
 20
330.3614138766
 30
0.0
  0
SPLINE
  5
34D
100
AcDbEntity
  8
0
100
AcDbSpline
 62
7
  6
BYLAYER
 70
0
 71
3
 72
13
 73
9
 74
0
 42
0.0000001
 43
0.0000001
 44
0.0000000001
 40
0.0
 40
0.0
 40
0.0
 40
0.0
 40
0.3641045028
 40
0.5073828322
 40
0.7028648408
 40
0.8057790228
 40
0.9340003532
 40
1.0
 40
1.0
 40
1.0
 40
1.0
 10
366.0625833486
 20
329.2396257804
 30
0.0
 10
365.9548256422
 20
329.183322162
 30
0.0
 10
365.8030643372
 20
329.1048464721
 30
0.0
 10
365.5703138616
 20
329.0708008835
 30
0.0
 10
365.4196300893
 20
329.1127331853
 30
0.0
 10
365.3211925819
 20
329.2197249636
 30
0.0
 10
365.2912099987
 20
329.3164710551
 30
0.0
 10
365.287898398
 20
329.3809062454
 30
0.0
 10
365.2865758957
 20
329.4028343739
 30
0.0
  0
SPLINE
  5
34E
100
AcDbEntity
  8
0
100
AcDbSpline
 62
7
  6
BYLAYER
 70
0
 71
3
 72
17
 73
13
 74
0
 42
0.0000001
 43
0.0000001
 44
0.0000000001
 40
0.0
 40
0.0
 40
0.0
 40
0.0
 40
0.1310208623
 40
0.2247935791
 40
0.3815894667
 40
0.4532985728
 40
0.5248768059
 40
0.6849808657
 40
0.7667183676
 40
0.9123520278
 40
0.9834957146
 40
1.0
 40
1.0
 40
1.0
 40
1.0
 10
363.4354020239
 20
329.2406479634
 30
0.0
 10
363.3283250929
 20
329.19870559
 30
0.0
 10
363.143655052
 20
329.1251053214
 30
0.0
 10
362.8165412806
 20
329.0828895527
 30
0.0
 10
362.5334048228
 20
329.1409410515
 30
0.0
 10
362.3232871989
 20
329.3053004324
 30
0.0
 10
362.1771134628
 20
329.5311189989
 30
0.0
 10
362.1436049266
 20
329.81369223
 30
0.0
 10
362.2086803883
 20
330.1478982765
 30
0.0
 10
362.3573037576
 20
330.3720284873
 30
0.0
 10
362.5397378342
 20
330.4698236399
 30
0.0
 10
362.6133399339
 20
330.4930825376
 30
0.0
 10
362.6273456047
 20
330.4969911814
 30
0.0
  0
SPLINE
  5
34F
100
AcDbEntity
  8
0
100
AcDbSpline
 62
7
  6
BYLAYER
 70
0
 71
3
 72
19
 73
15
 74
0
 42
0.0000001
 43
0.0000001
 44
0.0000000001
 40
0.0
 40
0.0
 40
0.0
 40
0.0
 40
0.0995697292
 40
0.1544762547
 40
0.256984317
 40
0.3545804633
 40
0.4072213683
 40
0.5257804415
 40
0.6298101227
 40
0.7309402202
 40
0.8370392035
 40
0.8957137832
 40
0.9777386437
 40
1.0
 40
1.0
 40
1.0
 40
1.0
 10
363.3888926859
 20
330.7580790024
 30
0.0
 10
363.2395582327
 20
330.810503209
 30
0.0
 10
363.0057962504
 20
330.8941149968
 30
0.0
 10
362.6052793356
 20
330.914262098
 30
0.0
 10
362.2047407544
 20
330.800353306
 30
0.0
 10
361.9216839653
 20
330.5080006143
 30
0.0
 10
361.7523458997
 20
330.1128058804
 30
0.0
 10
361.708977378
 20
329.6783167017
 30
0.0
 10
361.8452594224
 20
329.1789623894
 30
0.0
 10
362.2091461314
 20
328.8185784916
 30
0.0
 10
362.6211835564
 20
328.7003738865
 30
0.0
 10
363.0141363847
 20
328.7120631759
 30
0.0
 10
363.2455670235
 20
328.7634899341
 30
0.0
 10
363.4022300221
 20
328.8184199865
 30
0.0
 10
363.435402024
 20
328.8299006581
 30
0.0
  0
SPLINE
  5
350
100
AcDbEntity
  8
0
100
AcDbSpline
 62
7
  6
BYLAYER
 70
0
 71
3
 72
14
 73
10
 74
0
 42
0.0000001
 43
0.0000001
 44
0.0000000001
 40
0.0
 40
0.0
 40
0.0
 40
0.0
 40
0.1402742965
 40
0.3034935065
 40
0.4667879125
 40
0.6367507887
 40
0.7999881652
 40
0.9003947061
 40
1.0
 40
1.0
 40
1.0
 40
1.0
 10
357.2259794892
 20
334.8841217034
 30
0.0
 10
357.2448910885
 20
335.0024482534
 30
0.0
 10
357.2853427506
 20
335.2604796981
 30
0.0
 10
357.5381514443
 20
335.5958179801
 30
0.0
 10
357.9483371737
 20
335.7293735319
 30
0.0
 10
358.3854800187
 20
335.6740128426
 30
0.0
 10
358.677727975
 20
335.4217984009
 30
0.0
 10
358.8008700204
 20
335.1373958451
 30
0.0
 10
358.8282592163
 20
334.9680658617
 30
0.0
 10
358.8422215758
 20
334.8841217034
 30
0.0
  0
SPLINE
  5
351
100
AcDbEntity
  8
0
100
AcDbSpline
 62
7
  6
BYLAYER
 70
0
 71
3
 72
12
 73
8
 74
0
 42
0.0000001
 43
0.0000001
 44
0.0000000001
 40
0.0
 40
0.0
 40
0.0
 40
0.0
 40
0.1564184102
 40
0.3148079979
 40
0.6916900331
 40
0.9467396309
 40
1.0
 40
1.0
 40
1.0
 40
1.0
 10
357.9539443282
 20
336.3991676494
 30
0.0
 10
357.8190602304
 20
336.3893389977
 30
0.0
 10
357.5456140611
 20
336.3703952714
 30
0.0
 10
356.9767297192
 20
336.2258866386
 30
0.0
 10
356.3976175301
 20
335.7938656326
 30
0.0
 10
356.1277007288
 20
335.2590595591
 30
0.0
 10
356.0560685329
 20
335.0024442726
 30
0.0
 10
356.0451821008
 20
334.9577359197
 30
0.0
  0
SPLINE
  5
352
100
AcDbEntity
  8
0
100
AcDbSpline
 62
7
  6
BYLAYER
 70
0
 71
3
 72
8
 73
4
 74
0
 42
0.0000001
 43
0.0000001
 44
0.0000000001
 40
0.0
 40
0.0
 40
0.0
 40
0.0
 40
1.0
 40
1.0
 40
1.0
 40
1.0
 10
356.0451821008
 20
334.9577359197
 30
0.0
 10
355.9739789968
 20
334.6653193143
 30
0.0
 10
355.9664299812
 20
334.3567234081
 30
0.0
 10
356.0228829584
 20
334.0594989514
 30
0.0
  0
SPLINE
  5
353
100
AcDbEntity
  8
0
100
AcDbSpline
 62
7
  6
BYLAYER
 70
0
 71
3
 72
9
 73
5
 74
0
 42
0.0000001
 43
0.0000001
 44
0.0000000001
 40
0.0
 40
0.0
 40
0.0
 40
0.0
 40
0.0272830038
 40
1.0
 40
1.0
 40
1.0
 40
1.0
 10
356.0228829584
 20
334.0594989514
 30
0.0
 10
356.0236101433
 20
334.055670329
 30
0.0
 10
356.0506527856
 20
333.9154095434
 30
0.0
 10
356.0919631789
 20
333.7777626882
 30
0.0
 10
356.1469461819
 20
333.6506656964
 30
0.0
  0
SPLINE
  5
354
100
AcDbEntity
  8
0
100
AcDbSpline
 62
7
  6
BYLAYER
 70
0
 71
3
 72
11
 73
7
 74
0
 42
0.0000001
 43
0.0000001
 44
0.0000000001
 40
0.0
 40
0.0
 40
0.0
 40
0.0
 40
0.1304241485
 40
0.4963567637
 40
0.886240749
 40
1.0
 40
1.0
 40
1.0
 40
1.0
 10
356.1469461819
 20
333.6506656964
 30
0.0
 10
356.1769436697
 20
333.5813244409
 30
0.0
 10
356.3078703804
 20
333.3251282508
 30
0.0
 10
356.6610162725
 20
332.9381384455
 30
0.0
 10
357.1157267624
 20
332.7075752197
 30
0.0
 10
357.3955627107
 20
332.6292130962
 30
0.0
 10
357.4593149488
 20
332.614025088
 30
0.0
  0
SPLINE
  5
355
100
AcDbEntity
  8
0
100
AcDbSpline
 62
7
  6
BYLAYER
 70
0
 71
3
 72
8
 73
4
 74
0
 42
0.0000001
 43
0.0000001
 44
0.0000000001
 40
0.0
 40
0.0
 40
0.0
 40
0.0
 40
1.0
 40
1.0
 40
1.0
 40
1.0
 10
357.4593149488
 20
332.614025088
 30
0.0
 10
357.5480086642
 20
332.5928951494
 30
0.0
 10
357.6377571159
 20
332.5766269251
 30
0.0
 10
357.727764292
 20
332.5644041293
 30
0.0
  0
SPLINE
  5
356
100
AcDbEntity
  8
0
100
AcDbSpline
 62
7
  6
BYLAYER
 70
0
 71
3
 72
9
 73
5
 74
0
 42
0.0000001
 43
0.0000001
 44
0.0000000001
 40
0.0
 40
0.0
 40
0.0
 40
0.0
 40
0.3413342121
 40
1.0
 40
1.0
 40
1.0
 40
1.0
 10
357.727764292
 20
332.5644041293
 30
0.0
 10
357.8260625447
 20
332.5510554217
 30
0.0
 10
358.1149490204
 20
332.5260838343
 30
0.0
 10
358.3975845783
 20
332.5333996034
 30
0.0
 10
358.5834292406
 20
332.5552370781
 30
0.0
  0
SPLINE
  5
357
100
AcDbEntity
  8
0
100
AcDbSpline
 62
7
  6
BYLAYER
 70
0
 71
3
 72
15
 73
11
 74
0
 42
0.0000001
 43
0.0000001
 44
0.0000000001
 40
0.0
 40
0.0
 40
0.0
 40
0.0
 40
0.0998735007
 40
0.1997470014
 40
0.395328411
 40
0.5822338331
 40
0.732202222
 40
0.8032531807
 40
0.872978314
 40
1.0
 40
1.0
 40
1.0
 40
1.0
 10
359.8097180249
 20
333.7575053944
 30
0.0
 10
359.7189760483
 20
333.695684726
 30
0.0
 10
359.5377605389
 20
333.5723100021
 30
0.0
 10
359.1589202144
 20
333.3546275079
 30
0.0
 10
358.651917582
 20
333.2103433472
 30
0.0
 10
358.0497364326
 20
333.2353062095
 30
0.0
 10
357.6298732193
 20
333.4190308821
 30
0.0
 10
357.4021706128
 20
333.6505225039
 30
0.0
 10
357.2527496371
 20
333.911010173
 30
0.0
 10
357.2216774972
 20
334.1277641717
 30
0.0
 10
357.200935998
 20
334.2667230184
 30
0.0
  0
SPLINE
  5
358
100
AcDbEntity
  8
0
100
AcDbSpline
 62
7
  6
BYLAYER
 70
0
 71
3
 72
10
 73
6
 74
0
 42
0.0000001
 43
0.0000001
 44
0.0000000001
 40
0.0
 40
0.0
 40
0.0
 40
0.0
 40
0.3939487677
 40
0.5968422001
 40
1.0
 40
1.0
 40
1.0
 40
1.0
 10
359.8753081159
 20
334.2667230184
 30
0.0
 10
359.8697765323
 20
334.4830604817
 30
0.0
 10
359.8622208044
 20
334.8121723324
 30
0.0
 10
359.7098592076
 20
335.3421161772
 30
0.0
 10
359.5341000043
 20
335.6298654611
 30
0.0
 10
359.3863425093
 20
335.7945797006
 30
0.0
  0
SPLINE
  5
359
100
AcDbEntity
  8
0
100
AcDbSpline
 62
7
  6
BYLAYER
 70
0
 71
3
 72
10
 73
6
 74
0
 42
0.0000001
 43
0.0000001
 44
0.0000000001
 40
0.0
 40
0.0
 40
0.0
 40
0.0
 40
0.4011290236
 40
0.5987205897
 40
1.0
 40
1.0
 40
1.0
 40
1.0
 10
359.3863425093
 20
335.7945797006
 30
0.0
 10
359.2433963052
 20
335.9539305024
 30
0.0
 10
358.9869746576
 20
336.154469998
 30
0.0
 10
358.4888573352
 20
336.353493935
 30
0.0
 10
358.1677453603
 20
336.3805035877
 30
0.0
 10
357.9539443282
 20
336.3991676494
 30
0.0
  0
SPLINE
  5
35A
100
AcDbEntity
  8
0
100
AcDbSpline
 62
7
  6
BYLAYER
 70
0
 71
3
 72
17
 73
13
 74
0
 42
0.0000001
 43
0.0000001
 44
0.0000000001
 40
0.0
 40
0.0
 40
0.0
 40
0.0
 40
0.064121901
 40
0.1230503804
 40
0.2411562458
 40
0.3546837245
 40
0.472360385
 40
0.6162122777
 40
0.7742195431
 40
0.8369247958
 40
0.8946593656
 40
1.0
 40
1.0
 40
1.0
 40
1.0
 10
364.7514629631
 20
333.6213846574
 30
0.0
 10
364.6889600361
 20
333.568750144
 30
0.0
 10
364.569080554
 20
333.4673418653
 30
0.0
 10
364.2964103173
 20
333.3210673478
 30
0.0
 10
363.907142617
 20
333.2869372165
 30
0.0
 10
363.4869888553
 20
333.4730823152
 30
0.0
 10
363.2139331565
 20
333.8854004068
 30
0.0
 10
363.1326374719
 20
334.4208935923
 30
0.0
 10
363.1797124158
 20
334.8827751503
 30
0.0
 10
363.3232502344
 20
335.2106525434
 30
0.0
 10
363.5013800392
 20
335.4418351961
 30
0.0
 10
363.6853334704
 20
335.5452401942
 30
0.0
 10
363.8133234126
 20
335.5822566537
 30
0.0
  0
SPLINE
  5
35B
100
AcDbEntity
  8
0
100
AcDbSpline
 62
7
  6
BYLAYER
 70
0
 71
3
 72
12
 73
8
 74
0
 42
0.0000001
 43
0.0000001
 44
0.0000000001
 40
0.0
 40
0.0
 40
0.0
 40
0.0
 40
0.1410671289
 40
0.2826132044
 40
0.5226448815
 40
0.7462219487
 40
1.0
 40
1.0
 40
1.0
 40
1.0
 10
364.7514629631
 20
336.1666209584
 30
0.0
 10
364.6288160393
 20
336.2186377334
 30
0.0
 10
364.3827279403
 20
336.3245474556
 30
0.0
 10
363.8997920627
 20
336.4202513585
 30
0.0
 10
363.3184448176
 20
336.3864919756
 30
0.0
 10
362.6889299988
 20
336.1141651994
 30
0.0
 10
362.3798395158
 20
335.7684980445
 30
0.0
 10
362.255841708
 20
335.562033839
 30
0.0
  0
SPLINE
  5
35C
100
AcDbEntity
  8
0
100
AcDbSpline
 62
7
  6
BYLAYER
 70
0
 71
3
 72
10
 73
6
 74
0
 42
0.0000001
 43
0.0000001
 44
0.0000000001
 40
0.0
 40
0.0
 40
0.0
 40
0.0
 40
0.5336833272
 40
0.9332503763
 40
1.0
 40
1.0
 40
1.0
 40
1.0
 10
362.0951254978
 20
335.221493041
 30
0.0
 10
361.9908993803
 20
334.9284552988
 30
0.0
 10
361.9338292861
 20
334.3776766164
 30
0.0
 10
362.0571169962
 20
333.794492513
 30
0.0
 10
362.1691854487
 20
333.5443985305
 30
0.0
 10
362.1863148871
 20
333.5091289596
 30
0.0
  0
SPLINE
  5
35D
100
AcDbEntity
  8
0
100
AcDbSpline
 62
7
  6
BYLAYER
 70
0
 71
3
 72
10
 73
6
 74
0
 42
0.0000001
 43
0.0000001
 44
0.0000000001
 40
0.0
 40
0.0
 40
0.0
 40
0.0
 40
0.5299821516
 40
0.9188699447
 40
1.0
 40
1.0
 40
1.0
 40
1.0
 10
362.1863148871
 20
333.5091289596
 30
0.0
 10
362.3104372907
 20
333.2535605168
 30
0.0
 10
362.62465667
 20
332.8586603811
 30
0.0
 10
363.1154083054
 20
332.6214701033
 30
0.0
 10
363.3609797235
 20
332.5691615942
 30
0.0
 10
363.4036776964
 20
332.5616760157
 30
0.0
  0
SPLINE
  5
35E
100
AcDbEntity
  8
0
100
AcDbSpline
 62
7
  6
BYLAYER
 70
0
 71
3
 72
14
 73
10
 74
0
 42
0.0000001
 43
0.0000001
 44
0.0000000001
 40
0.0
 40
0.0
 40
0.0
 40
0.0
 40
0.139800664
 40
0.302840114
 40
0.4657746574
 40
0.6362519739
 40
0.7999882482
 40
0.9004000155
 40
1.0
 40
1.0
 40
1.0
 40
1.0
 10
367.6519079432
 20
334.8841217034
 30
0.0
 10
367.6708545056
 20
335.0020875254
 30
0.0
 10
367.7113486986
 20
335.2595559002
 30
0.0
 10
367.9626511979
 20
335.5952007367
 30
0.0
 10
368.372818941
 20
335.7295095575
 30
0.0
 10
368.8105924534
 20
335.6740292284
 30
0.0
 10
369.104489314
 20
335.4221041121
 30
0.0
 10
369.2286238453
 20
335.1375248963
 30
0.0
 10
369.2561527955
 20
334.9680988004
 30
0.0
 10
369.2701943968
 20
334.8841217034
 30
0.0
  0
SPLINE
  5
35F
100
AcDbEntity
  8
0
100
AcDbSpline
 62
7
  6
BYLAYER
 70
0
 71
3
 72
12
 73
8
 74
0
 42
0.0000001
 43
0.0000001
 44
0.0000000001
 40
0.0
 40
0.0
 40
0.0
 40
0.0
 40
0.1160406236
 40
0.2335451721
 40
0.5130043252
 40
0.7022293135
 40
1.0
 40
1.0
 40
1.0
 40
1.0
 10
368.379020965
 20
336.3991676494
 30
0.0
 10
368.2441432383
 20
336.3893385727
 30
0.0
 10
367.9707068482
 20
336.3703946328
 30
0.0
 10
367.4020389766
 20
336.2257486585
 30
0.0
 10
366.8234076799
 20
335.7933246961
 30
0.0
 10
366.4173081589
 20
334.9865850286
 30
0.0
 10
366.3847938873
 20
334.401828306
 30
0.0
 10
366.4498509021
 20
334.0593830165
 30
0.0
  0
SPLINE
  5
360
100
AcDbEntity
  8
0
100
AcDbSpline
 62
7
  6
BYLAYER
 70
0
 71
3
 72
13
 73
9
 74
0
 42
0.0000001
 43
0.0000001
 44
0.0000000001
 40
0.0
 40
0.0
 40
0.0
 40
0.0
 40
0.003829598
 40
0.1972512129
 40
0.3888239556
 40
0.5929287528
 40
0.8257309631
 40
1.0
 40
1.0
 40
1.0
 40
1.0
 10
366.4498509021
 20
334.0593830165
 30
0.0
 10
366.450644491
 20
334.0552057457
 30
0.0
 10
366.4921708777
 20
333.8401626797
 30
0.0
 10
366.6401292693
 20
333.4284175149
 30
0.0
 10
367.0888527708
 20
332.9372227533
 30
0.0
 10
367.7168750141
 20
332.6192035984
 30
0.0
 10
368.3906498957
 20
332.5220735595
 30
0.0
 10
368.8248149521
 20
332.533533054
 30
0.0
 10
369.0103362048
 20
332.5553755884
 30
0.0
  0
SPLINE
  5
361
100
AcDbEntity
  8
0
100
AcDbSpline
 62
7
  6
BYLAYER
 70
0
 71
3
 72
14
 73
10
 74
0
 42
0.0000001
 43
0.0000001
 44
0.0000000001
 40
0.0
 40
0.0
 40
0.0
 40
0.0
 40
0.1982029369
 40
0.3947095963
 40
0.5815888747
 40
0.7319518958
 40
0.8031595688
 40
0.8730598197
 40
1.0
 40
1.0
 40
1.0
 40
1.0
 10
370.2375204826
 20
333.7575053944
 30
0.0
 10
370.0577047724
 20
333.6350984877
 30
0.0
 10
369.6873465244
 20
333.3829819695
 30
0.0
 10
369.0787841925
 20
333.2106951024
 30
0.0
 10
368.4755902808
 20
333.2351967046
 30
0.0
 10
368.0562123719
 20
333.4194987084
 30
0.0
 10
367.8284692226
 20
333.6512981452
 30
0.0
 10
367.6793469311
 20
333.9116316116
 30
0.0
 10
367.6482791876
 20
334.1280977604
 30
0.0
 10
367.6275459084
 20
334.2667230184
 30
0.0
  0
SPLINE
  5
362
100
AcDbEntity
  8
0
100
AcDbSpline
 62
7
  6
BYLAYER
 70
0
 71
3
 72
10
 73
6
 74
0
 42
0.0000001
 43
0.0000001
 44
0.0000000001
 40
0.0
 40
0.0
 40
0.0
 40
0.0
 40
0.3940198912
 40
0.5969128123
 40
1.0
 40
1.0
 40
1.0
 40
1.0
 10
370.3008958439
 20
334.2667230184
 30
0.0
 10
370.2953461087
 20
334.4830755987
 30
0.0
 10
370.2877648555
 20
334.8121924637
 30
0.0
 10
370.1352700659
 20
335.342035665
 30
0.0
 10
369.9594733532
 20
335.6296605815
 30
0.0
 10
369.8117427758
 20
335.7943174977
 30
0.0
  0
SPLINE
  5
363
100
AcDbEntity
  8
0
100
AcDbSpline
 62
7
  6
BYLAYER
 70
0
 71
3
 72
10
 73
6
 74
0
 42
0.0000001
 43
0.0000001
 44
0.0000000001
 40
0.0
 40
0.0
 40
0.0
 40
0.0
 40
0.4013884895
 40
0.598981351
 40
1.0
 40
1.0
 40
1.0
 40
1.0
 10
369.8117427758
 20
335.7943174977
 30
0.0
 10
369.6686539663
 20
335.9538008121
 30
0.0
 10
369.4120312556
 20
336.1544592116
 30
0.0
 10
368.913778309
 20
336.3534721374
 30
0.0
 10
368.592732931
 20
336.380496316
 30
0.0
 10
368.379020965
 20
336.3991676494
 30
0.0
  0
SPLINE
  5
364
100
AcDbEntity
  8
0
100
AcDbSpline
 62
7
  6
BYLAYER
 70
0
 71
3
 72
11
 73
7
 74
0
 42
0.0000001
 43
0.0000001
 44
0.0000000001
 40
0.0
 40
0.0
 40
0.0
 40
0.0
 40
0.4039587169
 40
0.602716298
 40
0.7993755488
 40
1.0
 40
1.0
 40
1.0
 40
1.0
 10
359.192489703
 20
330.0219366964
 30
0.0
 10
359.2190137915
 20
330.1333945864
 30
0.0
 10
359.2662171019
 20
330.3038952092
 30
0.0
 10
359.4329043877
 20
330.4647601391
 30
0.0
 10
359.5919256711
 20
330.5342828619
 30
0.0
 10
359.7044284748
 20
330.5410730534
 30
0.0
 10
359.7611643195
 20
330.5449537934
 30
0.0
  0
SPLINE
  5
365
100
AcDbEntity
  8
0
100
AcDbSpline
 62
7
  6
BYLAYER
 70
0
 71
3
 72
11
 73
7
 74
0
 42
0.0000001
 43
0.0000001
 44
0.0000000001
 40
0.0
 40
0.0
 40
0.0
 40
0.0
 40
0.2053230025
 40
0.5990536741
 40
0.7994190408
 40
1.0
 40
1.0
 40
1.0
 40
1.0
 10
359.7611643195
 20
330.5449537934
 30
0.0
 10
359.8160248682
 20
330.541161965
 30
0.0
 10
359.9840593715
 20
330.527549132
 30
0.0
 10
360.1573282856
 20
330.3830118859
 30
0.0
 10
360.2369608968
 20
330.1822291897
 30
0.0
 10
360.2476912591
 20
330.0753314864
 30
0.0
 10
360.2533455573
 20
330.0219366964
 30
0.0
  0
SPLINE
  5
366
100
AcDbEntity
  8
0
100
AcDbSpline
 62
7
  6
BYLAYER
 70
0
 71
3
 72
13
 73
9
 74
0
 42
0.0000001
 43
0.0000001
 44
0.0000000001
 40
0.0
 40
0.0
 40
0.0
 40
0.0
 40
0.200055432
 40
0.3394405703
 40
0.5708253409
 40
0.7732622126
 40
0.8766010827
 40
1.0
 40
1.0
 40
1.0
 40
1.0
 10
360.6322348162
 20
329.3633099534
 30
0.0
 10
360.5262708219
 20
329.300449155
 30
0.0
 10
360.3458518632
 20
329.1924323331
 30
0.0
 10
360.0073130443
 20
329.0973572044
 30
0.0
 10
359.6377179604
 20
329.1005914705
 30
0.0
 10
359.3521973142
 20
329.2936930233
 30
0.0
 10
359.2298761555
 20
329.5328109697
 30
0.0
 10
359.2008986871
 20
329.6694023574
 30
0.0
 10
359.1848233293
 20
329.7437324874
 30
0.0
  0
SPLINE
  5
367
100
AcDbEntity
  8
0
100
AcDbSpline
 62
7
  6
BYLAYER
 70
0
 71
3
 72
15
 73
11
 74
0
 42
0.0000001
 43
0.0000001
 44
0.0000000001
 40
0.0
 40
0.0
 40
0.0
 40
0.0
 40
0.098114993
 40
0.1962299861
 40
0.342272826
 40
0.4863161959
 40
0.642964802
 40
0.7976704722
 40
0.9557006765
 40
1.0
 40
1.0
 40
1.0
 40
1.0
 10
360.6688630495
 20
329.7437324874
 30
0.0
 10
360.6650760257
 20
329.8417378607
 30
0.0
 10
360.6578425448
 20
330.0380215186
 30
0.0
 10
360.5846219948
 20
330.3733274025
 30
0.0
 10
360.3804775416
 20
330.7215646682
 30
0.0
 10
359.9679113932
 20
330.9201728503
 30
0.0
 10
359.4893008706
 20
330.9094912997
 30
0.0
 10
359.0584802086
 20
330.6866683765
 30
0.0
 10
358.8672581744
 20
330.37439274
 30
0.0
 10
358.8094513425
 20
330.1792458942
 30
0.0
 10
358.7991675348
 20
330.1359031739
 30
0.0
  0
SPLINE
  5
368
100
AcDbEntity
  8
0
100
AcDbSpline
 62
7
  6
BYLAYER
 70
0
 71
3
 72
9
 73
5
 74
0
 42
0.0000001
 43
0.0000001
 44
0.0000000001
 40
0.0
 40
0.0
 40
0.0
 40
0.0
 40
0.4005366663
 40
1.0
 40
1.0
 40
1.0
 40
1.0
 10
349.3352358654
 20
329.6720092954
 30
0.0
 10
349.3618057052
 20
329.673573847
 30
0.0
 10
349.4299983735
 20
329.6787950334
 30
0.0
 10
349.4827710652
 20
329.7243289979
 30
0.0
 10
349.5119032039
 20
329.7517395896
 30
0.0
  0
SPLINE
  5
369
100
AcDbEntity
  8
0
100
AcDbSpline
 62
7
  6
BYLAYER
 70
0
 71
3
 72
12
 73
8
 74
0
 42
0.0000001
 43
0.0000001
 44
0.0000000001
 40
0.0
 40
0.0
 40
0.0
 40
0.0
 40
0.097962421
 40
0.364535408
 40
0.6497644187
 40
0.800755585
 40
1.0
 40
1.0
 40
1.0
 40
1.0
 10
349.8499051329
 20
331.0752965385
 30
0.0
 10
349.8692380896
 20
331.1346262502
 30
0.0
 10
349.94019743
 20
331.3577982163
 30
0.0
 10
350.1343399001
 20
331.69934064
 30
0.0
 10
350.5310445857
 20
331.971910335
 30
0.0
 10
350.9063952585
 20
332.0935508826
 30
0.0
 10
351.1309848422
 20
332.111071354
 30
0.0
 10
351.2572811093
 20
332.1215010974
 30
0.0
  0
SPLINE
  5
36A
100
AcDbEntity
  8
0
100
AcDbSpline
 62
7
  6
BYLAYER
 70
0
 71
3
 72
10
 73
6
 74
0
 42
0.0000001
 43
0.0000001
 44
0.0000000001
 40
0.0
 40
0.0
 40
0.0
 40
0.0
 40
0.5604957887
 40
0.9342354919
 40
1.0
 40
1.0
 40
1.0
 40
1.0
 10
351.5608695351
 20
331.4519710674
 30
0.0
 10
351.5316257362
 20
331.451362749
 30
0.0
 10
351.479260805
 20
331.4527405899
 30
0.0
 10
351.4382833495
 20
331.4173558679
 30
0.0
 10
351.4213648616
 20
331.4016040254
 30
0.0
 10
351.4188497449
 20
331.399271781
 30
0.0
  0
SPLINE
  5
36B
100
AcDbEntity
  8
0
100
AcDbSpline
 62
7
  6
BYLAYER
 70
0
 71
3
 72
13
 73
9
 74
0
 42
0.0000001
 43
0.0000001
 44
0.0000000001
 40
0.0
 40
0.0
 40
0.0
 40
0.0
 40
0.0907767905
 40
0.2164670228
 40
0.3318006625
 40
0.4867828161
 40
0.7998238786
 40
1.0
 40
1.0
 40
1.0
 40
1.0
 10
351.0320600658
 20
329.936925122
 30
0.0
 10
351.0153122254
 20
329.8808678138
 30
0.0
 10
350.9756618913
 20
329.7457108894
 30
0.0
 10
350.88097931
 20
329.562032057
 30
0.0
 10
350.7054429072
 20
329.3707101199
 30
0.0
 10
350.4112310489
 20
329.1403351712
 30
0.0
 10
349.9960393452
 20
328.9752761193
 30
0.0
 10
349.6672920755
 20
328.953772838
 30
0.0
 10
349.5388206966
 20
328.9440444564
 30
0.0
  0
SPLINE
  5
36C
100
AcDbEntity
  8
0
100
AcDbSpline
 62
7
  6
BYLAYER
 70
0
 71
3
 72
11
 73
7
 74
0
 42
0.0000001
 43
0.0000001
 44
0.0000000001
 40
0.0
 40
0.0
 40
0.0
 40
0.0
 40
0.2112195767
 40
0.4259922152
 40
0.7592840573
 40
1.0
 40
1.0
 40
1.0
 40
1.0
 10
352.7198549803
 20
332.7305519524
 30
0.0
 10
352.6071813675
 20
332.8157707274
 30
0.0
 10
352.3787811078
 20
332.9909330845
 30
0.0
 10
351.9258389624
 20
333.1870120852
 30
0.0
 10
351.3853553604
 20
333.2120783218
 30
0.0
 10
351.006820448
 20
333.1592820731
 30
0.0
 10
350.8506712752
 20
333.1255502179
 30
0.0
  0
SPLINE
  5
36D
100
AcDbEntity
  8
0
100
AcDbSpline
 62
7
  6
BYLAYER
 70
0
 71
3
 72
9
 73
5
 74
0
 42
0.0000001
 43
0.0000001
 44
0.0000000001
 40
0.0
 40
0.0
 40
0.0
 40
0.0
 40
0.6779546776
 40
1.0
 40
1.0
 40
1.0
 40
1.0
 10
350.8506712752
 20
333.1255502179
 30
0.0
 10
350.7304902977
 20
333.0995883299
 30
0.0
 10
350.5554862459
 20
333.0511659752
 30
0.0
 10
350.3838178719
 20
332.988699029
 30
0.0
 10
350.328980697
 20
332.9671957806
 30
0.0
  0
SPLINE
  5
36E
100
AcDbEntity
  8
0
100
AcDbSpline
 62
7
  6
BYLAYER
 70
0
 71
3
 72
9
 73
5
 74
0
 42
0.0000001
 43
0.0000001
 44
0.0000000001
 40
0.0
 40
0.0
 40
0.0
 40
0.0
 40
0.4374859661
 40
1.0
 40
1.0
 40
1.0
 40
1.0
 10
350.328980697
 20
332.9671957806
 30
0.0
 10
350.0993742351
 20
332.8771604203
 30
0.0
 10
349.5924882811
 20
332.6158148342
 30
0.0
 10
349.1656916848
 20
332.2545652694
 30
0.0
 10
348.9238071065
 20
332.0523333644
 30
0.0
  0
SPLINE
  5
36F
100
AcDbEntity
  8
0
100
AcDbSpline
 62
7
  6
BYLAYER
 70
0
 71
3
 72
9
 73
5
 74
0
 42
0.0000001
 43
0.0000001
 44
0.0000000001
 40
0.0
 40
0.0
 40
0.0
 40
0.0
 40
0.5926685513
 40
1.0
 40
1.0
 40
1.0
 40
1.0
 10
348.9238071065
 20
332.0523333644
 30
0.0
 10
348.8156837875
 20
331.9418951394
 30
0.0
 10
348.620568644
 20
331.7407425303
 30
0.0
 10
348.468021886
 20
331.5351095434
 30
0.0
 10
348.4043676496
 20
331.4500970634
 30
0.0
  0
SPLINE
  5
370
100
AcDbEntity
  8
0
100
AcDbSpline
 62
7
  6
BYLAYER
 70
0
 71
3
 72
11
 73
7
 74
0
 42
0.0000001
 43
0.0000001
 44
0.0000000001
 40
0.0
 40
0.0
 40
0.0
 40
0.0
 40
0.3785460323
 40
0.5608939622
 40
0.8569480459
 40
1.0
 40
1.0
 40
1.0
 40
1.0
 10
347.7581774701
 20
330.0972375294
 30
0.0
 10
347.7162820878
 20
329.8647833844
 30
0.0
 10
347.6580152332
 20
329.5043064746
 30
0.0
 10
347.7291803079
 20
328.9756514508
 30
0.0
 10
347.8764267165
 20
328.6011392561
 30
0.0
 10
348.0558638452
 20
328.393853906
 30
0.0
 10
348.1133861501
 20
328.3254532244
 30
0.0
  0
SPLINE
  5
371
100
AcDbEntity
  8
0
100
AcDbSpline
 62
7
  6
BYLAYER
 70
0
 71
3
 72
13
 73
9
 74
0
 42
0.0000001
 43
0.0000001
 44
0.0000000001
 40
0.0
 40
0.0
 40
0.0
 40
0.0
 40
0.0998247369
 40
0.2013694852
 40
0.3591373102
 40
0.5617584136
 40
0.7791744722
 40
1.0
 40
1.0
 40
1.0
 40
1.0
 10
348.1133861501
 20
328.3254532244
 30
0.0
 10
348.2258285834
 20
328.2408226027
 30
0.0
 10
348.4538623056
 20
328.0667092212
 30
0.0
 10
348.9066008974
 20
327.8748417414
 30
0.0
 10
349.5747718687
 20
327.8499218458
 30
0.0
 10
350.3663539222
 20
328.0166614981
 30
0.0
 10
351.1883398517
 20
328.4244827538
 30
0.0
 10
351.6561439564
 20
328.821041647
 30
0.0
 10
351.8935901836
 20
329.0198563804
 30
0.0
  0
SPLINE
  5
372
100
AcDbEntity
  8
0
100
AcDbSpline
 62
7
  6
BYLAYER
 70
0
 71
3
 72
9
 73
5
 74
0
 42
0.0000001
 43
0.0000001
 44
0.0000000001
 40
0.0
 40
0.0
 40
0.0
 40
0.0
 40
0.5927660854
 40
1.0
 40
1.0
 40
1.0
 40
1.0
 10
351.8935901836
 20
329.0198563804
 30
0.0
 10
352.0137432448
 20
329.143040367
 30
0.0
 10
352.2302798294
 20
329.3672772615
 30
0.0
 10
352.3964864614
 20
329.598966008
 30
0.0
 10
352.4658424422
 20
329.6946676914
 30
0.0
  0
SPLINE
  5
373
100
AcDbEntity
  8
0
100
AcDbSpline
 62
7
  6
BYLAYER
 70
0
 71
3
 72
12
 73
8
 74
0
 42
0.0000001
 43
0.0000001
 44
0.0000000001
 40
0.0
 40
0.0
 40
0.0
 40
0.0
 40
0.3810179142
 40
0.5663232722
 40
0.7156054643
 40
0.8733810427
 40
1.0
 40
1.0
 40
1.0
 40
1.0
 10
353.0929518674
 20
331.0468457714
 30
0.0
 10
353.1287958637
 20
331.2720694164
 30
0.0
 10
353.1780133735
 20
331.6210571438
 30
0.0
 10
353.1056819712
 20
332.042892534
 30
0.0
 10
353.012265106
 20
332.3270636017
 30
0.0
 10
352.8809814425
 20
332.5423429661
 30
0.0
 10
352.7690490488
 20
332.6727997074
 30
0.0
 10
352.7198549803
 20
332.7305519524
 30
0.0
  0
SPLINE
  5
374
100
AcDbEntity
  8
0
100
AcDbSpline
 62
7
  6
BYLAYER
 70
0
 71
3
 72
9
 73
5
 74
0
 42
0.0000001
 43
0.0000001
 44
0.0000000001
 40
0.0
 40
0.0
 40
0.0
 40
0.0
 40
0.5023155305
 40
1.0
 40
1.0
 40
1.0
 40
1.0
 10
340.4974174711
 20
333.6181321774
 30
0.0
 10
340.2659829134
 20
333.6787088497
 30
0.0
 10
339.8246859912
 20
333.8674808145
 30
0.0
 10
339.4248941968
 20
334.1244428821
 30
0.0
 10
339.2256731271
 20
334.2520717255
 30
0.0
  0
SPLINE
  5
375
100
AcDbEntity
  8
0
100
AcDbSpline
 62
7
  6
BYLAYER
 70
0
 71
3
 72
19
 73
15
 74
0
 42
0.0000001
 43
0.0000001
 44
0.0000000001
 40
0.0
 40
0.0
 40
0.0
 40
0.0
 40
0.2917990585
 40
0.3782284221
 40
0.4195105191
 40
0.461347868
 40
0.4816125112
 40
0.5018771545
 40
0.5875762185
 40
0.644966481
 40
0.7200933578
 40
0.8111352933
 40
0.9202887822
 40
1.0
 40
1.0
 40
1.0
 40
1.0
 10
341.8541100738
 20
335.8910499439
 30
0.0
 10
341.5387776466
 20
336.0046733483
 30
0.0
 10
341.1218684515
 20
336.1263305187
 30
0.0
 10
340.6745124426
 20
336.4026917521
 30
0.0
 10
340.5512651239
 20
336.557650556
 30
0.0
 10
340.5199013247
 20
336.6774013754
 30
0.0
 10
340.5258500547
 20
336.7729590332
 30
0.0
 10
340.5663565475
 20
336.9157322062
 30
0.0
 10
340.7205567921
 20
337.0503098867
 30
0.0
 10
340.9590722005
 20
337.1338692927
 30
0.0
 10
341.216461318
 20
337.1741774029
 30
0.0
 10
341.5372959878
 20
337.1686693267
 30
0.0
 10
341.8587794089
 20
337.1171511833
 30
0.0
 10
342.0700014162
 20
337.0613794601
 30
0.0
 10
342.1583197737
 20
337.0349278796
 30
0.0
  0
SPLINE
  5
376
100
AcDbEntity
  8
0
100
AcDbSpline
 62
7
  6
BYLAYER
 70
0
 71
3
 72
8
 73
4
 74
0
 42
0.0000001
 43
0.0000001
 44
0.0000000001
 40
0.0
 40
0.0
 40
0.0
 40
0.0
 40
1.0
 40
1.0
 40
1.0
 40
1.0
 10
342.1583197737
 20
337.0349278796
 30
0.0
 10
342.4748117863
 20
336.9401376887
 30
0.0
 10
342.7806597796
 20
336.807941228
 30
0.0
 10
343.0844149078
 20
336.6765200395
 30
0.0
  0
SPLINE
  5
377
100
AcDbEntity
  8
0
100
AcDbSpline
 62
7
  6
BYLAYER
 70
0
 71
3
 72
14
 73
10
 74
0
 42
0.0000001
 43
0.0000001
 44
0.0000000001
 40
0.0
 40
0.0
 40
0.0
 40
0.0
 40
0.2329407658
 40
0.4042739666
 40
0.5675702298
 40
0.7409261248
 40
0.8344417453
 40
0.9328211799
 40
1.0
 40
1.0
 40
1.0
 40
1.0
 10
358.7991675348
 20
330.1359031739
 30
0.0
 10
358.7470143966
 20
329.9160955929
 30
0.0
 10
358.7624128421
 20
329.5071180557
 30
0.0
 10
359.014065257
 20
329.0069204192
 30
0.0
 10
359.439086124
 20
328.7210849849
 30
0.0
 10
359.861924741
 20
328.6921433017
 30
0.0
 10
360.2149165111
 20
328.7497603653
 30
0.0
 10
360.4393212605
 20
328.8393876298
 30
0.0
 10
360.5767887013
 20
328.923970468
 30
0.0
 10
360.6322348162
 20
328.9576735664
 30
0.0
  0
ENDSEC
  0
SECTION
  2
OBJECTS
  0
DICTIONARY
  5
C
100
AcDbDictionary
280
0
281
1
  3
ACAD_GROUP
350
D
  3
ACAD_MLINESTYLE
350
17
  3
ACAD_LAYOUT
350
1A
  3
ACAD_PLOTSETTINGS
350
19
  3
ACAD_PLOTSTYLENAME
350
E
  0
DICTIONARY
  5
D
102
{ACAD_REACTORS
330
C
102
}
100
AcDbDictionary
280
0
281
1
  0
ACDBDICTIONARYWDFLT
  5
E
102
{ACAD_REACTORS
330
C
102
}
100
AcDbDictionary
281
1
  3
Normal
350
F
100
AcDbDictionaryWithDefault
340
F
  0
DICTIONARY
  5
17
102
{ACAD_REACTORS
330
C
102
}
100
AcDbDictionary
280
0
281
1
  3
Standard
350
18
  0
DICTIONARY
  5
19
102
{ACAD_REACTORS
330
C
102
}
100
AcDbDictionary
281
1
  0
DICTIONARY
  5
1A
102
{ACAD_REACTORS
330
C
102
}
100
AcDbDictionary
281
1
  3
Model
350
378
  3
Layout1
350
379
  0
ACDBPLACEHOLDER
  5
F
102
{ACAD_REACTORS
330
E
102
}
  0
MLINESTYLE
  5
18
102
{ACAD_REACTORS
330
17
102
}
100
AcDbMlineStyle
  2
STANDARD
 70
0
  3

 62
256
 51
90.0
 52
90.0
 71
2
 49
0.5
 62
256
  6
BYLAYER
 49
-0.5
 62
256
  6
BYLAYER
  0
LAYOUT
  5
378
102
{ACAD_REACTORS
330
1A
102
}
100
AcDbPlotSettings
  1

  2
none_device
  4

  6

 40
0.0
 41
0.0
 42
0.0
 43
0.0
 44
210.0
 45
297.0
 46
0.0
 47
0.0
 48
0.0
 49
0.0
140
0.0
141
0.0
142
1.0
143
1.0
 70
1024
 72
1
 73
0
 74
0
  7

 75
0
147
1.0
148
0.0
149
0.0
100
AcDbLayout
  1
Model
 70
0
 71
0
 10
0.0
 20
0.0
 11
210.0
 21
297.0
 12
0.0
 22
0.0
 32
0.0
 14
0.0
 24
0.0
 34
0.0
 15
0.0
 25
0.0
 35
0.0
146
0.0
 13
0.0
 23
0.0
 33
0.0
 16
1.0
 26
0.0
 36
0.0
 17
0.0
 27
1.0
 37
0.0
 76
0
330
210
345
0
346
0
  0
LAYOUT
  5
379
102
{ACAD_REACTORS
330
1A
102
}
100
AcDbPlotSettings
  1

  2
none_device
  4

  6

 40
0.0
 41
0.0
 42
0.0
 43
0.0
 44
210.0
 45
297.0
 46
0.0
 47
0.0
 48
0.0
 49
0.0
140
0.0
141
0.0
142
1.0
143
1.0
 70
0
 72
1
 73
0
 74
0
  7

 75
0
147
1.0
148
0.0
149
0.0
100
AcDbLayout
  1
Layout1
 70
0
 71
1
 10
0.0
 20
0.0
 11
210.0
 21
297.0
 12
0.0
 22
0.0
 32
0.0
 14
0.0
 24
0.0
 34
0.0
 15
0.0
 25
0.0
 35
0.0
146
0.0
 13
0.0
 23
0.0
 33
0.0
 16
1.0
 26
0.0
 36
0.0
 17
0.0
 27
1.0
 37
0.0
 76
0
330
211
345
0
346
0
  0
ENDSEC
  0
EOF
