999
DXF file: C:\Users\sesa63760\Dev\_Creo\CAD\MCADID0004352_3D-CAD\drw0001_3.dxf
999
Pro/ENGINEER 2019471 by Parametric Technology Corporation
  0
SECTION
  2
HEADER
  9
$ACADVER
  1
AC1024
  9
$DWGCODEPAGE
  3
ANSI_1252
  9
$EXTMAX
 10
49.0646184269
 20
69.391388918
 30
0.0
  9
$EXTMIN
 10
0.0
 20
0.0
 30
0.0
  9
$LIMMIN
 10
0.0
 20
0.0
  9
$LIMMAX
 10
49.0646184269
 20
69.391388918
  9
$VIEWCTR
 10
24.5323092134
 20
34.695694459
  9
$VIEWSIZE
 40
69.391388918
  9
$CLAYER
  8
0
  9
$LTSCALE
 40
4.5232905369
  9
$CELTYPE
  6
BYLAYER
  9
$DIMSCALE
 40
1.0
  9
$DIMASZ
 40
0.5841026003
  9
$DIMEXO
 40
1.0
  9
$DIMDLI
 40
3.1251825528
  9
$DIMEXE
 40
1.0
  9
$DIMCEN
 40
0.7401748151
  9
$DIMLFAC
 40
1.0
  9
$DIMBLK
  1
_FILLED
  9
$DIMALT
 70
0
  9
$DIMALTF
 40
0.0393700787
  9
$DIMTXT
 40
0.8177436404
  9
$DIMTOL
 70
1
  9
$DIMLIM
 70
0
  9
$DIMTFAC
 40
1.0
  9
$DIMTP
 40
0.01
  9
$DIMTM
 40
0.01
  9
$DIMGAP
 40
0.625
  9
$DIMDSEP
 70
46
  9
$AUNITS
 70
0
  9
$PDMODE
 70
3
  9
$PDSIZE
 40
0.3125
  9
$HANDSEED
  5
24C
  9
$TILEMODE
 70
1
  9
$MEASUREMENT
 70
1
  9
$INSUNITS
 70
4
  0
ENDSEC
  0
SECTION
  2
CLASSES
  0
CLASS
  1
ACDBDICTIONARYWDFLT
  2
AcDbDictionaryWithDefault
  3
AutoCAD 2000
 90
0
 91
1
280
0
281
0
  0
CLASS
  1
ACDBPLACEHOLDER
  2
AcDbPlaceHolder
  3
AutoCAD 2000
 90
0
 91
1
280
0
281
0
  0
CLASS
  1
LAYOUT
  2
AcDbLayout
  3
AutoCAD 2000
 90
0
 91
0
280
0
281
0
  0
ENDSEC
  0
SECTION
  2
TABLES
  0
TABLE
  2
VPORT
  5
8
100
AcDbSymbolTable
 70
2
  0
VPORT
  5
1F4
100
AcDbSymbolTableRecord
100
AcDbViewportTableRecord
  2
*ACTIVE
 70
0
 10
0.0
 20
0.0
 11
1.0
 21
1.0
 12
24.5323092134
 22
34.695694459
 13
0.0
 23
0.0
 14
1.0
 24
1.0
 15
0.0
 25
0.0
 16
0.0
 26
0.0
 36
1.0
 17
0.0
 27
0.0
 37
0.0
 40
69.391388918
 41
0.7070707071
 42
50.0
 43
0.0
 44
0.0
 50
0.0
 51
0.0
 71
0
 72
100
 73
1
 74
1
 75
0
 76
0
 77
0
 78
0
  0
ENDTAB
  0
TABLE
  2
LTYPE
  5
5
100
AcDbSymbolTable
 70
6
  0
LTYPE
  5
14
100
AcDbSymbolTableRecord
100
AcDbLinetypeTableRecord
  2
BYBLOCK
 70
0
  3

 72
65
 73
0
 40
0.0
  0
LTYPE
  5
15
100
AcDbSymbolTableRecord
100
AcDbLinetypeTableRecord
  2
BYLAYER
 70
0
  3

 72
65
 73
0
 40
0.0
  0
LTYPE
  5
16
100
AcDbSymbolTableRecord
100
AcDbLinetypeTableRecord
  2
CONTINUOUS
 70
64
  3
Solid line
 72
65
 73
0
 40
0.0
  0
LTYPE
  5
1F5
100
AcDbSymbolTableRecord
100
AcDbLinetypeTableRecord
  2
CENTER
 70
64
  3
____ _ ____ _ ____ _ ____ _ ____ _ ____ _ ____
 72
65
 73
4
 40
0.6
 49
0.375
 74
0
 49
-0.075
 74
0
 49
0.075
 74
0
 49
-0.075
 74
0
  0
LTYPE
  5
1F6
100
AcDbSymbolTableRecord
100
AcDbLinetypeTableRecord
  2
HIDDEN
 70
64
  3
- - - - - - - - - - - - - - - - - - - -
 72
65
 73
2
 40
0.2
 49
0.1
 74
0
 49
-0.1
 74
0
  0
LTYPE
  5
1F7
100
AcDbSymbolTableRecord
100
AcDbLinetypeTableRecord
  2
PHANTOM
 70
64
  3
_____ _ _ _____ _ _ _____ _ _ _____
 72
65
 73
6
 40
0.8
 49
0.45
 74
0
 49
-0.05
 74
0
 49
0.1
 74
0
 49
-0.05
 74
0
 49
0.1
 74
0
 49
-0.05
 74
0
  0
LTYPE
  5
1F8
100
AcDbSymbolTableRecord
100
AcDbLinetypeTableRecord
  2
DOT
 70
64
  3
. . . . . . . . . . . . . . . . . . . .
 72
65
 73
2
 40
0.2
 49
0.1
 74
0
 49
-0.1
 74
0
  0
LTYPE
  5
1F9
100
AcDbSymbolTableRecord
100
AcDbLinetypeTableRecord
  2
DASHED
 70
64
  3
- - - - - - - - - - - - - - - - - - - -
 72
65
 73
2
 40
0.2
 49
0.1
 74
0
 49
-0.1
 74
0
  0
ENDTAB
  0
TABLE
  2
LAYER
  5
2
100
AcDbSymbolTable
 70
36
  0
LAYER
  5
10
100
AcDbSymbolTableRecord
100
AcDbLayerTableRecord
  2
0
 70
0
 62
7
  6
CONTINUOUS
370
-3
390
F
  0
LAYER
  5
1FA
100
AcDbSymbolTableRecord
100
AcDbLayerTableRecord
  2
DEFAULT_1
 70
0
 62
7
  6
CENTER
370
-3
390
F
  0
LAYER
  5
1FB
100
AcDbSymbolTableRecord
100
AcDbLayerTableRecord
  2
DEFAULT_2
 70
0
 62
7
  6
HIDDEN
370
-3
390
F
  0
LAYER
  5
1FC
100
AcDbSymbolTableRecord
100
AcDbLayerTableRecord
  2
DEFAULT_3
 70
0
 62
7
  6
PHANTOM
370
-3
390
F
  0
LAYER
  5
1FD
100
AcDbSymbolTableRecord
100
AcDbLayerTableRecord
  2
00_COMPONENTS
 70
0
 62
7
  6
CONTINUOUS
370
-3
390
F
  0
LAYER
  5
1FE
100
AcDbSymbolTableRecord
100
AcDbLayerTableRecord
  2
01_1_DEFAULT_DATUMS
 70
0
 62
7
  6
CONTINUOUS
370
-3
390
F
  0
LAYER
  5
1FF
100
AcDbSymbolTableRecord
100
AcDbLayerTableRecord
  2
01_PLANES
 70
0
 62
7
  6
CONTINUOUS
370
-3
390
F
  0
LAYER
  5
200
100
AcDbSymbolTableRecord
100
AcDbLayerTableRecord
  2
02_COORD_SYS
 70
0
 62
7
  6
CONTINUOUS
370
-3
390
F
  0
LAYER
  5
201
100
AcDbSymbolTableRecord
100
AcDbLayerTableRecord
  2
03_AXES
 70
0
 62
7
  6
CONTINUOUS
370
-3
390
F
  0
LAYER
  5
202
100
AcDbSymbolTableRecord
100
AcDbLayerTableRecord
  2
04_POINTS
 70
0
 62
7
  6
CONTINUOUS
370
-3
390
F
  0
LAYER
  5
203
100
AcDbSymbolTableRecord
100
AcDbLayerTableRecord
  2
05_CURVES
 70
0
 62
7
  6
CONTINUOUS
370
-3
390
F
  0
LAYER
  5
204
100
AcDbSymbolTableRecord
100
AcDbLayerTableRecord
  2
06_SURFS
 70
0
 62
7
  6
CONTINUOUS
370
-3
390
F
  0
LAYER
  5
205
100
AcDbSymbolTableRecord
100
AcDbLayerTableRecord
  2
07_COSMETICS
 70
0
 62
7
  6
CONTINUOUS
370
-3
390
F
  0
LAYER
  5
206
100
AcDbSymbolTableRecord
100
AcDbLayerTableRecord
  2
10_NOTES
 70
0
 62
7
  6
CONTINUOUS
370
-3
390
F
  0
LAYER
  5
207
100
AcDbSymbolTableRecord
100
AcDbLayerTableRecord
  2
11_NOTES_PUB
 70
0
 62
7
  6
CONTINUOUS
370
-3
390
F
  0
LAYER
  5
208
100
AcDbSymbolTableRecord
100
AcDbLayerTableRecord
  2
13_REF_GTOL
 70
0
 62
7
  6
CONTINUOUS
370
-3
390
F
  0
LAYER
  5
209
100
AcDbSymbolTableRecord
100
AcDbLayerTableRecord
  2
16_MISC
 70
0
 62
7
  6
CONTINUOUS
370
-3
390
F
  0
LAYER
  5
20A
100
AcDbSymbolTableRecord
100
AcDbLayerTableRecord
  2
17_NO_PRINT
 70
0
 62
7
  6
CONTINUOUS
370
-3
390
F
  0
LAYER
  5
20B
100
AcDbSymbolTableRecord
100
AcDbLayerTableRecord
  2
18_DATUM_CAMS_JOINTS
 70
0
 62
7
  6
CONTINUOUS
370
-3
390
F
  0
LAYER
  5
20C
100
AcDbSymbolTableRecord
100
AcDbLayerTableRecord
  2
19_DATUM_FUNCTIONAL
 70
0
 62
7
  6
CONTINUOUS
370
-3
390
F
  0
LAYER
  5
20D
100
AcDbSymbolTableRecord
100
AcDbLayerTableRecord
  2
20_DATUM_KINEMATIC_SCHEME
 70
0
 62
7
  6
CONTINUOUS
370
-3
390
F
  0
ENDTAB
  0
TABLE
  2
STYLE
  5
3
100
AcDbSymbolTable
 70
1
  0
STYLE
  5
11
100
AcDbSymbolTableRecord
100
AcDbTextStyleTableRecord
  2
STANDARD
 70
0
 40
0.0
 41
1.0
 50
0.0
 71
0
 42
0.2
  3
ARIAL.TTF
  4

  0
STYLE
  5
20E
100
AcDbSymbolTableRecord
100
AcDbTextStyleTableRecord
  2
TEXTSTYLE_1
 70
0
 40
0.0
 41
0.8
 50
0.0
 71
0
 42
0.2
  3
gdt
  4

  0
ENDTAB
  0
TABLE
  2
VIEW
  5
6
100
AcDbSymbolTable
 70
0
  0
ENDTAB
  0
TABLE
  2
UCS
  5
7
100
AcDbSymbolTable
 70
0
  0
ENDTAB
  0
TABLE
  2
APPID
  5
9
100
AcDbSymbolTable
 70
1
  0
APPID
  5
20F
100
AcDbSymbolTableRecord
100
AcDbRegAppTableRecord
  2
ACAD
 70
0
  0
ENDTAB
  0
TABLE
  2
BLOCK_RECORD
  5
1
100
AcDbSymbolTable
 70
0
  0
BLOCK_RECORD
  5
210
100
AcDbSymbolTableRecord
100
AcDbBlockTableRecord
  2
*Model_Space
  0
BLOCK_RECORD
  5
211
100
AcDbSymbolTableRecord
100
AcDbBlockTableRecord
  2
*Paper_Space
  0
BLOCK_RECORD
  5
212
100
AcDbSymbolTableRecord
100
AcDbBlockTableRecord
  2
_FILLED
  0
ENDTAB
  0
TABLE
  2
DIMSTYLE
  5
A
100
AcDbSymbolTable
 70
1
100
AcDbDimStyleTable
 71
0
  0
DIMSTYLE
105
213
100
AcDbSymbolTableRecord
100
AcDbDimStyleTableRecord
  2
STANDARD
 70
0
  3

  4

 40
1.0
 41
0.5841026003
 42
1.0
 43
0.38
 44
1.0
 45
0.0
 46
0.0
 47
0.01
 48
0.01
140
0.8177436404
141
0.09
142
0.0
143
25.4
144
1.0
145
0.0
146
1.0
147
0.625
 71
1
 72
0
 73
0
 74
0
 75
0
 76
0
 77
1
 78
8
 79
2
170
0
171
1
172
0
173
0
174
0
175
0
176
0
177
0
178
0
270
2
179
2
271
2
272
2
273
2
274
2
275
0
280
0
281
0
282
0
283
1
284
8
285
0
286
0
287
3
288
0
340
11
278
46
341
212
342
212
343
212
344
212
  0
ENDTAB
  0
ENDSEC
  0
SECTION
  2
BLOCKS
  0
BLOCK
  5
20
100
AcDbEntity
  8
0
100
AcDbBlockBegin
  2
*Model_Space
 70
0
 10
0.0
 20
0.0
 30
0.0
  3
*Model_Space
  1

  0
ENDBLK
  5
21
100
AcDbEntity
  8
0
100
AcDbBlockEnd
  0
BLOCK
  5
1C
100
AcDbEntity
  8
0
100
AcDbBlockBegin
  2
*Paper_Space
 70
0
 10
0.0
 20
0.0
 30
0.0
  3
*Paper_Space
  1

  0
ENDBLK
  5
1D
100
AcDbEntity
  8
0
100
AcDbBlockEnd
  0
BLOCK
  5
214
100
AcDbEntity
  8
0
100
AcDbBlockBegin
  2
_FILLED
 70
64
 10
0.0
 20
0.0
  3
_FILLED
  1

  0
SOLID
  5
215
100
AcDbEntity
  8
0
  6
BYBLOCK
 62
0
100
AcDbTrace
 10
0.0
 20
0.0
 11
-1.0
 21
0.25
 12
-1.0
 22
-0.25
 13
-1.0
 23
-0.25
  0
ENDBLK
  5
216
100
AcDbEntity
  8
0
  6
BYBLOCK
 62
0
100
AcDbBlockEnd
  0
ENDSEC
  0
SECTION
  2
ENTITIES
  0
LINE
  5
217
100
AcDbEntity
  8
0
100
AcDbLine
 62
7
  6
BYLAYER
 10
5.8042782998
 20
34.1105797766
 11
5.8042782998
 21
35.6205466637
  0
LINE
  5
218
100
AcDbEntity
  8
0
100
AcDbLine
 62
7
  6
BYLAYER
 10
18.8042782998
 20
32.6156528845
 11
18.8042782998
 21
37.1154735557
  0
LINE
  5
219
100
AcDbEntity
  8
0
100
AcDbLine
 62
7
  6
BYLAYER
 10
19.5542782982
 20
31.8655632131
 11
19.5542782982
 21
37.8655632272
  0
LINE
  5
21A
100
AcDbEntity
  8
0
100
AcDbLine
 62
7
  6
BYLAYER
 10
18.8042782998
 20
37.1155632201
 11
19.5542782982
 21
37.8655632221
  0
LINE
  5
21B
100
AcDbEntity
  8
0
100
AcDbLine
 62
7
  6
BYLAYER
 10
18.8042782998
 20
32.6155632201
 11
19.5542782982
 21
31.8655632182
  0
LINE
  5
21C
100
AcDbEntity
  8
0
100
AcDbLine
 62
7
  6
BYLAYER
 10
38.8042782998
 20
30.8655632201
 11
40.8042782998
 21
30.8655632201
  0
LINE
  5
21D
100
AcDbEntity
  8
0
100
AcDbLine
 62
7
  6
BYLAYER
 10
19.5542783033
 20
31.8655632131
 11
23.5542783317
 21
31.8655632131
  0
LINE
  5
21E
100
AcDbEntity
  8
0
100
AcDbLine
 62
7
  6
BYLAYER
 10
26.0542782964
 20
31.8655632024
 11
33.2630282998
 21
31.8655632024
  0
LINE
  5
21F
100
AcDbEntity
  8
0
100
AcDbLine
 62
7
  6
BYLAYER
 10
33.8042782998
 20
31.8655632024
 11
38.8042782998
 21
31.8655632024
  0
LINE
  5
220
100
AcDbEntity
  8
0
100
AcDbLine
 62
7
  6
BYLAYER
 10
40.8042782998
 20
31.8655632024
 11
43.2630282998
 21
31.8655632024
  0
LINE
  5
221
100
AcDbEntity
  8
0
100
AcDbLine
 62
7
  6
BYLAYER
 10
43.2730283175
 20
31.8755632201
 11
43.2630782998
 21
31.8755632201
  0
LINE
  5
222
100
AcDbEntity
  8
0
100
AcDbLine
 62
7
  6
BYLAYER
 10
23.5542783317
 20
37.8655632272
 11
23.5542783317
 21
31.8655632131
  0
LINE
  5
223
100
AcDbEntity
  8
0
100
AcDbLine
 62
7
  6
BYLAYER
 10
24.3042783339
 20
32.615563204
 11
26.054278278
 21
32.615563204
  0
LINE
  5
224
100
AcDbEntity
  8
0
100
AcDbLine
 62
7
  6
BYLAYER
 10
24.3042783339
 20
32.615563204
 11
24.3042783339
 21
37.1155632363
  0
LINE
  5
225
100
AcDbEntity
  8
0
100
AcDbLine
 62
7
  6
BYLAYER
 10
18.8042782998
 20
33.7655632201
 11
6.8623779795
 21
33.7655632201
  0
LINE
  5
226
100
AcDbEntity
  8
0
100
AcDbLine
 62
7
  6
BYLAYER
 10
40.4470127099
 20
34.8655632201
 11
39.1615438897
 21
34.8655632201
  0
LINE
  5
227
100
AcDbEntity
  8
0
100
AcDbLine
 62
7
  6
BYLAYER
 10
26.0542782964
 20
31.8655688909
 11
26.0542782964
 21
37.8655575493
  0
LINE
  5
228
100
AcDbEntity
  8
0
100
AcDbLine
 62
7
  6
BYLAYER
 10
24.3042783317
 20
32.615563204
 11
23.5542783368
 21
31.8655632131
  0
LINE
  5
229
100
AcDbEntity
  8
0
100
AcDbLine
 62
7
  6
BYLAYER
 10
6.8623779794
 20
35.9655632201
 11
18.8042782998
 21
35.9655632201
  0
LINE
  5
22A
100
AcDbEntity
  8
0
100
AcDbLine
 62
7
  6
BYLAYER
 10
24.3042783317
 20
37.1155632363
 11
23.5542783368
 21
37.8655632272
  0
LINE
  5
22B
100
AcDbEntity
  8
0
100
AcDbLine
 62
7
  6
BYLAYER
 10
24.3042783339
 20
37.1155632363
 11
26.054278278
 21
37.1155632363
  0
LINE
  5
22C
100
AcDbEntity
  8
0
100
AcDbLine
 62
7
  6
BYLAYER
 10
43.2630782998
 20
37.8555632201
 11
43.2730283175
 21
37.8555632201
  0
LINE
  5
22D
100
AcDbEntity
  8
0
100
AcDbLine
 62
7
  6
BYLAYER
 10
19.5542783033
 20
37.8655632272
 11
23.5542783317
 21
37.8655632272
  0
LINE
  5
22E
100
AcDbEntity
  8
0
100
AcDbLine
 62
7
  6
BYLAYER
 10
26.0542782964
 20
37.8655632378
 11
33.2630282998
 21
37.8655632378
  0
LINE
  5
22F
100
AcDbEntity
  8
0
100
AcDbLine
 62
7
  6
BYLAYER
 10
33.8042782998
 20
37.8655632378
 11
38.8042782998
 21
37.8655632378
  0
LINE
  5
230
100
AcDbEntity
  8
0
100
AcDbLine
 62
7
  6
BYLAYER
 10
40.8042782998
 20
37.8655632378
 11
43.2630782998
 21
37.8655632378
  0
LINE
  5
231
100
AcDbEntity
  8
0
100
AcDbLine
 62
7
  6
BYLAYER
 10
40.8042782998
 20
38.8655632201
 11
38.8042782998
 21
38.8655632201
  0
LINE
  5
232
100
AcDbEntity
  8
0
100
AcDbLine
 62
7
  6
BYLAYER
 10
33.2630282998
 20
37.8655632378
 11
33.2630282998
 21
31.8655632024
  0
LINE
  5
233
100
AcDbEntity
  8
0
100
AcDbLine
 62
7
  6
BYLAYER
 10
33.8042782998
 20
32.4068132024
 11
33.2630282998
 21
31.8655632024
  0
LINE
  5
234
100
AcDbEntity
  8
0
100
AcDbLine
 62
7
  6
BYLAYER
 10
33.8042782998
 20
37.3243132378
 11
33.2630282998
 21
37.8655632378
  0
LINE
  5
235
100
AcDbEntity
  8
0
100
AcDbLine
 62
7
  6
BYLAYER
 10
33.8042782998
 20
31.8655688909
 11
33.8042782998
 21
37.8655575493
  0
LINE
  5
236
100
AcDbEntity
  8
0
100
AcDbLine
 62
7
  6
BYLAYER
 10
38.8042782998
 20
30.8655632201
 11
38.8042782998
 21
38.8655632201
  0
LINE
  5
237
100
AcDbEntity
  8
0
100
AcDbLine
 62
7
  6
BYLAYER
 10
40.8042782998
 20
38.8655632201
 11
40.8042782998
 21
30.8655632201
  0
LINE
  5
238
100
AcDbEntity
  8
0
100
AcDbLine
 62
7
  6
BYLAYER
 10
43.8042782998
 20
32.4068132024
 11
43.2730283175
 21
31.8755632201
  0
LINE
  5
239
100
AcDbEntity
  8
0
100
AcDbLine
 62
7
  6
BYLAYER
 10
43.8042782998
 20
37.3243132378
 11
43.2730283175
 21
37.8555632201
  0
LINE
  5
23A
100
AcDbEntity
  8
0
100
AcDbLine
 62
7
  6
BYLAYER
 10
43.2630782998
 20
37.8655075495
 11
43.2630782998
 21
31.8655688909
  0
LINE
  5
23B
100
AcDbEntity
  8
0
100
AcDbLine
 62
7
  6
BYLAYER
 10
43.2730283175
 20
37.8555632201
 11
43.2730283175
 21
31.8755632201
  0
LINE
  5
23C
100
AcDbEntity
  8
0
100
AcDbLine
 62
7
  6
BYLAYER
 10
43.8042782998
 20
37.3243132378
 11
43.8042782998
 21
32.4068132024
  0
LINE
  5
23D
100
AcDbEntity
  8
0
100
AcDbLine
 62
7
  6
BYLAYER
 10
44.619290216
 20
35.0666197355
 11
44.619290216
 21
34.6645067047
  0
ARC
  5
23E
100
AcDbEntity
  8
0
100
AcDbCircle
 62
7
  6
BYLAYER
 10
41.0847257149
 20
35.0666197355
 40
3.5345645011
100
AcDbArc
 50
0.0
 51
39.6984714946
  0
ARC
  5
23F
100
AcDbEntity
  8
0
100
AcDbCircle
 62
7
  6
BYLAYER
 10
41.0847257149
 20
34.6645067047
 40
3.5345645011
100
AcDbArc
 50
320.3015285054
 51
360.0
  0
SPLINE
  5
240
100
AcDbEntity
  8
0
100
AcDbSpline
 62
7
  6
BYLAYER
 70
0
 71
3
 72
13
 73
9
 74
0
 42
0.0000001
 43
0.0000001
 44
0.0000000001
 40
0.0
 40
0.0
 40
0.0
 40
0.0
 40
0.2513855782
 40
0.5016831749
 40
0.6264930183
 40
0.7511112818
 40
0.8755962448
 40
1.0
 40
1.0
 40
1.0
 40
1.0
 10
39.1615438897
 20
30.8655632201
 30
0.0
 10
39.1074767937
 20
31.0277645081
 30
0.0
 10
39.008320989
 20
31.3544927187
 30
0.0
 10
38.9128207578
 20
31.7702083036
 30
0.0
 10
38.8572812468
 20
32.105613543
 30
0.0
 10
38.8268930976
 20
32.3581942016
 30
0.0
 10
38.808409589
 20
32.6116464446
 30
0.0
 10
38.8042782998
 20
32.7809523474
 30
0.0
 10
38.8042782998
 20
32.8655632201
 30
0.0
  0
SPLINE
  5
241
100
AcDbEntity
  8
0
100
AcDbSpline
 62
7
  6
BYLAYER
 70
0
 71
3
 72
13
 73
9
 74
0
 42
0.0000001
 43
0.0000001
 44
0.0000000001
 40
0.0
 40
0.0
 40
0.0
 40
0.0
 40
0.1244037923
 40
0.2488888388
 40
0.3735071292
 40
0.4983169576
 40
0.7486145012
 40
1.0
 40
1.0
 40
1.0
 40
1.0
 10
40.8042782998
 20
32.8655632201
 30
0.0
 10
40.8042782998
 20
32.780952322
 30
0.0
 10
40.8001469227
 20
32.6116463411
 30
0.0
 10
40.7816635441
 20
32.3581939849
 30
0.0
 10
40.7512751152
 20
32.1056132951
 30
0.0
 10
40.6957359579
 20
31.7702080305
 30
0.0
 10
40.6002357058
 20
31.3544925349
 30
0.0
 10
40.5010797889
 20
31.0277644572
 30
0.0
 10
40.4470127099
 20
30.8655632201
 30
0.0
  0
SPLINE
  5
242
100
AcDbEntity
  8
0
100
AcDbSpline
 62
7
  6
BYLAYER
 70
0
 71
3
 72
13
 73
9
 74
0
 42
0.0000001
 43
0.0000001
 44
0.0000000001
 40
0.0
 40
0.0
 40
0.0
 40
0.0
 40
0.2513855782
 40
0.5016831749
 40
0.6264930183
 40
0.7511112818
 40
0.8755962448
 40
1.0
 40
1.0
 40
1.0
 40
1.0
 10
40.4470127099
 20
38.8655632201
 30
0.0
 10
40.5010798059
 20
38.7033619321
 30
0.0
 10
40.6002356107
 20
38.3766337215
 30
0.0
 10
40.6957358419
 20
37.9609181366
 30
0.0
 10
40.7512753529
 20
37.6255128972
 30
0.0
 10
40.781663502
 20
37.3729322386
 30
0.0
 10
40.8001470106
 20
37.1194799956
 30
0.0
 10
40.8042782998
 20
36.9501740929
 30
0.0
 10
40.8042782998
 20
36.8655632201
 30
0.0
  0
SPLINE
  5
243
100
AcDbEntity
  8
0
100
AcDbSpline
 62
7
  6
BYLAYER
 70
0
 71
3
 72
13
 73
9
 74
0
 42
0.0000001
 43
0.0000001
 44
0.0000000001
 40
0.0
 40
0.0
 40
0.0
 40
0.0
 40
0.1244037923
 40
0.2488888388
 40
0.3735071292
 40
0.4983169576
 40
0.7486145012
 40
1.0
 40
1.0
 40
1.0
 40
1.0
 10
38.8042782998
 20
36.8655632201
 30
0.0
 10
38.8042782998
 20
36.9501741183
 30
0.0
 10
38.8084096769
 20
37.1194800992
 30
0.0
 10
38.8268930556
 20
37.3729324553
 30
0.0
 10
38.8572814845
 20
37.6255131451
 30
0.0
 10
38.9128206417
 20
37.9609184097
 30
0.0
 10
39.0083208939
 20
38.3766339053
 30
0.0
 10
39.1074768107
 20
38.7033619831
 30
0.0
 10
39.1615438897
 20
38.8655632201
 30
0.0
  0
SPLINE
  5
244
100
AcDbEntity
  8
0
100
AcDbSpline
 62
7
  6
BYLAYER
 70
0
 71
3
 72
13
 73
9
 74
0
 42
0.0000001
 43
0.0000001
 44
0.0000000001
 40
0.0
 40
0.0
 40
0.0
 40
0.0
 40
0.2513855782
 40
0.5016831749
 40
0.6264930183
 40
0.7511112818
 40
0.8755962448
 40
1.0
 40
1.0
 40
1.0
 40
1.0
 10
39.1615438897
 20
34.8655632201
 30
0.0
 10
39.1074767937
 20
35.0277645081
 30
0.0
 10
39.008320989
 20
35.3544927187
 30
0.0
 10
38.9128207578
 20
35.7702083036
 30
0.0
 10
38.8572812468
 20
36.105613543
 30
0.0
 10
38.8268930976
 20
36.3581942016
 30
0.0
 10
38.808409589
 20
36.6116464446
 30
0.0
 10
38.8042782998
 20
36.7809523474
 30
0.0
 10
38.8042782998
 20
36.8655632201
 30
0.0
  0
SPLINE
  5
245
100
AcDbEntity
  8
0
100
AcDbSpline
 62
7
  6
BYLAYER
 70
0
 71
3
 72
13
 73
9
 74
0
 42
0.0000001
 43
0.0000001
 44
0.0000000001
 40
0.0
 40
0.0
 40
0.0
 40
0.0
 40
0.2513855782
 40
0.5016831749
 40
0.6264930183
 40
0.7511112818
 40
0.8755962448
 40
1.0
 40
1.0
 40
1.0
 40
1.0
 10
40.4470127099
 20
34.8655632201
 30
0.0
 10
40.5010798059
 20
34.7033619321
 30
0.0
 10
40.6002356107
 20
34.3766337215
 30
0.0
 10
40.6957358419
 20
33.9609181366
 30
0.0
 10
40.7512753529
 20
33.6255128972
 30
0.0
 10
40.781663502
 20
33.3729322386
 30
0.0
 10
40.8001470106
 20
33.1194799956
 30
0.0
 10
40.8042782998
 20
32.9501740929
 30
0.0
 10
40.8042782998
 20
32.8655632201
 30
0.0
  0
SPLINE
  5
246
100
AcDbEntity
  8
0
100
AcDbSpline
 62
7
  6
BYLAYER
 70
0
 71
3
 72
13
 73
9
 74
0
 42
0.0000001
 43
0.0000001
 44
0.0000000001
 40
0.0
 40
0.0
 40
0.0
 40
0.0
 40
0.1244037923
 40
0.2488888388
 40
0.3735071292
 40
0.4983169576
 40
0.7486145012
 40
1.0
 40
1.0
 40
1.0
 40
1.0
 10
38.8042782998
 20
32.8655632201
 30
0.0
 10
38.8042782998
 20
32.9501741183
 30
0.0
 10
38.8084096769
 20
33.1194800992
 30
0.0
 10
38.8268930556
 20
33.3729324553
 30
0.0
 10
38.8572814845
 20
33.6255131451
 30
0.0
 10
38.9128206417
 20
33.9609184097
 30
0.0
 10
39.0083208939
 20
34.3766339053
 30
0.0
 10
39.1074768107
 20
34.7033619831
 30
0.0
 10
39.1615438897
 20
34.8655632201
 30
0.0
  0
SPLINE
  5
247
100
AcDbEntity
  8
0
100
AcDbSpline
 62
7
  6
BYLAYER
 70
0
 71
3
 72
13
 73
9
 74
0
 42
0.0000001
 43
0.0000001
 44
0.0000000001
 40
0.0
 40
0.0
 40
0.0
 40
0.0
 40
0.1244037923
 40
0.2488888388
 40
0.3735071292
 40
0.4983169576
 40
0.7486145012
 40
1.0
 40
1.0
 40
1.0
 40
1.0
 10
40.8042782998
 20
36.8655632201
 30
0.0
 10
40.8042782998
 20
36.780952322
 30
0.0
 10
40.8001469227
 20
36.6116463411
 30
0.0
 10
40.7816635441
 20
36.3581939849
 30
0.0
 10
40.7512751152
 20
36.1056132951
 30
0.0
 10
40.6957359579
 20
35.7702080305
 30
0.0
 10
40.6002357058
 20
35.3544925349
 30
0.0
 10
40.5010797889
 20
35.0277644572
 30
0.0
 10
40.4470127099
 20
34.8655632201
 30
0.0
  0
SPLINE
  5
248
100
AcDbEntity
  8
0
100
AcDbSpline
 62
7
  6
BYLAYER
 70
0
 71
3
 72
18
 73
14
 74
0
 42
0.0000001
 43
0.0000001
 44
0.0000000001
 40
0.0
 40
0.0
 40
0.0
 40
0.0
 40
0.1632222941
 40
0.3223564076
 40
0.4742003575
 40
0.6158937582
 40
0.7440410473
 40
0.8016965799
 40
0.8542235631
 40
0.9009164337
 40
0.9410989351
 40
0.974188015
 40
1.0
 40
1.0
 40
1.0
 40
1.0
 10
5.8042782998
 20
35.6205466637
 30
0.0
 10
5.865338346
 20
35.6205466637
 30
0.0
 10
5.9861513794
 20
35.631475941
 30
0.0
 10
6.1586468739
 20
35.6749023048
 30
0.0
 10
6.3176220658
 20
35.7338287424
 30
0.0
 10
6.4617044875
 20
35.7981779711
 30
0.0
 10
6.5719877985
 20
35.8515414093
 30
0.0
 10
6.6523387482
 20
35.8901763926
 30
0.0
 10
6.7055390338
 20
35.9149600554
 30
0.0
 10
6.7533809566
 20
35.9357303725
 30
0.0
 10
6.7953338177
 20
35.9517564282
 30
0.0
 10
6.8309143394
 20
35.9622770426
 30
0.0
 10
6.8529150443
 20
35.9653956313
 30
0.0
 10
6.8625710843
 20
35.9653956313
 30
0.0
  0
SPLINE
  5
249
100
AcDbEntity
  8
0
100
AcDbSpline
 62
7
  6
BYLAYER
 70
0
 71
3
 72
18
 73
14
 74
0
 42
0.0000001
 43
0.0000001
 44
0.0000000001
 40
0.0
 40
0.0
 40
0.0
 40
0.0
 40
0.025811983
 40
0.058901062
 40
0.0990835599
 40
0.1457764271
 40
0.1983034069
 40
0.2559589362
 40
0.3841062197
 40
0.5257996283
 40
0.6776435569
 40
0.8367776853
 40
1.0
 40
1.0
 40
1.0
 40
1.0
 10
6.8625710846
 20
33.765730809
 30
0.0
 10
6.8529150453
 20
33.765730809
 30
0.0
 10
6.8309143395
 20
33.7688493847
 30
0.0
 10
6.7953338254
 20
33.7793700199
 30
0.0
 10
6.7533809629
 20
33.7953960608
 30
0.0
 10
6.7055390447
 20
33.8161663805
 30
0.0
 10
6.6523387628
 20
33.8409500417
 30
0.0
 10
6.5719878161
 20
33.879585021
 30
0.0
 10
6.4617045065
 20
33.9329484611
 30
0.0
 10
6.317622091
 20
33.9972976863
 30
0.0
 10
6.1586468999
 20
34.0562241282
 30
0.0
 10
5.9861513998
 20
34.0996504908
 30
0.0
 10
5.8653383538
 20
34.1105797766
 30
0.0
 10
5.8042782998
 20
34.1105797766
 30
0.0
  0
ENDSEC
  0
SECTION
  2
OBJECTS
  0
DICTIONARY
  5
C
100
AcDbDictionary
280
0
281
1
  3
ACAD_GROUP
350
D
  3
ACAD_MLINESTYLE
350
17
  3
ACAD_LAYOUT
350
1A
  3
ACAD_PLOTSETTINGS
350
19
  3
ACAD_PLOTSTYLENAME
350
E
  0
DICTIONARY
  5
D
102
{ACAD_REACTORS
330
C
102
}
100
AcDbDictionary
280
0
281
1
  0
ACDBDICTIONARYWDFLT
  5
E
102
{ACAD_REACTORS
330
C
102
}
100
AcDbDictionary
281
1
  3
Normal
350
F
100
AcDbDictionaryWithDefault
340
F
  0
DICTIONARY
  5
17
102
{ACAD_REACTORS
330
C
102
}
100
AcDbDictionary
280
0
281
1
  3
Standard
350
18
  0
DICTIONARY
  5
19
102
{ACAD_REACTORS
330
C
102
}
100
AcDbDictionary
281
1
  0
DICTIONARY
  5
1A
102
{ACAD_REACTORS
330
C
102
}
100
AcDbDictionary
281
1
  3
Model
350
24A
  3
Layout1
350
24B
  0
ACDBPLACEHOLDER
  5
F
102
{ACAD_REACTORS
330
E
102
}
  0
MLINESTYLE
  5
18
102
{ACAD_REACTORS
330
17
102
}
100
AcDbMlineStyle
  2
STANDARD
 70
0
  3

 62
256
 51
90.0
 52
90.0
 71
2
 49
0.5
 62
256
  6
BYLAYER
 49
-0.5
 62
256
  6
BYLAYER
  0
LAYOUT
  5
24A
102
{ACAD_REACTORS
330
1A
102
}
100
AcDbPlotSettings
  1

  2
none_device
  4

  6

 40
0.0
 41
0.0
 42
0.0
 43
0.0
 44
210.0
 45
297.0
 46
0.0
 47
0.0
 48
0.0
 49
0.0
140
0.0
141
0.0
142
1.0
143
1.0
 70
1024
 72
1
 73
0
 74
0
  7

 75
0
147
1.0
148
0.0
149
0.0
100
AcDbLayout
  1
Model
 70
0
 71
0
 10
0.0
 20
0.0
 11
210.0
 21
297.0
 12
0.0
 22
0.0
 32
0.0
 14
0.0
 24
0.0
 34
0.0
 15
0.0
 25
0.0
 35
0.0
146
0.0
 13
0.0
 23
0.0
 33
0.0
 16
1.0
 26
0.0
 36
0.0
 17
0.0
 27
1.0
 37
0.0
 76
0
330
210
345
0
346
0
  0
LAYOUT
  5
24B
102
{ACAD_REACTORS
330
1A
102
}
100
AcDbPlotSettings
  1

  2
none_device
  4

  6

 40
0.0
 41
0.0
 42
0.0
 43
0.0
 44
210.0
 45
297.0
 46
0.0
 47
0.0
 48
0.0
 49
0.0
140
0.0
141
0.0
142
1.0
143
1.0
 70
0
 72
1
 73
0
 74
0
  7

 75
0
147
1.0
148
0.0
149
0.0
100
AcDbLayout
  1
Layout1
 70
0
 71
1
 10
0.0
 20
0.0
 11
210.0
 21
297.0
 12
0.0
 22
0.0
 32
0.0
 14
0.0
 24
0.0
 34
0.0
 15
0.0
 25
0.0
 35
0.0
146
0.0
 13
0.0
 23
0.0
 33
0.0
 16
1.0
 26
0.0
 36
0.0
 17
0.0
 27
1.0
 37
0.0
 76
0
330
211
345
0
346
0
  0
ENDSEC
  0
EOF
