999
DXF file: C:\Users\sesa63760\Dev\_Creo\CAD\MCADPD0005441_3D-CAD\drw0001_1.dxf
999
Pro/ENGINEER 2019471 by Parametric Technology Corporation
  0
SECTION
  2
HEADER
  9
$ACADVER
  1
AC1024
  9
$DWGCODEPAGE
  3
ANSI_1252
  9
$EXTMAX
 10
72.1989701655
 20
102.1099720912
 30
0.0
  9
$EXTMIN
 10
0.0
 20
0.0
 30
0.0
  9
$LIMMIN
 10
0.0
 20
0.0
  9
$LIMMAX
 10
72.1989701655
 20
102.1099720912
  9
$VIEWCTR
 10
36.0994850828
 20
51.0549860456
  9
$VIEWSIZE
 40
102.1099720912
  9
$CLAYER
  8
0
  9
$LTSCALE
 40
6.65605744
  9
$CELTYPE
  6
BYLAYER
  9
$DIMSCALE
 40
1.0
  9
$DIMASZ
 40
0.8595115496
  9
$DIMEXO
 40
1.0
  9
$DIMDLI
 40
4.5987305949
  9
$DIMEXE
 40
1.0
  9
$DIMCEN
 40
1.0891730356
  9
$DIMLFAC
 40
1.0
  9
$DIMBLK
  1
_FILLED
  9
$DIMALT
 70
0
  9
$DIMALTF
 40
0.0393700787
  9
$DIMTXT
 40
1.2033161694
  9
$DIMTOL
 70
1
  9
$DIMLIM
 70
0
  9
$DIMTFAC
 40
1.0
  9
$DIMTP
 40
0.01
  9
$DIMTM
 40
0.01
  9
$DIMGAP
 40
0.625
  9
$DIMDSEP
 70
46
  9
$AUNITS
 70
0
  9
$PDMODE
 70
3
  9
$PDSIZE
 40
0.3125
  9
$HANDSEED
  5
2CA
  9
$TILEMODE
 70
1
  9
$MEASUREMENT
 70
1
  9
$INSUNITS
 70
4
  0
ENDSEC
  0
SECTION
  2
CLASSES
  0
CLASS
  1
ACDBDICTIONARYWDFLT
  2
AcDbDictionaryWithDefault
  3
AutoCAD 2000
 90
0
 91
1
280
0
281
0
  0
CLASS
  1
ACDBPLACEHOLDER
  2
AcDbPlaceHolder
  3
AutoCAD 2000
 90
0
 91
1
280
0
281
0
  0
CLASS
  1
LAYOUT
  2
AcDbLayout
  3
AutoCAD 2000
 90
0
 91
0
280
0
281
0
  0
ENDSEC
  0
SECTION
  2
TABLES
  0
TABLE
  2
VPORT
  5
8
100
AcDbSymbolTable
 70
2
  0
VPORT
  5
1F4
100
AcDbSymbolTableRecord
100
AcDbViewportTableRecord
  2
*ACTIVE
 70
0
 10
0.0
 20
0.0
 11
1.0
 21
1.0
 12
36.0994850828
 22
51.0549860456
 13
0.0
 23
0.0
 14
1.0
 24
1.0
 15
0.0
 25
0.0
 16
0.0
 26
0.0
 36
1.0
 17
0.0
 27
0.0
 37
0.0
 40
102.1099720912
 41
0.7070707071
 42
50.0
 43
0.0
 44
0.0
 50
0.0
 51
0.0
 71
0
 72
100
 73
1
 74
1
 75
0
 76
0
 77
0
 78
0
  0
ENDTAB
  0
TABLE
  2
LTYPE
  5
5
100
AcDbSymbolTable
 70
6
  0
LTYPE
  5
14
100
AcDbSymbolTableRecord
100
AcDbLinetypeTableRecord
  2
BYBLOCK
 70
0
  3

 72
65
 73
0
 40
0.0
  0
LTYPE
  5
15
100
AcDbSymbolTableRecord
100
AcDbLinetypeTableRecord
  2
BYLAYER
 70
0
  3

 72
65
 73
0
 40
0.0
  0
LTYPE
  5
16
100
AcDbSymbolTableRecord
100
AcDbLinetypeTableRecord
  2
CONTINUOUS
 70
64
  3
Solid line
 72
65
 73
0
 40
0.0
  0
LTYPE
  5
1F5
100
AcDbSymbolTableRecord
100
AcDbLinetypeTableRecord
  2
CENTER
 70
64
  3
____ _ ____ _ ____ _ ____ _ ____ _ ____ _ ____
 72
65
 73
4
 40
0.6
 49
0.375
 74
0
 49
-0.075
 74
0
 49
0.075
 74
0
 49
-0.075
 74
0
  0
LTYPE
  5
1F6
100
AcDbSymbolTableRecord
100
AcDbLinetypeTableRecord
  2
HIDDEN
 70
64
  3
- - - - - - - - - - - - - - - - - - - -
 72
65
 73
2
 40
0.2
 49
0.1
 74
0
 49
-0.1
 74
0
  0
LTYPE
  5
1F7
100
AcDbSymbolTableRecord
100
AcDbLinetypeTableRecord
  2
PHANTOM
 70
64
  3
_____ _ _ _____ _ _ _____ _ _ _____
 72
65
 73
6
 40
0.8
 49
0.45
 74
0
 49
-0.05
 74
0
 49
0.1
 74
0
 49
-0.05
 74
0
 49
0.1
 74
0
 49
-0.05
 74
0
  0
LTYPE
  5
1F8
100
AcDbSymbolTableRecord
100
AcDbLinetypeTableRecord
  2
DOT
 70
64
  3
. . . . . . . . . . . . . . . . . . . .
 72
65
 73
2
 40
0.2
 49
0.1
 74
0
 49
-0.1
 74
0
  0
LTYPE
  5
1F9
100
AcDbSymbolTableRecord
100
AcDbLinetypeTableRecord
  2
DASHED
 70
64
  3
- - - - - - - - - - - - - - - - - - - -
 72
65
 73
2
 40
0.2
 49
0.1
 74
0
 49
-0.1
 74
0
  0
ENDTAB
  0
TABLE
  2
LAYER
  5
2
100
AcDbSymbolTable
 70
36
  0
LAYER
  5
10
100
AcDbSymbolTableRecord
100
AcDbLayerTableRecord
  2
0
 70
0
 62
7
  6
CONTINUOUS
370
-3
390
F
  0
LAYER
  5
1FA
100
AcDbSymbolTableRecord
100
AcDbLayerTableRecord
  2
DEFAULT_1
 70
0
 62
7
  6
CENTER
370
-3
390
F
  0
LAYER
  5
1FB
100
AcDbSymbolTableRecord
100
AcDbLayerTableRecord
  2
DEFAULT_2
 70
0
 62
7
  6
HIDDEN
370
-3
390
F
  0
LAYER
  5
1FC
100
AcDbSymbolTableRecord
100
AcDbLayerTableRecord
  2
DEFAULT_3
 70
0
 62
7
  6
PHANTOM
370
-3
390
F
  0
LAYER
  5
1FD
100
AcDbSymbolTableRecord
100
AcDbLayerTableRecord
  2
00_COMPONENTS
 70
0
 62
7
  6
CONTINUOUS
370
-3
390
F
  0
LAYER
  5
1FE
100
AcDbSymbolTableRecord
100
AcDbLayerTableRecord
  2
01_1_DEFAULT_DATUMS
 70
0
 62
7
  6
CONTINUOUS
370
-3
390
F
  0
LAYER
  5
1FF
100
AcDbSymbolTableRecord
100
AcDbLayerTableRecord
  2
01_PLANES
 70
0
 62
7
  6
CONTINUOUS
370
-3
390
F
  0
LAYER
  5
200
100
AcDbSymbolTableRecord
100
AcDbLayerTableRecord
  2
02_COORD_SYS
 70
0
 62
7
  6
CONTINUOUS
370
-3
390
F
  0
LAYER
  5
201
100
AcDbSymbolTableRecord
100
AcDbLayerTableRecord
  2
03_AXES
 70
0
 62
7
  6
CONTINUOUS
370
-3
390
F
  0
LAYER
  5
202
100
AcDbSymbolTableRecord
100
AcDbLayerTableRecord
  2
04_POINTS
 70
0
 62
7
  6
CONTINUOUS
370
-3
390
F
  0
LAYER
  5
203
100
AcDbSymbolTableRecord
100
AcDbLayerTableRecord
  2
05_CURVES
 70
0
 62
7
  6
CONTINUOUS
370
-3
390
F
  0
LAYER
  5
204
100
AcDbSymbolTableRecord
100
AcDbLayerTableRecord
  2
06_SURFS
 70
0
 62
7
  6
CONTINUOUS
370
-3
390
F
  0
LAYER
  5
205
100
AcDbSymbolTableRecord
100
AcDbLayerTableRecord
  2
07_COSMETICS
 70
0
 62
7
  6
CONTINUOUS
370
-3
390
F
  0
LAYER
  5
206
100
AcDbSymbolTableRecord
100
AcDbLayerTableRecord
  2
10_NOTES
 70
0
 62
7
  6
CONTINUOUS
370
-3
390
F
  0
LAYER
  5
207
100
AcDbSymbolTableRecord
100
AcDbLayerTableRecord
  2
11_NOTES_PUB
 70
0
 62
7
  6
CONTINUOUS
370
-3
390
F
  0
LAYER
  5
208
100
AcDbSymbolTableRecord
100
AcDbLayerTableRecord
  2
13_REF_GTOL
 70
0
 62
7
  6
CONTINUOUS
370
-3
390
F
  0
LAYER
  5
209
100
AcDbSymbolTableRecord
100
AcDbLayerTableRecord
  2
16_MISC
 70
0
 62
7
  6
CONTINUOUS
370
-3
390
F
  0
LAYER
  5
20A
100
AcDbSymbolTableRecord
100
AcDbLayerTableRecord
  2
17_NO_PRINT
 70
0
 62
7
  6
CONTINUOUS
370
-3
390
F
  0
LAYER
  5
20B
100
AcDbSymbolTableRecord
100
AcDbLayerTableRecord
  2
18_DATUM_CAMS_JOINTS
 70
0
 62
7
  6
CONTINUOUS
370
-3
390
F
  0
LAYER
  5
20C
100
AcDbSymbolTableRecord
100
AcDbLayerTableRecord
  2
19_DATUM_FUNCTIONAL
 70
0
 62
7
  6
CONTINUOUS
370
-3
390
F
  0
LAYER
  5
20D
100
AcDbSymbolTableRecord
100
AcDbLayerTableRecord
  2
20_DATUM_KINEMATIC_SCHEME
 70
0
 62
7
  6
CONTINUOUS
370
-3
390
F
  0
ENDTAB
  0
TABLE
  2
STYLE
  5
3
100
AcDbSymbolTable
 70
1
  0
STYLE
  5
11
100
AcDbSymbolTableRecord
100
AcDbTextStyleTableRecord
  2
STANDARD
 70
0
 40
0.0
 41
1.0
 50
0.0
 71
0
 42
0.2
  3
ARIAL.TTF
  4

  0
STYLE
  5
20E
100
AcDbSymbolTableRecord
100
AcDbTextStyleTableRecord
  2
TEXTSTYLE_1
 70
0
 40
0.0
 41
0.8
 50
0.0
 71
0
 42
0.2
  3
gdt
  4

  0
ENDTAB
  0
TABLE
  2
VIEW
  5
6
100
AcDbSymbolTable
 70
0
  0
ENDTAB
  0
TABLE
  2
UCS
  5
7
100
AcDbSymbolTable
 70
0
  0
ENDTAB
  0
TABLE
  2
APPID
  5
9
100
AcDbSymbolTable
 70
1
  0
APPID
  5
20F
100
AcDbSymbolTableRecord
100
AcDbRegAppTableRecord
  2
ACAD
 70
0
  0
ENDTAB
  0
TABLE
  2
BLOCK_RECORD
  5
1
100
AcDbSymbolTable
 70
0
  0
BLOCK_RECORD
  5
210
100
AcDbSymbolTableRecord
100
AcDbBlockTableRecord
  2
*Model_Space
  0
BLOCK_RECORD
  5
211
100
AcDbSymbolTableRecord
100
AcDbBlockTableRecord
  2
*Paper_Space
  0
BLOCK_RECORD
  5
212
100
AcDbSymbolTableRecord
100
AcDbBlockTableRecord
  2
_FILLED
  0
ENDTAB
  0
TABLE
  2
DIMSTYLE
  5
A
100
AcDbSymbolTable
 70
1
100
AcDbDimStyleTable
 71
0
  0
DIMSTYLE
105
213
100
AcDbSymbolTableRecord
100
AcDbDimStyleTableRecord
  2
STANDARD
 70
0
  3

  4

 40
1.0
 41
0.8595115496
 42
1.0
 43
0.38
 44
1.0
 45
0.0
 46
0.0
 47
0.01
 48
0.01
140
1.2033161694
141
0.09
142
0.0
143
25.4
144
1.0
145
0.0
146
1.0
147
0.625
 71
1
 72
0
 73
0
 74
0
 75
0
 76
0
 77
1
 78
8
 79
2
170
0
171
1
172
0
173
0
174
0
175
0
176
0
177
0
178
0
270
2
179
2
271
2
272
2
273
2
274
2
275
0
280
0
281
0
282
0
283
1
284
8
285
0
286
0
287
3
288
0
340
11
278
46
341
212
342
212
343
212
344
212
  0
ENDTAB
  0
ENDSEC
  0
SECTION
  2
BLOCKS
  0
BLOCK
  5
20
100
AcDbEntity
  8
0
100
AcDbBlockBegin
  2
*Model_Space
 70
0
 10
0.0
 20
0.0
 30
0.0
  3
*Model_Space
  1

  0
ENDBLK
  5
21
100
AcDbEntity
  8
0
100
AcDbBlockEnd
  0
BLOCK
  5
1C
100
AcDbEntity
  8
0
100
AcDbBlockBegin
  2
*Paper_Space
 70
0
 10
0.0
 20
0.0
 30
0.0
  3
*Paper_Space
  1

  0
ENDBLK
  5
1D
100
AcDbEntity
  8
0
100
AcDbBlockEnd
  0
BLOCK
  5
214
100
AcDbEntity
  8
0
100
AcDbBlockBegin
  2
_FILLED
 70
64
 10
0.0
 20
0.0
  3
_FILLED
  1

  0
SOLID
  5
215
100
AcDbEntity
  8
0
  6
BYBLOCK
 62
0
100
AcDbTrace
 10
0.0
 20
0.0
 11
-1.0
 21
0.25
 12
-1.0
 22
-0.25
 13
-1.0
 23
-0.25
  0
ENDBLK
  5
216
100
AcDbEntity
  8
0
  6
BYBLOCK
 62
0
100
AcDbBlockEnd
  0
ENDSEC
  0
SECTION
  2
ENTITIES
  0
LINE
  5
217
100
AcDbEntity
  8
0
100
AcDbLine
 62
7
  6
BYLAYER
 10
8.3759112081
 20
56.445946725
 11
8.3759112081
 21
47.056168928
  0
LINE
  5
218
100
AcDbEntity
  8
0
100
AcDbLine
 62
7
  6
BYLAYER
 10
8.3759112081
 20
56.445946725
 11
16.9672228302
 21
61.4061131945
  0
LINE
  5
219
100
AcDbEntity
  8
0
100
AcDbLine
 62
7
  6
BYLAYER
 10
18.8764031907
 20
62.50837241
 11
25.1696273419
 21
66.1417453794
  0
LINE
  5
21A
100
AcDbEntity
  8
0
100
AcDbLine
 62
7
  6
BYLAYER
 10
27.0788077024
 20
67.2440045949
 11
35.6701193245
 21
72.2041710644
  0
LINE
  5
21B
100
AcDbEntity
  8
0
100
AcDbLine
 62
7
  6
BYLAYER
 10
18.310731308
 20
60.6304557609
 11
18.310731308
 21
59.8139533438
  0
LINE
  5
21C
100
AcDbEntity
  8
0
100
AcDbLine
 62
7
  6
BYLAYER
 10
18.59354988
 20
61.6714393462
 11
18.59354988
 21
61.916375962
  0
LINE
  5
21D
100
AcDbEntity
  8
0
100
AcDbLine
 62
7
  6
BYLAYER
 10
18.8764031907
 20
61.1203183008
 11
18.8764031907
 21
62.50837241
  0
LINE
  5
21E
100
AcDbEntity
  8
0
100
AcDbLine
 62
7
  6
BYLAYER
 10
19.5835129159
 20
60.7120775463
 11
19.5835129159
 21
62.1001316554
  0
LINE
  5
21F
100
AcDbEntity
  8
0
100
AcDbLine
 62
7
  6
BYLAYER
 10
20.1491959856
 20
61.0386728694
 11
20.1491959856
 21
62.4267269785
  0
LINE
  5
220
100
AcDbEntity
  8
0
100
AcDbLine
 62
7
  6
BYLAYER
 10
18.59354988
 20
61.916375962
 11
18.8764031907
 21
62.0796804223
  0
LINE
  5
221
100
AcDbEntity
  8
0
100
AcDbLine
 62
7
  6
BYLAYER
 10
27.0788077024
 20
66.5703759914
 11
25.7530151653
 21
65.8049338823
  0
LINE
  5
222
100
AcDbEntity
  8
0
100
AcDbLine
 62
7
  6
BYLAYER
 10
18.8764031907
 20
61.8347438065
 11
17.5506106536
 21
61.0693016974
  0
LINE
  5
223
100
AcDbEntity
  8
0
100
AcDbLine
 62
7
  6
BYLAYER
 10
25.8767370671
 20
65.7335046249
 11
25.3110539973
 21
65.4069093018
  0
LINE
  5
224
100
AcDbEntity
  8
0
100
AcDbLine
 62
7
  6
BYLAYER
 10
20.1491959856
 20
62.4267269785
 11
19.5835129159
 21
62.1001316554
  0
LINE
  5
225
100
AcDbEntity
  8
0
100
AcDbLine
 62
7
  6
BYLAYER
 10
27.0788077024
 20
65.8559504858
 11
25.8767533855
 21
65.161948245
  0
LINE
  5
226
100
AcDbEntity
  8
0
100
AcDbLine
 62
7
  6
BYLAYER
 10
18.8764031907
 20
61.1203183008
 11
18.1693301357
 21
60.712091919
  0
LINE
  5
227
100
AcDbEntity
  8
0
100
AcDbLine
 62
7
  6
BYLAYER
 10
10.7800754417
 20
56.2826555222
 11
18.310731308
 21
60.6304557609
  0
LINE
  5
228
100
AcDbEntity
  8
0
100
AcDbLine
 62
7
  6
BYLAYER
 10
20.7855947383
 20
62.0593102995
 11
25.9474527499
 21
65.0394926227
  0
LINE
  5
229
100
AcDbEntity
  8
0
100
AcDbLine
 62
7
  6
BYLAYER
 10
28.4223161802
 20
66.4683471613
 11
35.9529720465
 21
70.8161474
  0
LINE
  5
22A
100
AcDbEntity
  8
0
100
AcDbLine
 62
7
  6
BYLAYER
 10
20.1491959856
 20
61.0386728694
 11
19.5835129159
 21
60.7120775463
  0
LINE
  5
22B
100
AcDbEntity
  8
0
100
AcDbLine
 62
7
  6
BYLAYER
 10
11.4871973861
 20
55.8744077131
 11
18.310731308
 21
59.8139533438
  0
LINE
  5
22C
100
AcDbEntity
  8
0
100
AcDbLine
 62
7
  6
BYLAYER
 10
20.7855947383
 20
61.2428078823
 11
25.9474527499
 21
64.2229902056
  0
LINE
  5
22D
100
AcDbEntity
  8
0
100
AcDbLine
 62
7
  6
BYLAYER
 10
28.4223161802
 20
65.6518447442
 11
35.9529720465
 21
69.9996449829
  0
LINE
  5
22E
100
AcDbEntity
  8
0
100
AcDbLine
 62
7
  6
BYLAYER
 10
37.6502538292
 20
30.1550016908
 11
8.3759112081
 21
47.056168928
  0
LINE
  5
22F
100
AcDbEntity
  8
0
100
AcDbLine
 62
7
  6
BYLAYER
 10
20.7855947383
 20
62.0593102995
 11
20.7855947383
 21
61.2428078823
  0
LINE
  5
230
100
AcDbEntity
  8
0
100
AcDbLine
 62
7
  6
BYLAYER
 10
19.0885520057
 20
59.3648885138
 11
21.5634154359
 21
60.7937430524
  0
LINE
  5
231
100
AcDbEntity
  8
0
100
AcDbLine
 62
7
  6
BYLAYER
 10
26.7252734476
 20
63.7739253756
 11
29.2001368778
 21
65.2027799142
  0
LINE
  5
232
100
AcDbEntity
  8
0
100
AcDbLine
 62
7
  6
BYLAYER
 10
38.9581883784
 20
69.0811241933
 11
13.7852917736
 21
54.5476323155
  0
LINE
  5
233
100
AcDbEntity
  8
0
100
AcDbLine
 62
7
  6
BYLAYER
 10
25.8767370671
 20
65.0803194176
 11
25.8767370671
 21
65.7335046249
  0
LINE
  5
234
100
AcDbEntity
  8
0
100
AcDbLine
 62
7
  6
BYLAYER
 10
25.9474527499
 20
65.0394926227
 11
25.9474527499
 21
64.2229902056
  0
LINE
  5
235
100
AcDbEntity
  8
0
100
AcDbLine
 62
7
  6
BYLAYER
 10
27.0788077024
 20
65.8559504858
 11
27.0788077024
 21
67.2440045949
  0
LINE
  5
236
100
AcDbEntity
  8
0
100
AcDbLine
 62
7
  6
BYLAYER
 10
37.6502538292
 20
39.5447794878
 11
8.3759112081
 21
56.445946725
  0
LINE
  5
237
100
AcDbEntity
  8
0
100
AcDbLine
 62
7
  6
BYLAYER
 10
28.4223161802
 20
66.4683471613
 11
28.4223161802
 21
65.6518447442
  0
LINE
  5
238
100
AcDbEntity
  8
0
100
AcDbLine
 62
7
  6
BYLAYER
 10
44.8273577769
 20
36.1970479725
 11
45.8880223646
 21
35.5846868407
  0
LINE
  5
239
100
AcDbEntity
  8
0
100
AcDbLine
 62
7
  6
BYLAYER
 10
45.8880223646
 20
35.7479873241
 11
44.8273577769
 21
36.3603484559
  0
LINE
  5
23A
100
AcDbEntity
  8
0
100
AcDbLine
 62
7
  6
BYLAYER
 10
37.3674011072
 20
40.9328031522
 11
34.3621847753
 21
42.6678263589
  0
LINE
  5
23B
100
AcDbEntity
  8
0
100
AcDbLine
 62
7
  6
BYLAYER
 10
13.7852917736
 20
54.5476323155
 11
10.7800754417
 21
56.2826555222
  0
LINE
  5
23C
100
AcDbEntity
  8
0
100
AcDbLine
 62
7
  6
BYLAYER
 10
47.5673518788
 20
36.5542424003
 11
48.1507458118
 21
36.2174273758
  0
LINE
  5
23D
100
AcDbEntity
  8
0
100
AcDbLine
 62
7
  6
BYLAYER
 10
27.715313321
 20
52.0573868285
 11
40.655313542
 21
59.5282548443
  0
LINE
  5
23E
100
AcDbEntity
  8
0
100
AcDbLine
 62
7
  6
BYLAYER
 10
36.0237834083
 20
55.2212508022
 11
40.655313542
 21
57.8952500101
  0
LINE
  5
23F
100
AcDbEntity
  8
0
100
AcDbLine
 62
7
  6
BYLAYER
 10
42.988775635
 20
58.1810603544
 11
30.048775414
 21
50.7101923386
  0
LINE
  5
240
100
AcDbEntity
  8
0
100
AcDbLine
 62
7
  6
BYLAYER
 10
50.6963314016
 20
38.1158051162
 11
49.2821119513
 21
38.9322866253
  0
LINE
  5
241
100
AcDbEntity
  8
0
100
AcDbLine
 62
7
  6
BYLAYER
 10
45.8880223646
 20
41.0144279146
 11
44.8273577769
 21
41.6267890464
  0
LINE
  5
242
100
AcDbEntity
  8
0
100
AcDbLine
 62
7
  6
BYLAYER
 10
44.8273577769
 20
41.7900895298
 11
45.8880223646
 21
41.177728398
  0
LINE
  5
243
100
AcDbEntity
  8
0
100
AcDbLine
 62
7
  6
BYLAYER
 10
30.048775414
 20
50.7101923386
 11
27.715313321
 21
52.0573868285
  0
LINE
  5
244
100
AcDbEntity
  8
0
100
AcDbLine
 62
7
  6
BYLAYER
 10
45.1809096955
 20
42.4024628153
 11
45.8880194206
 21
41.9942220608
  0
LINE
  5
245
100
AcDbEntity
  8
0
100
AcDbLine
 62
7
  6
BYLAYER
 10
35.9529720465
 20
69.9996449829
 11
35.9529720465
 21
70.8161474
  0
LINE
  5
246
100
AcDbEntity
  8
0
100
AcDbLine
 62
7
  6
BYLAYER
 10
36.0237834083
 20
55.2212508022
 11
36.0237834083
 21
54.1598442208
  0
LINE
  5
247
100
AcDbEntity
  8
0
100
AcDbLine
 62
7
  6
BYLAYER
 10
19.0885520057
 20
59.3648885138
 11
18.310731308
 21
59.8139533438
  0
LINE
  5
248
100
AcDbEntity
  8
0
100
AcDbLine
 62
7
  6
BYLAYER
 10
44.1202362759
 20
44.9131658038
 11
44.1909350291
 21
44.872348783
  0
LINE
  5
249
100
AcDbEntity
  8
0
100
AcDbLine
 62
7
  6
BYLAYER
 10
18.310731308
 20
60.6304557609
 11
16.9672228302
 21
61.4061131945
  0
LINE
  5
24A
100
AcDbEntity
  8
0
100
AcDbLine
 62
7
  6
BYLAYER
 10
44.8980569735
 20
45.280603391
 11
46.2415654513
 21
44.5049459574
  0
LINE
  5
24B
100
AcDbEntity
  8
0
100
AcDbLine
 62
7
  6
BYLAYER
 10
19.5835129159
 20
60.7120775463
 11
18.8764031907
 21
61.1203183008
  0
LINE
  5
24C
100
AcDbEntity
  8
0
100
AcDbLine
 62
7
  6
BYLAYER
 10
47.4436360866
 20
44.6273918182
 11
48.1507458118
 21
44.2191510637
  0
LINE
  5
24D
100
AcDbEntity
  8
0
100
AcDbLine
 62
7
  6
BYLAYER
 10
50.6963314016
 20
43.3822457067
 11
50.3427765391
 21
43.586366084
  0
LINE
  5
24E
100
AcDbEntity
  8
0
100
AcDbLine
 62
7
  6
BYLAYER
 10
18.59354988
 20
61.916375962
 11
18.805674244
 21
61.7939086738
  0
LINE
  5
24F
100
AcDbEntity
  8
0
100
AcDbLine
 62
7
  6
BYLAYER
 10
21.0684300748
 20
60.5079648268
 11
20.1491959856
 21
61.0386728694
  0
LINE
  5
250
100
AcDbEntity
  8
0
100
AcDbLine
 62
7
  6
BYLAYER
 10
46.5950997061
 20
45.7704686504
 11
47.4436360866
 21
45.2805770255
  0
LINE
  5
251
100
AcDbEntity
  8
0
100
AcDbLine
 62
7
  6
BYLAYER
 10
37.6502538292
 20
39.5447794878
 11
37.6502538292
 21
30.1550016908
  0
LINE
  5
252
100
AcDbEntity
  8
0
100
AcDbLine
 62
7
  6
BYLAYER
 10
21.5634154359
 20
60.7937430524
 11
20.7855947383
 21
61.2428078823
  0
LINE
  5
253
100
AcDbEntity
  8
0
100
AcDbLine
 62
7
  6
BYLAYER
 10
46.5950997061
 20
46.3420203424
 11
47.3729204038
 21
45.8929555124
  0
LINE
  5
254
100
AcDbEntity
  8
0
100
AcDbLine
 62
7
  6
BYLAYER
 10
19.5835129159
 20
62.1001316554
 11
18.8764031907
 21
62.50837241
  0
LINE
  5
255
100
AcDbEntity
  8
0
100
AcDbLine
 62
7
  6
BYLAYER
 10
47.4436360866
 20
46.0154459273
 11
48.1507458118
 21
45.6072051728
  0
LINE
  5
256
100
AcDbEntity
  8
0
100
AcDbLine
 62
7
  6
BYLAYER
 10
55.7697563905
 20
41.2898745852
 11
56.3531503235
 21
40.9530595607
  0
LINE
  5
257
100
AcDbEntity
  8
0
100
AcDbLine
 62
7
  6
BYLAYER
 10
55.6283806662
 20
41.4532095398
 11
51.9160085653
 21
43.5965209919
  0
LINE
  5
258
100
AcDbEntity
  8
0
100
AcDbLine
 62
7
  6
BYLAYER
 10
20.7855947383
 20
62.0593102995
 11
20.1491959856
 21
62.4267269785
  0
LINE
  5
259
100
AcDbEntity
  8
0
100
AcDbLine
 62
7
  6
BYLAYER
 10
47.3729204038
 20
46.7094579295
 11
48.0093191564
 21
46.3420412504
  0
LINE
  5
25A
100
AcDbEntity
  8
0
100
AcDbLine
 62
7
  6
BYLAYER
 10
40.655313542
 20
57.8952500101
 11
40.655313542
 21
59.5282548443
  0
LINE
  5
25B
100
AcDbEntity
  8
0
100
AcDbLine
 62
7
  6
BYLAYER
 10
36.9430016125
 20
54.6905519306
 11
36.0237834083
 21
55.2212508022
  0
LINE
  5
25C
100
AcDbEntity
  8
0
100
AcDbLine
 62
7
  6
BYLAYER
 10
58.8280225856
 20
43.21885534
 11
57.7673579979
 21
43.8312164717
  0
LINE
  5
25D
100
AcDbEntity
  8
0
100
AcDbLine
 62
7
  6
BYLAYER
 10
34.3621847753
 20
42.6678263589
 11
59.5350813801
 21
57.2013182368
  0
LINE
  5
25E
100
AcDbEntity
  8
0
100
AcDbLine
 62
7
  6
BYLAYER
 10
35.0693067197
 20
42.2595785498
 11
59.5350813801
 21
56.3848158196
  0
LINE
  5
25F
100
AcDbEntity
  8
0
100
AcDbLine
 62
7
  6
BYLAYER
 10
55.7521238377
 20
46.3011914069
 11
55.3985689751
 21
46.5053117842
  0
LINE
  5
260
100
AcDbEntity
  8
0
100
AcDbLine
 62
7
  6
BYLAYER
 10
26.7252734476
 20
63.7739253756
 11
25.9474527499
 21
64.2229902056
  0
LINE
  5
261
100
AcDbEntity
  8
0
100
AcDbLine
 62
7
  6
BYLAYER
 10
51.7569577178
 20
49.3222026656
 11
51.8276564711
 21
49.2813856448
  0
LINE
  5
262
100
AcDbEntity
  8
0
100
AcDbLine
 62
7
  6
BYLAYER
 10
53.1711771681
 20
49.3222235737
 11
52.5347784154
 21
49.6896402528
  0
LINE
  5
263
100
AcDbEntity
  8
0
100
AcDbLine
 62
7
  6
BYLAYER
 10
25.3110539973
 20
65.4069093018
 11
25.9474527499
 21
65.0394926227
  0
LINE
  5
264
100
AcDbEntity
  8
0
100
AcDbLine
 62
7
  6
BYLAYER
 10
25.8767370671
 20
65.7335046249
 11
25.1696273419
 21
66.1417453794
  0
LINE
  5
265
100
AcDbEntity
  8
0
100
AcDbLine
 62
7
  6
BYLAYER
 10
53.7368602378
 20
49.6488188968
 11
54.443969963
 21
49.2405781423
  0
LINE
  5
266
100
AcDbEntity
  8
0
100
AcDbLine
 62
7
  6
BYLAYER
 10
44.8273577769
 20
36.1970479725
 11
44.8273577769
 21
36.3603484559
  0
LINE
  5
267
100
AcDbEntity
  8
0
100
AcDbLine
 62
7
  6
BYLAYER
 10
44.8273577769
 20
41.6267890464
 11
44.8273577769
 21
41.7900895298
  0
LINE
  5
268
100
AcDbEntity
  8
0
100
AcDbLine
 62
7
  6
BYLAYER
 10
45.8880223646
 20
35.5846868407
 11
45.8880223646
 21
35.7479873241
  0
LINE
  5
269
100
AcDbEntity
  8
0
100
AcDbLine
 62
7
  6
BYLAYER
 10
45.8880223646
 20
41.0144279146
 11
45.8880194206
 21
41.9942220608
  0
LINE
  5
26A
100
AcDbEntity
  8
0
100
AcDbLine
 62
7
  6
BYLAYER
 10
46.2415654513
 20
35.7888038186
 11
46.2415654513
 21
35.1151681604
  0
LINE
  5
26B
100
AcDbEntity
  8
0
100
AcDbLine
 62
7
  6
BYLAYER
 10
46.2415654513
 20
43.1168918483
 11
46.2415654513
 21
44.5049459574
  0
LINE
  5
26C
100
AcDbEntity
  8
0
100
AcDbLine
 62
7
  6
BYLAYER
 10
44.1202362759
 20
44.9131658038
 11
46.5950997061
 21
46.3420203424
  0
LINE
  5
26D
100
AcDbEntity
  8
0
100
AcDbLine
 62
7
  6
BYLAYER
 10
51.7569577178
 20
49.3222026656
 11
54.231821148
 21
50.7510572042
  0
LINE
  5
26E
100
AcDbEntity
  8
0
100
AcDbLine
 62
7
  6
BYLAYER
 10
62.540297712
 20
55.4662950301
 11
55.0096418457
 21
51.1184947913
  0
LINE
  5
26F
100
AcDbEntity
  8
0
100
AcDbLine
 62
7
  6
BYLAYER
 10
52.5347784154
 20
49.6896402528
 11
47.3729204038
 21
46.7094579295
  0
LINE
  5
270
100
AcDbEntity
  8
0
100
AcDbLine
 62
7
  6
BYLAYER
 10
44.8980569735
 20
45.280603391
 11
37.3674011072
 21
40.9328031522
  0
LINE
  5
271
100
AcDbEntity
  8
0
100
AcDbLine
 62
7
  6
BYLAYER
 10
45.3223435813
 20
45.0356469454
 11
46.5950997061
 21
45.7704686504
  0
LINE
  5
272
100
AcDbEntity
  8
0
100
AcDbLine
 62
7
  6
BYLAYER
 10
52.9590650232
 20
49.4446838072
 11
54.231821148
 21
50.1795055122
  0
LINE
  5
273
100
AcDbEntity
  8
0
100
AcDbLine
 62
7
  6
BYLAYER
 10
40.655313542
 20
57.8952500101
 11
41.5745317462
 21
57.3645511385
  0
LINE
  5
274
100
AcDbEntity
  8
0
100
AcDbLine
 62
7
  6
BYLAYER
 10
28.7051515168
 20
64.9170016886
 11
27.0788077024
 21
65.8559504858
  0
LINE
  5
275
100
AcDbEntity
  8
0
100
AcDbLine
 62
7
  6
BYLAYER
 10
54.231821148
 20
50.1795055122
 11
56.3531503235
 21
48.9547832486
  0
LINE
  5
276
100
AcDbEntity
  8
0
100
AcDbLine
 62
7
  6
BYLAYER
 10
29.2001368778
 20
65.2027799142
 11
28.4223161802
 21
65.6518447442
  0
LINE
  5
277
100
AcDbEntity
  8
0
100
AcDbLine
 62
7
  6
BYLAYER
 10
54.231821148
 20
50.7510572042
 11
55.0096418457
 21
50.3019923742
  0
LINE
  5
278
100
AcDbEntity
  8
0
100
AcDbLine
 62
7
  6
BYLAYER
 10
58.8280225856
 20
48.6485964139
 11
57.4138060793
 21
49.4650866773
  0
LINE
  5
279
100
AcDbEntity
  8
0
100
AcDbLine
 62
7
  6
BYLAYER
 10
28.4223161802
 20
66.4683471613
 11
27.0788077024
 21
67.2440045949
  0
LINE
  5
27A
100
AcDbEntity
  8
0
100
AcDbLine
 62
7
  6
BYLAYER
 10
55.0096418457
 20
51.1184947913
 11
56.3531503235
 21
50.3428373577
  0
LINE
  5
27B
100
AcDbEntity
  8
0
100
AcDbLine
 62
7
  6
BYLAYER
 10
40.655313542
 20
59.5282548443
 11
42.988775635
 21
58.1810603544
  0
LINE
  5
27C
100
AcDbEntity
  8
0
100
AcDbLine
 62
7
  6
BYLAYER
 10
46.5950997061
 20
45.7704686504
 11
46.5950997061
 21
46.3420203424
  0
LINE
  5
27D
100
AcDbEntity
  8
0
100
AcDbLine
 62
7
  6
BYLAYER
 10
47.3729204038
 20
46.7094579295
 11
47.3729204038
 21
45.8929555124
  0
LINE
  5
27E
100
AcDbEntity
  8
0
100
AcDbLine
 62
7
  6
BYLAYER
 10
47.4436360866
 20
44.6273918182
 11
47.4436360866
 21
46.0154459273
  0
LINE
  5
27F
100
AcDbEntity
  8
0
100
AcDbLine
 62
7
  6
BYLAYER
 10
48.1507458118
 20
36.891063034
 11
48.1507458118
 21
36.2174273758
  0
LINE
  5
280
100
AcDbEntity
  8
0
100
AcDbLine
 62
7
  6
BYLAYER
 10
48.1507458118
 20
44.2191510637
 11
48.1507458118
 21
45.6072051728
  0
LINE
  5
281
100
AcDbEntity
  8
0
100
AcDbLine
 62
7
  6
BYLAYER
 10
45.1809096955
 20
42.4024628153
 11
44.8273577769
 21
41.7900895298
  0
LINE
  5
282
100
AcDbEntity
  8
0
100
AcDbLine
 62
7
  6
BYLAYER
 10
53.7368602378
 20
49.6488188968
 11
53.1711771681
 21
49.3222235737
  0
LINE
  5
283
100
AcDbEntity
  8
0
100
AcDbLine
 62
7
  6
BYLAYER
 10
48.0093191564
 20
46.3420412504
 11
47.4436360866
 21
46.0154459273
  0
LINE
  5
284
100
AcDbEntity
  8
0
100
AcDbLine
 62
7
  6
BYLAYER
 10
64.9444619456
 20
55.3030038273
 11
56.3531503235
 21
50.3428373577
  0
LINE
  5
285
100
AcDbEntity
  8
0
100
AcDbLine
 62
7
  6
BYLAYER
 10
54.443969963
 20
49.2405781423
 11
48.1507458118
 21
45.6072051728
  0
LINE
  5
286
100
AcDbEntity
  8
0
100
AcDbLine
 62
7
  6
BYLAYER
 10
46.2415654513
 20
44.5049459574
 11
37.6502538292
 21
39.5447794878
  0
LINE
  5
287
100
AcDbEntity
  8
0
100
AcDbLine
 62
7
  6
BYLAYER
 10
56.3531503235
 20
48.9547832486
 11
54.443969963
 21
47.8525240332
  0
LINE
  5
288
100
AcDbEntity
  8
0
100
AcDbLine
 62
7
  6
BYLAYER
 10
48.1507458118
 20
44.2191510637
 11
46.2415654513
 21
43.1168918483
  0
LINE
  5
289
100
AcDbEntity
  8
0
100
AcDbLine
 62
7
  6
BYLAYER
 10
45.1809096955
 20
42.4024628153
 11
57.4138060793
 21
49.4650866773
  0
LINE
  5
28A
100
AcDbEntity
  8
0
100
AcDbLine
 62
7
  6
BYLAYER
 10
49.2821119513
 20
38.9322866253
 11
49.2821119513
 21
42.9739947541
  0
LINE
  5
28B
100
AcDbEntity
  8
0
100
AcDbLine
 62
7
  6
BYLAYER
 10
50.6963314016
 20
38.1158051162
 11
50.6963314016
 21
43.3822457067
  0
LINE
  5
28C
100
AcDbEntity
  8
0
100
AcDbLine
 62
7
  6
BYLAYER
 10
50.8200745731
 20
42.9637869834
 11
50.8200745731
 21
38.6771492934
  0
LINE
  5
28D
100
AcDbEntity
  8
0
100
AcDbLine
 62
7
  6
BYLAYER
 10
45.8880194206
 20
41.9942220608
 11
58.1209158044
 21
49.0568459228
  0
LINE
  5
28E
100
AcDbEntity
  8
0
100
AcDbLine
 62
7
  6
BYLAYER
 10
45.8880223646
 20
41.177728398
 11
58.8280225856
 21
48.6485964139
  0
LINE
  5
28F
100
AcDbEntity
  8
0
100
AcDbLine
 62
7
  6
BYLAYER
 10
45.8880223646
 20
41.0144279146
 11
58.8280225856
 21
48.4852959304
  0
LINE
  5
290
100
AcDbEntity
  8
0
100
AcDbLine
 62
7
  6
BYLAYER
 10
50.6963314016
 20
43.3822457067
 11
55.7521238377
 21
46.3011914069
  0
LINE
  5
291
100
AcDbEntity
  8
0
100
AcDbLine
 62
7
  6
BYLAYER
 10
55.6283806662
 20
45.7398472297
 11
50.8200745731
 21
42.9637869834
  0
LINE
  5
292
100
AcDbEntity
  8
0
100
AcDbLine
 62
7
  6
BYLAYER
 10
50.8200745731
 20
40.9078509434
 11
53.6965268585
 21
42.5685615316
  0
LINE
  5
293
100
AcDbEntity
  8
0
100
AcDbLine
 62
7
  6
BYLAYER
 10
35.9529720465
 20
69.9996449829
 11
38.251066434
 21
68.6728695853
  0
LINE
  5
294
100
AcDbEntity
  8
0
100
AcDbLine
 62
7
  6
BYLAYER
 10
59.5350813801
 20
56.3848158196
 11
61.8331757676
 21
55.0580404221
  0
LINE
  5
295
100
AcDbEntity
  8
0
100
AcDbLine
 62
7
  6
BYLAYER
 10
35.9529720465
 20
70.8161474
 11
38.9581883784
 21
69.0811241933
  0
LINE
  5
296
100
AcDbEntity
  8
0
100
AcDbLine
 62
7
  6
BYLAYER
 10
59.5350813801
 20
57.2013182368
 11
62.540297712
 21
55.4662950301
  0
LINE
  5
297
100
AcDbEntity
  8
0
100
AcDbLine
 62
7
  6
BYLAYER
 10
53.6965268585
 20
42.5685615316
 11
53.6965268585
 21
44.6244975715
  0
LINE
  5
298
100
AcDbEntity
  8
0
100
AcDbLine
 62
7
  6
BYLAYER
 10
54.231821148
 20
50.1795055122
 11
54.231821148
 21
50.7510572042
  0
LINE
  5
299
100
AcDbEntity
  8
0
100
AcDbLine
 62
7
  6
BYLAYER
 10
54.443969963
 20
40.279492333
 11
54.443969963
 21
39.8508003453
  0
LINE
  5
29A
100
AcDbEntity
  8
0
100
AcDbLine
 62
7
  6
BYLAYER
 10
54.443969963
 20
47.8525240332
 11
54.443969963
 21
49.2405781423
  0
LINE
  5
29B
100
AcDbEntity
  8
0
100
AcDbLine
 62
7
  6
BYLAYER
 10
55.0096418457
 20
51.1184947913
 11
55.0096418457
 21
50.3019923742
  0
LINE
  5
29C
100
AcDbEntity
  8
0
100
AcDbLine
 62
7
  6
BYLAYER
 10
55.6283806662
 20
41.4532095398
 11
55.6283806662
 21
45.7398472297
  0
LINE
  5
29D
100
AcDbEntity
  8
0
100
AcDbLine
 62
7
  6
BYLAYER
 10
55.7521238377
 20
46.3011914069
 11
55.7521238377
 21
41.0347508164
  0
LINE
  5
29E
100
AcDbEntity
  8
0
100
AcDbLine
 62
7
  6
BYLAYER
 10
44.8273577769
 20
36.3603484559
 11
49.2821119513
 21
38.9322866253
  0
LINE
  5
29F
100
AcDbEntity
  8
0
100
AcDbLine
 62
7
  6
BYLAYER
 10
55.7521238377
 20
42.667727432
 11
57.7673579979
 21
43.8312164717
  0
LINE
  5
2A0
100
AcDbEntity
  8
0
100
AcDbLine
 62
7
  6
BYLAYER
 10
50.8200745731
 20
38.6771492934
 11
55.6283806662
 21
41.4532095398
  0
LINE
  5
2A1
100
AcDbEntity
  8
0
100
AcDbLine
 62
7
  6
BYLAYER
 10
45.8880223646
 20
35.7479873241
 11
50.3427765391
 21
38.3199254935
  0
LINE
  5
2A2
100
AcDbEntity
  8
0
100
AcDbLine
 62
7
  6
BYLAYER
 10
55.7521238377
 20
41.4429949703
 11
58.8280225856
 21
43.21885534
  0
LINE
  5
2A3
100
AcDbEntity
  8
0
100
AcDbLine
 62
7
  6
BYLAYER
 10
58.8280225856
 20
43.0555548565
 11
55.7521238377
 21
41.2796944869
  0
LINE
  5
2A4
100
AcDbEntity
  8
0
100
AcDbLine
 62
7
  6
BYLAYER
 10
50.4842009279
 20
38.2382759317
 11
45.8880223646
 21
35.5846868407
  0
LINE
  5
2A5
100
AcDbEntity
  8
0
100
AcDbLine
 62
7
  6
BYLAYER
 10
55.7521238377
 20
41.0347508164
 11
50.6963314016
 21
38.1158051162
  0
LINE
  5
2A6
100
AcDbEntity
  8
0
100
AcDbLine
 62
7
  6
BYLAYER
 10
64.9444619456
 20
45.9132260303
 11
56.3531503235
 21
40.9530595607
  0
LINE
  5
2A7
100
AcDbEntity
  8
0
100
AcDbLine
 62
7
  6
BYLAYER
 10
54.443969963
 20
39.8508003453
 11
48.1507458118
 21
36.2174273758
  0
LINE
  5
2A8
100
AcDbEntity
  8
0
100
AcDbLine
 62
7
  6
BYLAYER
 10
46.2415654513
 20
35.1151681604
 11
37.6502538292
 21
30.1550016908
  0
LINE
  5
2A9
100
AcDbEntity
  8
0
100
AcDbLine
 62
7
  6
BYLAYER
 10
35.6701193245
 20
72.2041710644
 11
64.9444619456
 21
55.3030038273
  0
LINE
  5
2AA
100
AcDbEntity
  8
0
100
AcDbLine
 62
7
  6
BYLAYER
 10
56.3531503235
 20
41.6266952189
 11
56.3531503235
 21
40.9530595607
  0
LINE
  5
2AB
100
AcDbEntity
  8
0
100
AcDbLine
 62
7
  6
BYLAYER
 10
56.3531503235
 20
48.9547832486
 11
56.3531503235
 21
50.3428373577
  0
LINE
  5
2AC
100
AcDbEntity
  8
0
100
AcDbLine
 62
7
  6
BYLAYER
 10
58.8280225856
 20
48.6485964139
 11
58.8280225856
 21
48.4852959304
  0
LINE
  5
2AD
100
AcDbEntity
  8
0
100
AcDbLine
 62
7
  6
BYLAYER
 10
58.8280225856
 20
43.21885534
 11
58.8280225856
 21
43.0555548565
  0
LINE
  5
2AE
100
AcDbEntity
  8
0
100
AcDbLine
 62
7
  6
BYLAYER
 10
59.5350813801
 20
56.3848158196
 11
59.5350813801
 21
57.2013182368
  0
LINE
  5
2AF
100
AcDbEntity
  8
0
100
AcDbLine
 62
7
  6
BYLAYER
 10
64.9444619456
 20
55.3030038273
 11
64.9444619456
 21
45.9132260303
  0
SPLINE
  5
2B0
100
AcDbEntity
  8
0
100
AcDbSpline
 62
7
  6
BYLAYER
 70
0
 71
3
 72
19
 73
15
 74
0
 42
0.0000001
 43
0.0000001
 44
0.0000000001
 40
0.0
 40
0.0
 40
0.0
 40
0.0
 40
0.0428385813
 40
0.0874433473
 40
0.1352550426
 40
0.1871926702
 40
0.2436711226
 40
0.3046633752
 40
0.4382672724
 40
0.5825427179
 40
0.7296393023
 40
0.8711669517
 40
0.9376091523
 40
1.0
 40
1.0
 40
1.0
 40
1.0
 10
51.4857763761
 20
56.4052300659
 30
0.0
 10
51.4857728206
 20
56.3582602736
 30
0.0
 10
51.4983634518
 20
56.2619806852
 30
0.0
 10
51.5535511639
 20
56.1229416816
 30
0.0
 10
51.6431766488
 20
55.9911554099
 30
0.0
 10
51.7646136819
 20
55.8691917915
 30
0.0
 10
51.9151011162
 20
55.7592066503
 30
0.0
 10
52.1575394523
 20
55.6274271379
 30
0.0
 10
52.5127509097
 20
55.5087660482
 30
0.0
 10
52.9763422794
 20
55.4436752795
 30
0.0
 10
53.4529273879
 20
55.4568193369
 30
0.0
 10
53.8370818825
 20
55.5336284408
 30
0.0
 10
54.1161816387
 20
55.6348242775
 30
0.0
 10
54.2432589773
 20
55.6974291699
 30
0.0
 10
54.3025017977
 20
55.7316328241
 30
0.0
  0
SPLINE
  5
2B1
100
AcDbEntity
  8
0
100
AcDbSpline
 62
7
  6
BYLAYER
 70
0
 71
3
 72
19
 73
15
 74
0
 42
0.0000001
 43
0.0000001
 44
0.0000000001
 40
0.0
 40
0.0
 40
0.0
 40
0.0
 40
0.0428385813
 40
0.0874433473
 40
0.1352550426
 40
0.1871926702
 40
0.2436711226
 40
0.3046633752
 40
0.4382672724
 40
0.5825427179
 40
0.7296393023
 40
0.8711669517
 40
0.9376091523
 40
1.0
 40
1.0
 40
1.0
 40
1.0
 10
35.9293624229
 20
65.3865266653
 30
0.0
 10
35.9293588674
 20
65.3395568731
 30
0.0
 10
35.9419494986
 20
65.2432772847
 30
0.0
 10
35.9971372106
 20
65.104238281
 30
0.0
 10
36.0867626956
 20
64.9724520093
 30
0.0
 10
36.2081997286
 20
64.850488391
 30
0.0
 10
36.3586871629
 20
64.7405032497
 30
0.0
 10
36.6011254991
 20
64.6087237373
 30
0.0
 10
36.9563369565
 20
64.4900626477
 30
0.0
 10
37.4199283262
 20
64.424971879
 30
0.0
 10
37.8965134347
 20
64.4381159363
 30
0.0
 10
38.2806679292
 20
64.5149250402
 30
0.0
 10
38.5597676854
 20
64.616120877
 30
0.0
 10
38.686845024
 20
64.6787257694
 30
0.0
 10
38.7460878445
 20
64.7129294235
 30
0.0
  0
SPLINE
  5
2B2
100
AcDbEntity
  8
0
100
AcDbSpline
 62
7
  6
BYLAYER
 70
0
 71
3
 72
19
 73
15
 74
0
 42
0.0000001
 43
0.0000001
 44
0.0000000001
 40
0.0
 40
0.0
 40
0.0
 40
0.0
 40
0.0428385813
 40
0.0874433473
 40
0.1352550426
 40
0.1871926702
 40
0.2436711226
 40
0.3046633752
 40
0.4382672724
 40
0.5825427179
 40
0.7296393023
 40
0.8711669517
 40
0.9376091523
 40
1.0
 40
1.0
 40
1.0
 40
1.0
 10
31.6868689342
 20
44.9743937574
 30
0.0
 10
31.6868653786
 20
44.9274239652
 30
0.0
 10
31.6994560098
 20
44.8311443768
 30
0.0
 10
31.7546437219
 20
44.6921053732
 30
0.0
 10
31.8442692068
 20
44.5603191015
 30
0.0
 10
31.9657062399
 20
44.4383554831
 30
0.0
 10
32.1161936742
 20
44.3283703419
 30
0.0
 10
32.3586320103
 20
44.1965908295
 30
0.0
 10
32.7138434677
 20
44.0779297398
 30
0.0
 10
33.1774348374
 20
44.0128389711
 30
0.0
 10
33.6540199459
 20
44.0259830285
 30
0.0
 10
34.0381744405
 20
44.1027921324
 30
0.0
 10
34.3172741967
 20
44.2039879691
 30
0.0
 10
34.4443515353
 20
44.2665928615
 30
0.0
 10
34.5035943557
 20
44.3007965157
 30
0.0
  0
SPLINE
  5
2B3
100
AcDbEntity
  8
0
100
AcDbSpline
 62
7
  6
BYLAYER
 70
0
 71
3
 72
19
 73
15
 74
0
 42
0.0000001
 43
0.0000001
 44
0.0000000001
 40
0.0
 40
0.0
 40
0.0
 40
0.0
 40
0.0428385813
 40
0.0874433473
 40
0.1352550426
 40
0.1871926702
 40
0.2436711226
 40
0.3046633752
 40
0.4382672724
 40
0.5825427179
 40
0.7296393023
 40
0.8711669517
 40
0.9376091523
 40
1.0
 40
1.0
 40
1.0
 40
1.0
 10
16.1304549809
 20
53.9556903569
 30
0.0
 10
16.1304514254
 20
53.9087205647
 30
0.0
 10
16.1430420566
 20
53.8124409763
 30
0.0
 10
16.1982297687
 20
53.6734019726
 30
0.0
 10
16.2878552536
 20
53.5416157009
 30
0.0
 10
16.4092922867
 20
53.4196520826
 30
0.0
 10
16.5597797209
 20
53.3096669413
 30
0.0
 10
16.8022180571
 20
53.1778874289
 30
0.0
 10
17.1574295145
 20
53.0592263393
 30
0.0
 10
17.6210208842
 20
52.9941355706
 30
0.0
 10
18.0976059927
 20
53.0072796279
 30
0.0
 10
18.4817604873
 20
53.0840887318
 30
0.0
 10
18.7608602435
 20
53.1852845686
 30
0.0
 10
18.8879375821
 20
53.247889461
 30
0.0
 10
18.9471804025
 20
53.2820931151
 30
0.0
  0
SPLINE
  5
2B4
100
AcDbEntity
  8
0
100
AcDbSpline
 62
7
  6
BYLAYER
 70
0
 71
3
 72
14
 73
10
 74
0
 42
0.0000001
 43
0.0000001
 44
0.0000000001
 40
0.0
 40
0.0
 40
0.0
 40
0.0
 40
0.1080446905
 40
0.2181348186
 40
0.3321083888
 40
0.4514850211
 40
0.5774344149
 40
0.7107580959
 40
1.0
 40
1.0
 40
1.0
 40
1.0
 10
36.0035977632
 20
34.068501045
 30
0.0
 10
36.052783587
 20
34.0968968276
 30
0.0
 10
36.1473734952
 20
34.1628597462
 30
0.0
 10
36.2722874358
 20
34.2858769851
 30
0.0
 10
36.3797736647
 20
34.4318021246
 30
0.0
 10
36.4687551166
 20
34.5990733933
 30
0.0
 10
36.5385799672
 20
34.7860286858
 30
0.0
 10
36.6071652341
 20
35.066588565
 30
0.0
 10
36.6249447277
 20
35.289798679
 30
0.0
 10
36.6249447277
 20
35.4418396834
 30
0.0
  0
SPLINE
  5
2B5
100
AcDbEntity
  8
0
100
AcDbSpline
 62
7
  6
BYLAYER
 70
0
 71
3
 72
14
 73
10
 74
0
 42
0.0000001
 43
0.0000001
 44
0.0000000001
 40
0.0
 40
0.0
 40
0.0
 40
0.0
 40
0.1080446905
 40
0.2181348186
 40
0.3321083888
 40
0.4514850211
 40
0.5774344149
 40
0.7107580959
 40
1.0
 40
1.0
 40
1.0
 40
1.0
 10
13.0225316959
 20
47.3363255669
 30
0.0
 10
13.0717175197
 20
47.3647213495
 30
0.0
 10
13.166307428
 20
47.4306842681
 30
0.0
 10
13.2912213685
 20
47.553701507
 30
0.0
 10
13.3987075975
 20
47.6996266465
 30
0.0
 10
13.4876890494
 20
47.8668979152
 30
0.0
 10
13.5575138999
 20
48.0538532077
 30
0.0
 10
13.6260991668
 20
48.3344130869
 30
0.0
 10
13.6438786604
 20
48.5576232009
 30
0.0
 10
13.6438786604
 20
48.7096642053
 30
0.0
  0
SPLINE
  5
2B6
100
AcDbEntity
  8
0
100
AcDbSpline
 62
7
  6
BYLAYER
 70
0
 71
3
 72
12
 73
8
 74
0
 42
0.0000001
 43
0.0000001
 44
0.0000000001
 40
0.0
 40
0.0
 40
0.0
 40
0.0
 40
0.2894846808
 40
0.5486773519
 40
0.7816302694
 40
0.8918330336
 40
1.0
 40
1.0
 40
1.0
 40
1.0
 10
18.9471804025
 20
53.2820931151
 30
0.0
 10
19.0195798579
 20
53.3238927107
 30
0.0
 10
19.1509302135
 20
53.414409129
 30
0.0
 10
19.3079216829
 20
53.5792078549
 30
0.0
 10
19.3921826035
 20
53.7345865297
 30
0.0
 10
19.4249742105
 20
53.8612632818
 30
0.0
 10
19.4304413664
 20
53.9244530925
 30
0.0
 10
19.430443731
 20
53.9556903632
 30
0.0
  0
SPLINE
  5
2B7
100
AcDbEntity
  8
0
100
AcDbSpline
 62
7
  6
BYLAYER
 70
0
 71
3
 72
12
 73
8
 74
0
 42
0.0000001
 43
0.0000001
 44
0.0000000001
 40
0.0
 40
0.0
 40
0.0
 40
0.0
 40
0.2894846808
 40
0.5486773519
 40
0.7816302694
 40
0.8918330336
 40
1.0
 40
1.0
 40
1.0
 40
1.0
 10
34.5035943557
 20
44.3007965157
 30
0.0
 10
34.5759938111
 20
44.3425961112
 30
0.0
 10
34.7073441668
 20
44.4331125295
 30
0.0
 10
34.8643356361
 20
44.5979112555
 30
0.0
 10
34.9485965567
 20
44.7532899302
 30
0.0
 10
34.9813881638
 20
44.8799666824
 30
0.0
 10
34.9868553196
 20
44.943156493
 30
0.0
 10
34.9868576843
 20
44.9743937638
 30
0.0
  0
SPLINE
  5
2B8
100
AcDbEntity
  8
0
100
AcDbSpline
 62
7
  6
BYLAYER
 70
0
 71
3
 72
12
 73
8
 74
0
 42
0.0000001
 43
0.0000001
 44
0.0000000001
 40
0.0
 40
0.0
 40
0.0
 40
0.0
 40
0.2894846808
 40
0.5486773519
 40
0.7816302694
 40
0.8918330336
 40
1.0
 40
1.0
 40
1.0
 40
1.0
 10
38.7460878445
 20
64.7129294235
 30
0.0
 10
38.8184872999
 20
64.7547290191
 30
0.0
 10
38.9498376555
 20
64.8452454374
 30
0.0
 10
39.1068291249
 20
65.0100441634
 30
0.0
 10
39.1910900455
 20
65.1654228381
 30
0.0
 10
39.2238816525
 20
65.2920995902
 30
0.0
 10
39.2293488084
 20
65.3552894009
 30
0.0
 10
39.229351173
 20
65.3865266716
 30
0.0
  0
SPLINE
  5
2B9
100
AcDbEntity
  8
0
100
AcDbSpline
 62
7
  6
BYLAYER
 70
0
 71
3
 72
12
 73
8
 74
0
 42
0.0000001
 43
0.0000001
 44
0.0000000001
 40
0.0
 40
0.0
 40
0.0
 40
0.0
 40
0.2894846808
 40
0.5486773519
 40
0.7816302694
 40
0.8918330336
 40
1.0
 40
1.0
 40
1.0
 40
1.0
 10
54.3025017977
 20
55.7316328241
 30
0.0
 10
54.3749012531
 20
55.7734324196
 30
0.0
 10
54.5062516087
 20
55.8639488379
 30
0.0
 10
54.6632430781
 20
56.0287475639
 30
0.0
 10
54.7475039987
 20
56.1841262386
 30
0.0
 10
54.7802956058
 20
56.3108029908
 30
0.0
 10
54.7857627616
 20
56.3739928014
 30
0.0
 10
54.7857651263
 20
56.4052300722
 30
0.0
  0
SPLINE
  5
2BA
100
AcDbEntity
  8
0
100
AcDbSpline
 62
7
  6
BYLAYER
 70
0
 71
3
 72
22
 73
18
 74
0
 42
0.0000001
 43
0.0000001
 44
0.0000000001
 40
0.0
 40
0.0
 40
0.0
 40
0.0
 40
0.0623813362
 40
0.1287699038
 40
0.1983755346
 40
0.2703721511
 40
0.4173887474
 40
0.4904339252
 40
0.5617420199
 40
0.6303608421
 40
0.6954667684
 40
0.756432701
 40
0.812887552
 40
0.8648024395
 40
0.9125922238
 40
0.9571807952
 40
1.0
 40
1.0
 40
1.0
 40
1.0
 10
13.6438786604
 20
48.7096642053
 30
0.0
 10
13.6438786604
 20
48.8340818421
 30
0.0
 10
13.6269718657
 20
49.091078404
 30
0.0
 10
13.5576576767
 20
49.4812729261
 30
0.0
 10
13.4448233007
 20
49.8811640985
 30
0.0
 10
13.2383531035
 20
50.4191147133
 30
0.0
 10
12.9595178554
 20
50.9344215267
 30
0.0
 10
12.6202783172
 20
51.4069027821
 30
0.0
 10
12.3427925794
 20
51.729317897
 30
0.0
 10
12.0477970483
 20
52.013441176
 30
0.0
 10
11.7414333723
 20
52.2532576669
 30
0.0
 10
11.4301187545
 20
52.4437305534
 30
0.0
 10
11.120147737
 20
52.580736806
 30
0.0
 10
10.8176846727
 20
52.6610697997
 30
0.0
 10
10.5286888326
 20
52.6823609674
 30
0.0
 10
10.2595565535
 20
52.6429249707
 30
0.0
 10
10.096528291
 20
52.5751462788
 30
0.0
 10
10.022567274
 20
52.5324473708
 30
0.0
  0
SPLINE
  5
2BB
100
AcDbEntity
  8
0
100
AcDbSpline
 62
7
  6
BYLAYER
 70
0
 71
3
 72
22
 73
18
 74
0
 42
0.0000001
 43
0.0000001
 44
0.0000000001
 40
0.0
 40
0.0
 40
0.0
 40
0.0
 40
0.0623813362
 40
0.1287699038
 40
0.1983755346
 40
0.2703721511
 40
0.4173887474
 40
0.4904339252
 40
0.5617420199
 40
0.6303608421
 40
0.6954667684
 40
0.756432701
 40
0.812887552
 40
0.8648024395
 40
0.9125922238
 40
0.9571807952
 40
1.0
 40
1.0
 40
1.0
 40
1.0
 10
36.6249447277
 20
35.4418396834
 30
0.0
 10
36.6249447277
 20
35.5662573202
 30
0.0
 10
36.608037933
 20
35.8232538821
 30
0.0
 10
36.538723744
 20
36.2134484042
 30
0.0
 10
36.425889368
 20
36.6133395766
 30
0.0
 10
36.2194191708
 20
37.1512901914
 30
0.0
 10
35.9405839227
 20
37.6665970048
 30
0.0
 10
35.6013443845
 20
38.1390782602
 30
0.0
 10
35.3238586466
 20
38.4614933751
 30
0.0
 10
35.0288631156
 20
38.7456166541
 30
0.0
 10
34.7224994396
 20
38.985433145
 30
0.0
 10
34.4111848218
 20
39.1759060315
 30
0.0
 10
34.1012138043
 20
39.3129122841
 30
0.0
 10
33.7987507399
 20
39.3932452777
 30
0.0
 10
33.5097548998
 20
39.4145364455
 30
0.0
 10
33.2406226207
 20
39.3751004488
 30
0.0
 10
33.0775943582
 20
39.3073217568
 30
0.0
 10
33.0036333413
 20
39.2646228489
 30
0.0
  0
SPLINE
  5
2BC
100
AcDbEntity
  8
0
100
AcDbSpline
 62
7
  6
BYLAYER
 70
0
 71
3
 72
14
 73
10
 74
0
 42
0.0000001
 43
0.0000001
 44
0.0000000001
 40
0.0
 40
0.0
 40
0.0
 40
0.0
 40
0.1080446905
 40
0.2181348186
 40
0.3321083888
 40
0.4514850211
 40
0.5774344149
 40
0.7107580959
 40
1.0
 40
1.0
 40
1.0
 40
1.0
 10
33.0036333413
 20
39.2646228489
 30
0.0
 10
32.9544475176
 20
39.2362270663
 30
0.0
 10
32.8598576093
 20
39.1702641477
 30
0.0
 10
32.7349436687
 20
39.0472469088
 30
0.0
 10
32.6274574398
 20
38.9013217693
 30
0.0
 10
32.5384759879
 20
38.7340505006
 30
0.0
 10
32.4686511373
 20
38.5470952081
 30
0.0
 10
32.4000658704
 20
38.2665353289
 30
0.0
 10
32.3822863768
 20
38.043325215
 30
0.0
 10
32.3822863768
 20
37.8912842105
 30
0.0
  0
SPLINE
  5
2BD
100
AcDbEntity
  8
0
100
AcDbSpline
 62
7
  6
BYLAYER
 70
0
 71
3
 72
19
 73
15
 74
0
 42
0.0000001
 43
0.0000001
 44
0.0000000001
 40
0.0
 40
0.0
 40
0.0
 40
0.0
 40
0.0428385813
 40
0.0874433473
 40
0.1352550426
 40
0.1871926702
 40
0.2436711226
 40
0.3046633752
 40
0.4382672724
 40
0.5825427179
 40
0.7296393023
 40
0.8711669517
 40
0.9376091523
 40
1.0
 40
1.0
 40
1.0
 40
1.0
 10
19.430443731
 20
53.9556903632
 30
0.0
 10
19.4304472866
 20
54.0026601554
 30
0.0
 10
19.4178566554
 20
54.0989397439
 30
0.0
 10
19.3626689433
 20
54.2379787475
 30
0.0
 10
19.2730434583
 20
54.3697650192
 30
0.0
 10
19.1516064253
 20
54.4917286376
 30
0.0
 10
19.001118991
 20
54.6017137788
 30
0.0
 10
18.7586806549
 20
54.7334932912
 30
0.0
 10
18.4034691975
 20
54.8521543809
 30
0.0
 10
17.9398778277
 20
54.9172451495
 30
0.0
 10
17.4632927193
 20
54.9041010922
 30
0.0
 10
17.0791382247
 20
54.8272919883
 30
0.0
 10
16.8000384685
 20
54.7260961515
 30
0.0
 10
16.6729611299
 20
54.6634912592
 30
0.0
 10
16.6137183095
 20
54.629287605
 30
0.0
  0
SPLINE
  5
2BE
100
AcDbEntity
  8
0
100
AcDbSpline
 62
7
  6
BYLAYER
 70
0
 71
3
 72
19
 73
15
 74
0
 42
0.0000001
 43
0.0000001
 44
0.0000000001
 40
0.0
 40
0.0
 40
0.0
 40
0.0
 40
0.0428385813
 40
0.0874433473
 40
0.1352550426
 40
0.1871926702
 40
0.2436711226
 40
0.3046633752
 40
0.4382672724
 40
0.5825427179
 40
0.7296393023
 40
0.8711669517
 40
0.9376091523
 40
1.0
 40
1.0
 40
1.0
 40
1.0
 10
39.229351173
 20
65.3865266716
 30
0.0
 10
39.2293547286
 20
65.4334964638
 30
0.0
 10
39.2167640974
 20
65.5297760523
 30
0.0
 10
39.1615763853
 20
65.6688150559
 30
0.0
 10
39.0719509003
 20
65.8006013276
 30
0.0
 10
38.9505138673
 20
65.922564946
 30
0.0
 10
38.800026433
 20
66.0325500872
 30
0.0
 10
38.5575880969
 20
66.1643295996
 30
0.0
 10
38.2023766395
 20
66.2829906893
 30
0.0
 10
37.7387852697
 20
66.3480814579
 30
0.0
 10
37.2622001613
 20
66.3349374006
 30
0.0
 10
36.8780456667
 20
66.2581282967
 30
0.0
 10
36.5989459105
 20
66.1569324599
 30
0.0
 10
36.4718685719
 20
66.0943275676
 30
0.0
 10
36.4126257515
 20
66.0601239134
 30
0.0
  0
SPLINE
  5
2BF
100
AcDbEntity
  8
0
100
AcDbSpline
 62
7
  6
BYLAYER
 70
0
 71
3
 72
19
 73
15
 74
0
 42
0.0000001
 43
0.0000001
 44
0.0000000001
 40
0.0
 40
0.0
 40
0.0
 40
0.0
 40
0.0428385813
 40
0.0874433473
 40
0.1352550426
 40
0.1871926702
 40
0.2436711226
 40
0.3046633752
 40
0.4382672724
 40
0.5825427179
 40
0.7296393023
 40
0.8711669517
 40
0.9376091523
 40
1.0
 40
1.0
 40
1.0
 40
1.0
 10
34.9868576843
 20
44.9743937638
 30
0.0
 10
34.9868612398
 20
45.021363556
 30
0.0
 10
34.9742706086
 20
45.1176431444
 30
0.0
 10
34.9190828965
 20
45.2566821481
 30
0.0
 10
34.8294574116
 20
45.3884684198
 30
0.0
 10
34.7080203785
 20
45.5104320381
 30
0.0
 10
34.5575329442
 20
45.6204171794
 30
0.0
 10
34.3150946081
 20
45.7521966918
 30
0.0
 10
33.9598831507
 20
45.8708577814
 30
0.0
 10
33.496291781
 20
45.9359485501
 30
0.0
 10
33.0197066725
 20
45.9228044928
 30
0.0
 10
32.6355521779
 20
45.8459953889
 30
0.0
 10
32.3564524217
 20
45.7447995521
 30
0.0
 10
32.2293750831
 20
45.6821946597
 30
0.0
 10
32.1701322627
 20
45.6479910056
 30
0.0
  0
SPLINE
  5
2C0
100
AcDbEntity
  8
0
100
AcDbSpline
 62
7
  6
BYLAYER
 70
0
 71
3
 72
22
 73
18
 74
0
 42
0.0000001
 43
0.0000001
 44
0.0000000001
 40
0.0
 40
0.0
 40
0.0
 40
0.0
 40
0.0623813362
 40
0.1287699038
 40
0.1983755346
 40
0.2703721511
 40
0.4173887474
 40
0.4904339252
 40
0.5617420199
 40
0.6303608421
 40
0.6954667684
 40
0.756432701
 40
0.812887552
 40
0.8648024395
 40
0.9125922238
 40
0.9571807952
 40
1.0
 40
1.0
 40
1.0
 40
1.0
 10
9.4012203095
 20
51.1591087324
 30
0.0
 10
9.4012203095
 20
51.0346910957
 30
0.0
 10
9.4181271042
 20
50.7776945337
 30
0.0
 10
9.4874412932
 20
50.3875000117
 30
0.0
 10
9.6002756693
 20
49.9876088392
 30
0.0
 10
9.8067458664
 20
49.4496582244
 30
0.0
 10
10.0855811146
 20
48.9343514111
 30
0.0
 10
10.4248206528
 20
48.4618701556
 30
0.0
 10
10.7023063906
 20
48.1394550407
 30
0.0
 10
10.9973019216
 20
47.8553317618
 30
0.0
 10
11.3036655977
 20
47.6155152708
 30
0.0
 10
11.6149802155
 20
47.4250423844
 30
0.0
 10
11.9249512329
 20
47.2880361317
 30
0.0
 10
12.2274142973
 20
47.2077031381
 30
0.0
 10
12.5164101374
 20
47.1864119703
 30
0.0
 10
12.7855424165
 20
47.225847967
 30
0.0
 10
12.948570679
 20
47.293626659
 30
0.0
 10
13.0225316959
 20
47.3363255669
 30
0.0
  0
SPLINE
  5
2C1
100
AcDbEntity
  8
0
100
AcDbSpline
 62
7
  6
BYLAYER
 70
0
 71
3
 72
22
 73
18
 74
0
 42
0.0000001
 43
0.0000001
 44
0.0000000001
 40
0.0
 40
0.0
 40
0.0
 40
0.0
 40
0.0623813362
 40
0.1287699038
 40
0.1983755346
 40
0.2703721511
 40
0.4173887474
 40
0.4904339252
 40
0.5617420199
 40
0.6303608421
 40
0.6954667684
 40
0.756432701
 40
0.812887552
 40
0.8648024395
 40
0.9125922238
 40
0.9571807952
 40
1.0
 40
1.0
 40
1.0
 40
1.0
 10
32.3822863768
 20
37.8912842105
 30
0.0
 10
32.3822863768
 20
37.7668665738
 30
0.0
 10
32.3991931715
 20
37.5098700118
 30
0.0
 10
32.4685073605
 20
37.1196754898
 30
0.0
 10
32.5813417366
 20
36.7197843173
 30
0.0
 10
32.7878119337
 20
36.1818337025
 30
0.0
 10
33.0666471818
 20
35.6665268892
 30
0.0
 10
33.40588672
 20
35.1940456337
 30
0.0
 10
33.6833724579
 20
34.8716305188
 30
0.0
 10
33.9783679889
 20
34.5875072399
 30
0.0
 10
34.284731665
 20
34.3476907489
 30
0.0
 10
34.5960462827
 20
34.1572178625
 30
0.0
 10
34.9060173002
 20
34.0202116098
 30
0.0
 10
35.2084803646
 20
33.9398786162
 30
0.0
 10
35.4974762047
 20
33.9185874484
 30
0.0
 10
35.7666084838
 20
33.9580234451
 30
0.0
 10
35.9296367463
 20
34.0258021371
 30
0.0
 10
36.0035977632
 20
34.068501045
 30
0.0
  0
SPLINE
  5
2C2
100
AcDbEntity
  8
0
100
AcDbSpline
 62
7
  6
BYLAYER
 70
0
 71
3
 72
12
 73
8
 74
0
 42
0.0000001
 43
0.0000001
 44
0.0000000001
 40
0.0
 40
0.0
 40
0.0
 40
0.0
 40
0.2894846808
 40
0.5486773519
 40
0.7816302694
 40
0.8918330336
 40
1.0
 40
1.0
 40
1.0
 40
1.0
 10
16.6137183095
 20
54.629287605
 30
0.0
 10
16.5413188541
 20
54.5874880095
 30
0.0
 10
16.4099684984
 20
54.4969715911
 30
0.0
 10
16.252977029
 20
54.3321728652
 30
0.0
 10
16.1687161084
 20
54.1767941905
 30
0.0
 10
16.1359245014
 20
54.0501174383
 30
0.0
 10
16.1304573455
 20
53.9869276277
 30
0.0
 10
16.1304549809
 20
53.9556903569
 30
0.0
  0
SPLINE
  5
2C3
100
AcDbEntity
  8
0
100
AcDbSpline
 62
7
  6
BYLAYER
 70
0
 71
3
 72
19
 73
15
 74
0
 42
0.0000001
 43
0.0000001
 44
0.0000000001
 40
0.0
 40
0.0
 40
0.0
 40
0.0
 40
0.0428385813
 40
0.0874433473
 40
0.1352550426
 40
0.1871926702
 40
0.2436711226
 40
0.3046633752
 40
0.4382672724
 40
0.5825427179
 40
0.7296393023
 40
0.8711669517
 40
0.9376091523
 40
1.0
 40
1.0
 40
1.0
 40
1.0
 10
54.7857651263
 20
56.4052300722
 30
0.0
 10
54.7857686818
 20
56.4521998644
 30
0.0
 10
54.7731780506
 20
56.5484794528
 30
0.0
 10
54.7179903385
 20
56.6875184565
 30
0.0
 10
54.6283648536
 20
56.8193047282
 30
0.0
 10
54.5069278205
 20
56.9412683465
 30
0.0
 10
54.3564403862
 20
57.0512534878
 30
0.0
 10
54.1140020501
 20
57.1830330002
 30
0.0
 10
53.7587905927
 20
57.3016940898
 30
0.0
 10
53.295199223
 20
57.3667848585
 30
0.0
 10
52.8186141145
 20
57.3536408012
 30
0.0
 10
52.4344596199
 20
57.2768316973
 30
0.0
 10
52.1553598637
 20
57.1756358605
 30
0.0
 10
52.0282825251
 20
57.1130309681
 30
0.0
 10
51.9690397047
 20
57.078827314
 30
0.0
  0
SPLINE
  5
2C4
100
AcDbEntity
  8
0
100
AcDbSpline
 62
7
  6
BYLAYER
 70
0
 71
3
 72
12
 73
8
 74
0
 42
0.0000001
 43
0.0000001
 44
0.0000000001
 40
0.0
 40
0.0
 40
0.0
 40
0.0
 40
0.2894846808
 40
0.5486773519
 40
0.7816302694
 40
0.8918330336
 40
1.0
 40
1.0
 40
1.0
 40
1.0
 10
32.1701322627
 20
45.6479910056
 30
0.0
 10
32.0977328073
 20
45.60619141
 30
0.0
 10
31.9663824517
 20
45.5156749917
 30
0.0
 10
31.8093909823
 20
45.3508762657
 30
0.0
 10
31.7251300617
 20
45.195497591
 30
0.0
 10
31.6923384546
 20
45.0688208389
 30
0.0
 10
31.6868712988
 20
45.0056310282
 30
0.0
 10
31.6868689342
 20
44.9743937574
 30
0.0
  0
SPLINE
  5
2C5
100
AcDbEntity
  8
0
100
AcDbSpline
 62
7
  6
BYLAYER
 70
0
 71
3
 72
12
 73
8
 74
0
 42
0.0000001
 43
0.0000001
 44
0.0000000001
 40
0.0
 40
0.0
 40
0.0
 40
0.0
 40
0.2894846808
 40
0.5486773519
 40
0.7816302694
 40
0.8918330336
 40
1.0
 40
1.0
 40
1.0
 40
1.0
 10
36.4126257515
 20
66.0601239134
 30
0.0
 10
36.340226296
 20
66.0183243179
 30
0.0
 10
36.2088759404
 20
65.9278078995
 30
0.0
 10
36.051884471
 20
65.7630091736
 30
0.0
 10
35.9676235504
 20
65.6076304989
 30
0.0
 10
35.9348319434
 20
65.4809537467
 30
0.0
 10
35.9293647875
 20
65.4177639361
 30
0.0
 10
35.9293624229
 20
65.3865266653
 30
0.0
  0
SPLINE
  5
2C6
100
AcDbEntity
  8
0
100
AcDbSpline
 62
7
  6
BYLAYER
 70
0
 71
3
 72
12
 73
8
 74
0
 42
0.0000001
 43
0.0000001
 44
0.0000000001
 40
0.0
 40
0.0
 40
0.0
 40
0.0
 40
0.2894846808
 40
0.5486773519
 40
0.7816302694
 40
0.8918330336
 40
1.0
 40
1.0
 40
1.0
 40
1.0
 10
51.9690397047
 20
57.078827314
 30
0.0
 10
51.8966402493
 20
57.0370277184
 30
0.0
 10
51.7652898936
 20
56.9465113001
 30
0.0
 10
51.6082984243
 20
56.7817125741
 30
0.0
 10
51.5240375037
 20
56.6263338994
 30
0.0
 10
51.4912458966
 20
56.4996571473
 30
0.0
 10
51.4857787408
 20
56.4364673366
 30
0.0
 10
51.4857763761
 20
56.4052300659
 30
0.0
  0
SPLINE
  5
2C7
100
AcDbEntity
  8
0
100
AcDbSpline
 62
7
  6
BYLAYER
 70
0
 71
3
 72
14
 73
10
 74
0
 42
0.0000001
 43
0.0000001
 44
0.0000000001
 40
0.0
 40
0.0
 40
0.0
 40
0.0
 40
0.1080446905
 40
0.2181348186
 40
0.3321083888
 40
0.4514850211
 40
0.5774344149
 40
0.7107580959
 40
1.0
 40
1.0
 40
1.0
 40
1.0
 10
10.022567274
 20
52.5324473708
 30
0.0
 10
9.9733814503
 20
52.5040515882
 30
0.0
 10
9.878791542
 20
52.4380886696
 30
0.0
 10
9.7538776014
 20
52.3150714307
 30
0.0
 10
9.6463913725
 20
52.1691462912
 30
0.0
 10
9.5574099206
 20
52.0018750226
 30
0.0
 10
9.4875850701
 20
51.81491973
 30
0.0
 10
9.4189998032
 20
51.5343598508
 30
0.0
 10
9.4012203095
 20
51.3111497369
 30
0.0
 10
9.4012203095
 20
51.1591087324
 30
0.0
  0
ENDSEC
  0
SECTION
  2
OBJECTS
  0
DICTIONARY
  5
C
100
AcDbDictionary
280
0
281
1
  3
ACAD_GROUP
350
D
  3
ACAD_MLINESTYLE
350
17
  3
ACAD_LAYOUT
350
1A
  3
ACAD_PLOTSETTINGS
350
19
  3
ACAD_PLOTSTYLENAME
350
E
  0
DICTIONARY
  5
D
102
{ACAD_REACTORS
330
C
102
}
100
AcDbDictionary
280
0
281
1
  0
ACDBDICTIONARYWDFLT
  5
E
102
{ACAD_REACTORS
330
C
102
}
100
AcDbDictionary
281
1
  3
Normal
350
F
100
AcDbDictionaryWithDefault
340
F
  0
DICTIONARY
  5
17
102
{ACAD_REACTORS
330
C
102
}
100
AcDbDictionary
280
0
281
1
  3
Standard
350
18
  0
DICTIONARY
  5
19
102
{ACAD_REACTORS
330
C
102
}
100
AcDbDictionary
281
1
  0
DICTIONARY
  5
1A
102
{ACAD_REACTORS
330
C
102
}
100
AcDbDictionary
281
1
  3
Model
350
2C8
  3
Layout1
350
2C9
  0
ACDBPLACEHOLDER
  5
F
102
{ACAD_REACTORS
330
E
102
}
  0
MLINESTYLE
  5
18
102
{ACAD_REACTORS
330
17
102
}
100
AcDbMlineStyle
  2
STANDARD
 70
0
  3

 62
256
 51
90.0
 52
90.0
 71
2
 49
0.5
 62
256
  6
BYLAYER
 49
-0.5
 62
256
  6
BYLAYER
  0
LAYOUT
  5
2C8
102
{ACAD_REACTORS
330
1A
102
}
100
AcDbPlotSettings
  1

  2
none_device
  4

  6

 40
0.0
 41
0.0
 42
0.0
 43
0.0
 44
210.0
 45
297.0
 46
0.0
 47
0.0
 48
0.0
 49
0.0
140
0.0
141
0.0
142
1.0
143
1.0
 70
1024
 72
1
 73
0
 74
0
  7

 75
0
147
1.0
148
0.0
149
0.0
100
AcDbLayout
  1
Model
 70
0
 71
0
 10
0.0
 20
0.0
 11
210.0
 21
297.0
 12
0.0
 22
0.0
 32
0.0
 14
0.0
 24
0.0
 34
0.0
 15
0.0
 25
0.0
 35
0.0
146
0.0
 13
0.0
 23
0.0
 33
0.0
 16
1.0
 26
0.0
 36
0.0
 17
0.0
 27
1.0
 37
0.0
 76
0
330
210
345
0
346
0
  0
LAYOUT
  5
2C9
102
{ACAD_REACTORS
330
1A
102
}
100
AcDbPlotSettings
  1

  2
none_device
  4

  6

 40
0.0
 41
0.0
 42
0.0
 43
0.0
 44
210.0
 45
297.0
 46
0.0
 47
0.0
 48
0.0
 49
0.0
140
0.0
141
0.0
142
1.0
143
1.0
 70
0
 72
1
 73
0
 74
0
  7

 75
0
147
1.0
148
0.0
149
0.0
100
AcDbLayout
  1
Layout1
 70
0
 71
1
 10
0.0
 20
0.0
 11
210.0
 21
297.0
 12
0.0
 22
0.0
 32
0.0
 14
0.0
 24
0.0
 34
0.0
 15
0.0
 25
0.0
 35
0.0
146
0.0
 13
0.0
 23
0.0
 33
0.0
 16
1.0
 26
0.0
 36
0.0
 17
0.0
 27
1.0
 37
0.0
 76
0
330
211
345
0
346
0
  0
ENDSEC
  0
EOF
