999
DXF file: C:\Users\sesa63760\Dev\_Creo\CAD\MCADPP0003357_3D-CAD\drw0001_3.dxf
999
Pro/ENGINEER 2019471 by Parametric Technology Corporation
  0
SECTION
  2
HEADER
  9
$ACADVER
  1
AC1024
  9
$DWGCODEPAGE
  3
ANSI_1252
  9
$EXTMAX
 10
56.8828327034
 20
80.4485776805
 30
0.0
  9
$EXTMIN
 10
0.0
 20
0.0
 30
0.0
  9
$LIMMIN
 10
0.0
 20
0.0
  9
$LIMMAX
 10
56.8828327034
 20
80.4485776805
  9
$VIEWCTR
 10
28.4414163517
 20
40.2242888403
  9
$VIEWSIZE
 40
80.4485776805
  9
$CLAYER
  8
0
  9
$LTSCALE
 40
5.244055434
  9
$CELTYPE
  6
BYLAYER
  9
$DIMSCALE
 40
1.0
  9
$DIMASZ
 40
0.6771765798
  9
$DIMEXO
 40
1.0
  9
$DIMDLI
 40
3.6231655726
  9
$DIMEXE
 40
1.0
  9
$DIMCEN
 40
0.8581181619
  9
$DIMLFAC
 40
1.0
  9
$DIMBLK
  1
_FILLED
  9
$DIMALT
 70
0
  9
$DIMALTF
 40
0.0393700787
  9
$DIMTXT
 40
0.9480472117
  9
$DIMTOL
 70
1
  9
$DIMLIM
 70
0
  9
$DIMTFAC
 40
1.0
  9
$DIMTP
 40
0.01
  9
$DIMTM
 40
0.01
  9
$DIMGAP
 40
0.625
  9
$DIMDSEP
 70
46
  9
$AUNITS
 70
0
  9
$PDMODE
 70
3
  9
$PDSIZE
 40
0.3125
  9
$HANDSEED
  5
293
  9
$TILEMODE
 70
1
  9
$MEASUREMENT
 70
1
  9
$INSUNITS
 70
4
  0
ENDSEC
  0
SECTION
  2
CLASSES
  0
CLASS
  1
ACDBDICTIONARYWDFLT
  2
AcDbDictionaryWithDefault
  3
AutoCAD 2000
 90
0
 91
1
280
0
281
0
  0
CLASS
  1
ACDBPLACEHOLDER
  2
AcDbPlaceHolder
  3
AutoCAD 2000
 90
0
 91
1
280
0
281
0
  0
CLASS
  1
LAYOUT
  2
AcDbLayout
  3
AutoCAD 2000
 90
0
 91
0
280
0
281
0
  0
ENDSEC
  0
SECTION
  2
TABLES
  0
TABLE
  2
VPORT
  5
8
100
AcDbSymbolTable
 70
2
  0
VPORT
  5
1F4
100
AcDbSymbolTableRecord
100
AcDbViewportTableRecord
  2
*ACTIVE
 70
0
 10
0.0
 20
0.0
 11
1.0
 21
1.0
 12
28.4414163517
 22
40.2242888403
 13
0.0
 23
0.0
 14
1.0
 24
1.0
 15
0.0
 25
0.0
 16
0.0
 26
0.0
 36
1.0
 17
0.0
 27
0.0
 37
0.0
 40
80.4485776805
 41
0.7070707071
 42
50.0
 43
0.0
 44
0.0
 50
0.0
 51
0.0
 71
0
 72
100
 73
1
 74
1
 75
0
 76
0
 77
0
 78
0
  0
ENDTAB
  0
TABLE
  2
LTYPE
  5
5
100
AcDbSymbolTable
 70
6
  0
LTYPE
  5
14
100
AcDbSymbolTableRecord
100
AcDbLinetypeTableRecord
  2
BYBLOCK
 70
0
  3

 72
65
 73
0
 40
0.0
  0
LTYPE
  5
15
100
AcDbSymbolTableRecord
100
AcDbLinetypeTableRecord
  2
BYLAYER
 70
0
  3

 72
65
 73
0
 40
0.0
  0
LTYPE
  5
16
100
AcDbSymbolTableRecord
100
AcDbLinetypeTableRecord
  2
CONTINUOUS
 70
64
  3
Solid line
 72
65
 73
0
 40
0.0
  0
LTYPE
  5
1F5
100
AcDbSymbolTableRecord
100
AcDbLinetypeTableRecord
  2
CENTER
 70
64
  3
____ _ ____ _ ____ _ ____ _ ____ _ ____ _ ____
 72
65
 73
4
 40
0.6
 49
0.375
 74
0
 49
-0.075
 74
0
 49
0.075
 74
0
 49
-0.075
 74
0
  0
LTYPE
  5
1F6
100
AcDbSymbolTableRecord
100
AcDbLinetypeTableRecord
  2
HIDDEN
 70
64
  3
- - - - - - - - - - - - - - - - - - - -
 72
65
 73
2
 40
0.2
 49
0.1
 74
0
 49
-0.1
 74
0
  0
LTYPE
  5
1F7
100
AcDbSymbolTableRecord
100
AcDbLinetypeTableRecord
  2
PHANTOM
 70
64
  3
_____ _ _ _____ _ _ _____ _ _ _____
 72
65
 73
6
 40
0.8
 49
0.45
 74
0
 49
-0.05
 74
0
 49
0.1
 74
0
 49
-0.05
 74
0
 49
0.1
 74
0
 49
-0.05
 74
0
  0
LTYPE
  5
1F8
100
AcDbSymbolTableRecord
100
AcDbLinetypeTableRecord
  2
DOT
 70
64
  3
. . . . . . . . . . . . . . . . . . . .
 72
65
 73
2
 40
0.2
 49
0.1
 74
0
 49
-0.1
 74
0
  0
LTYPE
  5
1F9
100
AcDbSymbolTableRecord
100
AcDbLinetypeTableRecord
  2
DASHED
 70
64
  3
- - - - - - - - - - - - - - - - - - - -
 72
65
 73
2
 40
0.2
 49
0.1
 74
0
 49
-0.1
 74
0
  0
ENDTAB
  0
TABLE
  2
LAYER
  5
2
100
AcDbSymbolTable
 70
36
  0
LAYER
  5
10
100
AcDbSymbolTableRecord
100
AcDbLayerTableRecord
  2
0
 70
0
 62
7
  6
CONTINUOUS
370
-3
390
F
  0
LAYER
  5
1FA
100
AcDbSymbolTableRecord
100
AcDbLayerTableRecord
  2
DEFAULT_1
 70
0
 62
7
  6
CENTER
370
-3
390
F
  0
LAYER
  5
1FB
100
AcDbSymbolTableRecord
100
AcDbLayerTableRecord
  2
DEFAULT_2
 70
0
 62
8
  6
HIDDEN
370
-3
390
F
  0
LAYER
  5
1FC
100
AcDbSymbolTableRecord
100
AcDbLayerTableRecord
  2
DEFAULT_3
 70
0
 62
7
  6
PHANTOM
370
-3
390
F
  0
LAYER
  5
1FD
100
AcDbSymbolTableRecord
100
AcDbLayerTableRecord
  2
00_COMPONENTS
 70
0
 62
7
  6
CONTINUOUS
370
-3
390
F
  0
LAYER
  5
1FE
100
AcDbSymbolTableRecord
100
AcDbLayerTableRecord
  2
01_1_DEFAULT_DATUMS
 70
0
 62
7
  6
CONTINUOUS
370
-3
390
F
  0
LAYER
  5
1FF
100
AcDbSymbolTableRecord
100
AcDbLayerTableRecord
  2
01_PLANES
 70
0
 62
7
  6
CONTINUOUS
370
-3
390
F
  0
LAYER
  5
200
100
AcDbSymbolTableRecord
100
AcDbLayerTableRecord
  2
02_COORD_SYS
 70
0
 62
7
  6
CONTINUOUS
370
-3
390
F
  0
LAYER
  5
201
100
AcDbSymbolTableRecord
100
AcDbLayerTableRecord
  2
03_AXES
 70
0
 62
7
  6
CONTINUOUS
370
-3
390
F
  0
LAYER
  5
202
100
AcDbSymbolTableRecord
100
AcDbLayerTableRecord
  2
04_POINTS
 70
0
 62
7
  6
CONTINUOUS
370
-3
390
F
  0
LAYER
  5
203
100
AcDbSymbolTableRecord
100
AcDbLayerTableRecord
  2
05_CURVES
 70
0
 62
7
  6
CONTINUOUS
370
-3
390
F
  0
LAYER
  5
204
100
AcDbSymbolTableRecord
100
AcDbLayerTableRecord
  2
06_SURFS
 70
0
 62
7
  6
CONTINUOUS
370
-3
390
F
  0
LAYER
  5
205
100
AcDbSymbolTableRecord
100
AcDbLayerTableRecord
  2
07_COSMETICS
 70
0
 62
7
  6
CONTINUOUS
370
-3
390
F
  0
LAYER
  5
206
100
AcDbSymbolTableRecord
100
AcDbLayerTableRecord
  2
10_NOTES
 70
0
 62
7
  6
CONTINUOUS
370
-3
390
F
  0
LAYER
  5
207
100
AcDbSymbolTableRecord
100
AcDbLayerTableRecord
  2
11_NOTES_PUB
 70
0
 62
7
  6
CONTINUOUS
370
-3
390
F
  0
LAYER
  5
208
100
AcDbSymbolTableRecord
100
AcDbLayerTableRecord
  2
13_REF_GTOL
 70
0
 62
7
  6
CONTINUOUS
370
-3
390
F
  0
LAYER
  5
209
100
AcDbSymbolTableRecord
100
AcDbLayerTableRecord
  2
16_MISC
 70
0
 62
7
  6
CONTINUOUS
370
-3
390
F
  0
LAYER
  5
20A
100
AcDbSymbolTableRecord
100
AcDbLayerTableRecord
  2
17_NO_PRINT
 70
0
 62
7
  6
CONTINUOUS
370
-3
390
F
  0
LAYER
  5
20B
100
AcDbSymbolTableRecord
100
AcDbLayerTableRecord
  2
18_DATUM_CAMS_JOINTS
 70
0
 62
7
  6
CONTINUOUS
370
-3
390
F
  0
LAYER
  5
20C
100
AcDbSymbolTableRecord
100
AcDbLayerTableRecord
  2
19_DATUM_FUNCTIONAL
 70
0
 62
7
  6
CONTINUOUS
370
-3
390
F
  0
LAYER
  5
20D
100
AcDbSymbolTableRecord
100
AcDbLayerTableRecord
  2
20_DATUM_KINEMATIC_SCHEME
 70
0
 62
7
  6
CONTINUOUS
370
-3
390
F
  0
ENDTAB
  0
TABLE
  2
STYLE
  5
3
100
AcDbSymbolTable
 70
1
  0
STYLE
  5
11
100
AcDbSymbolTableRecord
100
AcDbTextStyleTableRecord
  2
STANDARD
 70
0
 40
0.0
 41
0.8
 50
0.0
 71
0
 42
0.2
  3
txt
  4

  0
STYLE
  5
20E
100
AcDbSymbolTableRecord
100
AcDbTextStyleTableRecord
  2
TEXTSTYLE_1
 70
0
 40
0.0
 41
0.8
 50
0.0
 71
0
 42
0.2
  3
gdt
  4

  0
ENDTAB
  0
TABLE
  2
VIEW
  5
6
100
AcDbSymbolTable
 70
0
  0
ENDTAB
  0
TABLE
  2
UCS
  5
7
100
AcDbSymbolTable
 70
0
  0
ENDTAB
  0
TABLE
  2
APPID
  5
9
100
AcDbSymbolTable
 70
1
  0
APPID
  5
20F
100
AcDbSymbolTableRecord
100
AcDbRegAppTableRecord
  2
ACAD
 70
0
  0
ENDTAB
  0
TABLE
  2
BLOCK_RECORD
  5
1
100
AcDbSymbolTable
 70
0
  0
BLOCK_RECORD
  5
210
100
AcDbSymbolTableRecord
100
AcDbBlockTableRecord
  2
*Model_Space
  0
BLOCK_RECORD
  5
211
100
AcDbSymbolTableRecord
100
AcDbBlockTableRecord
  2
*Paper_Space
  0
BLOCK_RECORD
  5
212
100
AcDbSymbolTableRecord
100
AcDbBlockTableRecord
  2
_FILLED
  0
ENDTAB
  0
TABLE
  2
DIMSTYLE
  5
A
100
AcDbSymbolTable
 70
1
100
AcDbDimStyleTable
 71
0
  0
DIMSTYLE
105
213
100
AcDbSymbolTableRecord
100
AcDbDimStyleTableRecord
  2
STANDARD
 70
0
  3

  4

 40
1.0
 41
0.6771765798
 42
1.0
 43
0.38
 44
1.0
 45
0.0
 46
0.0
 47
0.01
 48
0.01
140
0.9480472117
141
0.09
142
0.0
143
25.4
144
1.0
145
0.0
146
1.0
147
0.625
 71
1
 72
0
 73
0
 74
0
 75
0
 76
0
 77
1
 78
8
 79
2
170
0
171
1
172
0
173
0
174
0
175
0
176
0
177
0
178
0
270
2
179
2
271
2
272
2
273
2
274
2
275
0
280
0
281
0
282
0
283
1
284
8
285
0
286
0
287
3
288
0
340
11
278
46
341
212
342
212
343
212
344
212
  0
ENDTAB
  0
ENDSEC
  0
SECTION
  2
BLOCKS
  0
BLOCK
  5
20
100
AcDbEntity
  8
0
100
AcDbBlockBegin
  2
*Model_Space
 70
0
 10
0.0
 20
0.0
 30
0.0
  3
*Model_Space
  1

  0
ENDBLK
  5
21
100
AcDbEntity
  8
0
100
AcDbBlockEnd
  0
BLOCK
  5
1C
100
AcDbEntity
  8
0
100
AcDbBlockBegin
  2
*Paper_Space
 70
0
 10
0.0
 20
0.0
 30
0.0
  3
*Paper_Space
  1

  0
ENDBLK
  5
1D
100
AcDbEntity
  8
0
100
AcDbBlockEnd
  0
BLOCK
  5
214
100
AcDbEntity
  8
0
100
AcDbBlockBegin
  2
_FILLED
 70
64
 10
0.0
 20
0.0
  3
_FILLED
  1

  0
SOLID
  5
215
100
AcDbEntity
  8
0
  6
BYBLOCK
 62
0
100
AcDbTrace
 10
0.0
 20
0.0
 11
-1.0
 21
0.25
 12
-1.0
 22
-0.25
 13
-1.0
 23
-0.25
  0
ENDBLK
  5
216
100
AcDbEntity
  8
0
  6
BYBLOCK
 62
0
100
AcDbBlockEnd
  0
ENDSEC
  0
SECTION
  2
ENTITIES
  0
LINE
  5
217
100
AcDbEntity
  8
0
100
AcDbLine
 62
7
  6
CONTINUOUS
 10
6.7291625224
 20
12.0755828829
 11
51.7291625224
 21
12.0755828829
  0
LINE
  5
218
100
AcDbEntity
  8
0
100
AcDbLine
 62
7
  6
CONTINUOUS
 10
6.7291625224
 20
12.0755828829
 11
6.7291625224
 21
68.7668678829
  0
LINE
  5
219
100
AcDbEntity
  8
0
100
AcDbLine
 62
7
  6
CONTINUOUS
 10
7.7291625224
 20
19.3555828829
 11
7.7291625224
 21
34.3555828829
  0
LINE
  5
21A
100
AcDbEntity
  8
0
100
AcDbLine
 62
7
  6
CONTINUOUS
 10
8.1291625224
 20
18.8216036626
 11
6.7291625224
 21
18.8216036626
  0
LINE
  5
21B
100
AcDbEntity
  8
0
100
AcDbLine
 62
7
  6
CONTINUOUS
 10
50.3291625224
 20
18.8216036626
 11
51.7291625224
 21
18.8216036626
  0
LINE
  5
21C
100
AcDbEntity
  8
0
100
AcDbLine
 62
7
  6
CONTINUOUS
 10
8.1291625224
 20
19.0115841869
 11
50.3291625224
 21
19.0115841869
  0
LINE
  5
21D
100
AcDbEntity
  8
0
100
AcDbLine
 62
7
  6
CONTINUOUS
 10
7.8891625224
 20
45.8864895559
 11
7.8891625224
 21
68.6055828829
  0
LINE
  5
21E
100
AcDbEntity
  8
0
100
AcDbLine
 62
7
  6
CONTINUOUS
 10
8.1291625224
 20
12.0755828829
 11
8.1291625224
 21
19.3580201905
  0
LINE
  5
21F
100
AcDbEntity
  8
0
100
AcDbLine
 62
7
  6
CONTINUOUS
 10
8.1291625224
 20
34.3555828829
 11
8.1291625224
 21
45.8864895559
  0
LINE
  5
220
100
AcDbEntity
  8
0
100
AcDbLine
 62
7
  6
CONTINUOUS
 10
8.2691625224
 20
55.2818328829
 11
8.2691625224
 21
60.7875298829
  0
LINE
  5
221
100
AcDbEntity
  8
0
100
AcDbLine
 62
7
  6
CONTINUOUS
 10
8.3208100224
 20
56.9044728829
 11
8.3208100224
 21
59.8328038829
  0
LINE
  5
222
100
AcDbEntity
  8
0
100
AcDbLine
 62
7
  6
CONTINUOUS
 10
13.013094273
 20
19.1292136834
 11
10.7230359599
 21
19.1292127669
  0
LINE
  5
223
100
AcDbEntity
  8
0
100
AcDbLine
 62
7
  6
CONTINUOUS
 10
8.1291625224
 20
19.1704191423
 11
6.7291625224
 21
19.1704191423
  0
LINE
  5
224
100
AcDbEntity
  8
0
100
AcDbLine
 62
7
  6
CONTINUOUS
 10
50.3291625224
 20
19.1704191423
 11
51.7291625224
 21
19.1704191423
  0
LINE
  5
225
100
AcDbEntity
  8
0
100
AcDbLine
 62
7
  6
CONTINUOUS
 10
34.9820954844
 20
19.1754432494
 11
32.2320954844
 21
19.1754432494
  0
LINE
  5
226
100
AcDbEntity
  8
0
100
AcDbLine
 62
7
  6
CONTINUOUS
 10
26.4417517953
 20
19.1754480546
 11
23.6917519234
 21
19.1754494623
  0
LINE
  5
227
100
AcDbEntity
  8
0
100
AcDbLine
 62
7
  6
CONTINUOUS
 10
10.7229830014
 20
19.3048848239
 11
13.0130591475
 21
19.3048846496
  0
LINE
  5
228
100
AcDbEntity
  8
0
100
AcDbLine
 62
7
  6
CONTINUOUS
 10
23.6591625866
 20
19.3552229925
 11
26.4091624585
 21
19.3552215848
  0
LINE
  5
229
100
AcDbEntity
  8
0
100
AcDbLine
 62
7
  6
CONTINUOUS
 10
32.2191625224
 20
19.3552233458
 11
34.9691625224
 21
19.3552233458
  0
LINE
  5
22A
100
AcDbEntity
  8
0
100
AcDbLine
 62
7
  6
CONTINUOUS
 10
7.7291625224
 20
19.3555828829
 11
14.6126215439
 21
19.3555828829
  0
LINE
  5
22B
100
AcDbEntity
  8
0
100
AcDbLine
 62
7
  6
CONTINUOUS
 10
43.8457035008
 20
19.3555828829
 11
50.7291625224
 21
19.3555828829
  0
LINE
  5
22C
100
AcDbEntity
  8
0
100
AcDbLine
 62
7
  6
CONTINUOUS
 10
10.7229899253
 20
19.1292127666
 11
10.7229890505
 21
19.3048853261
  0
LINE
  5
22D
100
AcDbEntity
  8
0
100
AcDbLine
 62
7
  6
CONTINUOUS
 10
13.01305451
 20
19.3048852664
 11
13.013053528
 21
19.1292136836
  0
LINE
  5
22E
100
AcDbEntity
  8
0
100
AcDbLine
 62
7
  6
CONTINUOUS
 10
14.6126215439
 20
19.3576910226
 11
14.6126215439
 21
34.3555828829
  0
LINE
  5
22F
100
AcDbEntity
  8
0
100
AcDbLine
 62
7
  6
CONTINUOUS
 10
15.7242840224
 20
59.8328038829
 11
15.7242840224
 21
56.9044728829
  0
LINE
  5
230
100
AcDbEntity
  8
0
100
AcDbLine
 62
7
  6
CONTINUOUS
 10
15.7591625224
 20
45.6860525506
 11
15.7591625224
 21
68.6055828829
  0
LINE
  5
231
100
AcDbEntity
  8
0
100
AcDbLine
 62
7
  6
CONTINUOUS
 10
16.5591625224
 20
68.6055828829
 11
16.5591625224
 21
45.6860525506
  0
LINE
  5
232
100
AcDbEntity
  8
0
100
AcDbLine
 62
7
  6
CONTINUOUS
 10
16.9121625224
 20
55.2818328829
 11
16.9121625224
 21
60.7875298829
  0
LINE
  5
233
100
AcDbEntity
  8
0
100
AcDbLine
 62
7
  6
CONTINUOUS
 10
16.9638100224
 20
56.9044728829
 11
16.9638100224
 21
59.8328038829
  0
LINE
  5
234
100
AcDbEntity
  8
0
100
AcDbLine
 62
7
  6
CONTINUOUS
 10
23.6917519234
 20
19.1754494623
 11
23.6591625866
 21
19.3552229925
  0
LINE
  5
235
100
AcDbEntity
  8
0
100
AcDbLine
 62
7
  6
CONTINUOUS
 10
24.3672840224
 20
59.8328038829
 11
24.3672840224
 21
56.9044728829
  0
LINE
  5
236
100
AcDbEntity
  8
0
100
AcDbLine
 62
7
  6
CONTINUOUS
 10
24.4091625224
 20
45.6860525506
 11
24.4091625224
 21
68.6055828829
  0
LINE
  5
237
100
AcDbEntity
  8
0
100
AcDbLine
 62
7
  6
CONTINUOUS
 10
14.6126215439
 20
34.3555828829
 11
7.7291625224
 21
34.3555828829
  0
LINE
  5
238
100
AcDbEntity
  8
0
100
AcDbLine
 62
7
  6
CONTINUOUS
 10
43.8457035008
 20
34.3555828829
 11
50.7291625224
 21
34.3555828829
  0
LINE
  5
239
100
AcDbEntity
  8
0
100
AcDbLine
 62
7
  6
CONTINUOUS
 10
26.4091624585
 20
19.3552215848
 11
26.4417517953
 21
19.1754480546
  0
LINE
  5
23A
100
AcDbEntity
  8
0
100
AcDbLine
 62
7
  6
CONTINUOUS
 10
25.2091625224
 20
68.6055828829
 11
25.2091625224
 21
45.6860525506
  0
LINE
  5
23B
100
AcDbEntity
  8
0
100
AcDbLine
 62
7
  6
CONTINUOUS
 10
25.5551625224
 20
55.2818328829
 11
25.5551625224
 21
60.7875298829
  0
LINE
  5
23C
100
AcDbEntity
  8
0
100
AcDbLine
 62
7
  6
CONTINUOUS
 10
25.6068100224
 20
56.9044728829
 11
25.6068100224
 21
59.8328038829
  0
LINE
  5
23D
100
AcDbEntity
  8
0
100
AcDbLine
 62
7
  6
CONTINUOUS
 10
26.4091624585
 20
19.3552219363
 11
26.4091624591
 21
19.1754480545
  0
LINE
  5
23E
100
AcDbEntity
  8
0
100
AcDbLine
 62
7
  6
CONTINUOUS
 10
32.2191625224
 20
19.3552233458
 11
32.2320954844
 21
19.1754432494
  0
LINE
  5
23F
100
AcDbEntity
  8
0
100
AcDbLine
 62
7
  6
CONTINUOUS
 10
34.9820954844
 20
19.1754432494
 11
34.9691625224
 21
19.3552233458
  0
LINE
  5
240
100
AcDbEntity
  8
0
100
AcDbLine
 62
7
  6
CONTINUOUS
 10
33.0102840224
 20
59.8328038829
 11
33.0102840224
 21
56.9044728829
  0
LINE
  5
241
100
AcDbEntity
  8
0
100
AcDbLine
 62
7
  6
CONTINUOUS
 10
33.0591625224
 20
45.6860525506
 11
33.0591625224
 21
68.6055828829
  0
LINE
  5
242
100
AcDbEntity
  8
0
100
AcDbLine
 62
7
  6
CONTINUOUS
 10
33.8691625224
 20
68.6055828829
 11
33.8691625224
 21
45.6860525506
  0
LINE
  5
243
100
AcDbEntity
  8
0
100
AcDbLine
 62
7
  6
CONTINUOUS
 10
34.1981625224
 20
55.2818328829
 11
34.1981625224
 21
60.7875298829
  0
LINE
  5
244
100
AcDbEntity
  8
0
100
AcDbLine
 62
7
  6
CONTINUOUS
 10
34.2498100224
 20
56.9044728829
 11
34.2498100224
 21
59.8328038829
  0
LINE
  5
245
100
AcDbEntity
  8
0
100
AcDbLine
 62
7
  6
CONTINUOUS
 10
34.9691625224
 20
19.3552233458
 11
34.9691625224
 21
19.1754432494
  0
LINE
  5
246
100
AcDbEntity
  8
0
100
AcDbLine
 62
7
  6
CONTINUOUS
 10
8.1291625224
 20
45.6238253513
 11
50.3291625224
 21
45.6238253513
  0
LINE
  5
247
100
AcDbEntity
  8
0
100
AcDbLine
 62
7
  6
CONTINUOUS
 10
50.3291625224
 20
45.6860525506
 11
42.5091625224
 21
45.6860525506
  0
LINE
  5
248
100
AcDbEntity
  8
0
100
AcDbLine
 62
7
  6
CONTINUOUS
 10
41.6991069668
 20
45.6860525506
 11
33.8691625224
 21
45.6860525506
  0
LINE
  5
249
100
AcDbEntity
  8
0
100
AcDbLine
 62
7
  6
CONTINUOUS
 10
33.0589403002
 20
45.6860525506
 11
25.2091625224
 21
45.6860525506
  0
LINE
  5
24A
100
AcDbEntity
  8
0
100
AcDbLine
 62
7
  6
CONTINUOUS
 10
24.409329189
 20
45.6860525506
 11
16.5591625224
 21
45.6860525506
  0
LINE
  5
24B
100
AcDbEntity
  8
0
100
AcDbLine
 62
7
  6
CONTINUOUS
 10
15.7591625224
 20
45.6860525506
 11
8.1291625224
 21
45.6860525506
  0
LINE
  5
24C
100
AcDbEntity
  8
0
100
AcDbLine
 62
7
  6
CONTINUOUS
 10
8.1291625224
 20
45.8137287385
 11
6.7291625224
 21
45.8137287385
  0
LINE
  5
24D
100
AcDbEntity
  8
0
100
AcDbLine
 62
7
  6
CONTINUOUS
 10
50.3291625224
 20
45.8137287385
 11
51.7291625224
 21
45.8137287385
  0
LINE
  5
24E
100
AcDbEntity
  8
0
100
AcDbLine
 62
7
  6
CONTINUOUS
 10
15.7591625224
 20
45.8201483486
 11
16.5591625224
 21
45.8201483486
  0
LINE
  5
24F
100
AcDbEntity
  8
0
100
AcDbLine
 62
7
  6
CONTINUOUS
 10
24.4091625224
 20
45.8201483486
 11
25.2091625224
 21
45.8201483486
  0
LINE
  5
250
100
AcDbEntity
  8
0
100
AcDbLine
 62
7
  6
CONTINUOUS
 10
33.0591625224
 20
45.8201483486
 11
33.8691625224
 21
45.8201483486
  0
LINE
  5
251
100
AcDbEntity
  8
0
100
AcDbLine
 62
7
  6
CONTINUOUS
 10
41.6991625224
 20
45.8201483486
 11
42.5091625224
 21
45.8201483486
  0
LINE
  5
252
100
AcDbEntity
  8
0
100
AcDbLine
 62
7
  6
CONTINUOUS
 10
8.1291625224
 20
45.8864895559
 11
7.8891625224
 21
45.8864895559
  0
LINE
  5
253
100
AcDbEntity
  8
0
100
AcDbLine
 62
7
  6
CONTINUOUS
 10
50.3291625224
 20
45.8864895559
 11
50.3791625224
 21
45.8864895559
  0
LINE
  5
254
100
AcDbEntity
  8
0
100
AcDbLine
 62
7
  6
CONTINUOUS
 10
7.8891625224
 20
46.0102162603
 11
6.7291625224
 21
46.0102162603
  0
LINE
  5
255
100
AcDbEntity
  8
0
100
AcDbLine
 62
7
  6
CONTINUOUS
 10
50.3791625224
 20
46.0102162603
 11
51.7291625224
 21
46.0102162603
  0
LINE
  5
256
100
AcDbEntity
  8
0
100
AcDbLine
 62
7
  6
CONTINUOUS
 10
41.6532840224
 20
59.8328038829
 11
41.6532840224
 21
56.9044728829
  0
LINE
  5
257
100
AcDbEntity
  8
0
100
AcDbLine
 62
7
  6
CONTINUOUS
 10
41.6991625224
 20
45.6860525506
 11
41.6991625224
 21
68.6055828829
  0
LINE
  5
258
100
AcDbEntity
  8
0
100
AcDbLine
 62
7
  6
CONTINUOUS
 10
42.5091625224
 20
68.6055828829
 11
42.5091625224
 21
45.6860525506
  0
LINE
  5
259
100
AcDbEntity
  8
0
100
AcDbLine
 62
7
  6
CONTINUOUS
 10
42.8791625224
 20
55.0755828829
 11
42.8791625224
 21
60.7875298829
  0
LINE
  5
25A
100
AcDbEntity
  8
0
100
AcDbLine
 62
7
  6
CONTINUOUS
 10
42.8928100224
 20
56.9044728829
 11
42.8928100224
 21
59.8328038829
  0
LINE
  5
25B
100
AcDbEntity
  8
0
100
AcDbLine
 62
7
  6
CONTINUOUS
 10
43.8457035008
 20
19.3576910226
 11
43.8457035008
 21
34.3555828829
  0
LINE
  5
25C
100
AcDbEntity
  8
0
100
AcDbLine
 62
7
  6
CONTINUOUS
 10
50.3791625224
 20
55.0755828829
 11
42.8791625224
 21
55.0755828829
  0
LINE
  5
25D
100
AcDbEntity
  8
0
100
AcDbLine
 62
7
  6
CONTINUOUS
 10
44.1553401104
 20
19.2702190864
 11
44.1553401104
 21
19.1315335268
  0
LINE
  5
25E
100
AcDbEntity
  8
0
100
AcDbLine
 62
7
  6
CONTINUOUS
 10
41.6989403002
 20
55.2818328829
 11
34.1981625224
 21
55.2818328829
  0
LINE
  5
25F
100
AcDbEntity
  8
0
100
AcDbLine
 62
7
  6
CONTINUOUS
 10
33.0582736335
 20
55.2818328829
 11
25.5551625224
 21
55.2818328829
  0
LINE
  5
260
100
AcDbEntity
  8
0
100
AcDbLine
 62
7
  6
CONTINUOUS
 10
24.409829189
 20
55.2818328829
 11
16.9121625224
 21
55.2818328829
  0
LINE
  5
261
100
AcDbEntity
  8
0
100
AcDbLine
 62
7
  6
CONTINUOUS
 10
15.7591625224
 20
55.2818328829
 11
8.2691625224
 21
55.2818328829
  0
LINE
  5
262
100
AcDbEntity
  8
0
100
AcDbLine
 62
7
  6
CONTINUOUS
 10
50.2962840224
 20
56.9044728829
 11
42.8928100224
 21
56.9044728829
  0
LINE
  5
263
100
AcDbEntity
  8
0
100
AcDbLine
 62
7
  6
CONTINUOUS
 10
41.6532840224
 20
56.9044728829
 11
34.2498100224
 21
56.9044728829
  0
LINE
  5
264
100
AcDbEntity
  8
0
100
AcDbLine
 62
7
  6
CONTINUOUS
 10
33.0102840224
 20
56.9044728829
 11
25.6068100224
 21
56.9044728829
  0
LINE
  5
265
100
AcDbEntity
  8
0
100
AcDbLine
 62
7
  6
CONTINUOUS
 10
24.3672840224
 20
56.9044728829
 11
16.9638100224
 21
56.9044728829
  0
LINE
  5
266
100
AcDbEntity
  8
0
100
AcDbLine
 62
7
  6
CONTINUOUS
 10
15.7242840224
 20
56.9044728829
 11
8.3208100224
 21
56.9044728829
  0
LINE
  5
267
100
AcDbEntity
  8
0
100
AcDbLine
 62
7
  6
CONTINUOUS
 10
47.5453401104
 20
19.1315335268
 11
47.5453401104
 21
19.2702190864
  0
LINE
  5
268
100
AcDbEntity
  8
0
100
AcDbLine
 62
7
  6
CONTINUOUS
 10
8.3208100224
 20
59.8328038829
 11
15.7242840224
 21
59.8328038829
  0
LINE
  5
269
100
AcDbEntity
  8
0
100
AcDbLine
 62
7
  6
CONTINUOUS
 10
16.9638100224
 20
59.8328038829
 11
24.3672840224
 21
59.8328038829
  0
LINE
  5
26A
100
AcDbEntity
  8
0
100
AcDbLine
 62
7
  6
CONTINUOUS
 10
25.6068100224
 20
59.8328038829
 11
33.0102840224
 21
59.8328038829
  0
LINE
  5
26B
100
AcDbEntity
  8
0
100
AcDbLine
 62
7
  6
CONTINUOUS
 10
34.2498100224
 20
59.8328038829
 11
41.6532840224
 21
59.8328038829
  0
LINE
  5
26C
100
AcDbEntity
  8
0
100
AcDbLine
 62
7
  6
CONTINUOUS
 10
42.8928100224
 20
59.8328038829
 11
50.2962840224
 21
59.8328038829
  0
LINE
  5
26D
100
AcDbEntity
  8
0
100
AcDbLine
 62
7
  6
CONTINUOUS
 10
50.2962840224
 20
59.8328038829
 11
50.2962840224
 21
56.9044728829
  0
LINE
  5
26E
100
AcDbEntity
  8
0
100
AcDbLine
 62
7
  6
CONTINUOUS
 10
50.3291625224
 20
12.0755828829
 11
50.3291625224
 21
19.3580201905
  0
LINE
  5
26F
100
AcDbEntity
  8
0
100
AcDbLine
 62
7
  6
CONTINUOUS
 10
50.3291625224
 20
34.3555828829
 11
50.3291625224
 21
45.8864895559
  0
LINE
  5
270
100
AcDbEntity
  8
0
100
AcDbLine
 62
7
  6
CONTINUOUS
 10
50.3791625224
 20
45.8864895559
 11
50.3791625224
 21
68.6055828829
  0
LINE
  5
271
100
AcDbEntity
  8
0
100
AcDbLine
 62
7
  6
CONTINUOUS
 10
50.7291625224
 20
34.3555828829
 11
50.7291625224
 21
19.3555828829
  0
LINE
  5
272
100
AcDbEntity
  8
0
100
AcDbLine
 62
7
  6
CONTINUOUS
 10
50.3791625224
 20
60.7875298829
 11
42.8791625224
 21
60.7875298829
  0
LINE
  5
273
100
AcDbEntity
  8
0
100
AcDbLine
 62
7
  6
CONTINUOUS
 10
24.409829189
 20
60.7875298829
 11
16.9121625224
 21
60.7875298829
  0
LINE
  5
274
100
AcDbEntity
  8
0
100
AcDbLine
 62
7
  6
CONTINUOUS
 10
15.7591625224
 20
60.7875298829
 11
8.2691625224
 21
60.7875298829
  0
LINE
  5
275
100
AcDbEntity
  8
0
100
AcDbLine
 62
7
  6
CONTINUOUS
 10
25.5551625224
 20
60.7875298829
 11
33.0582736335
 21
60.7875298829
  0
LINE
  5
276
100
AcDbEntity
  8
0
100
AcDbLine
 62
7
  6
CONTINUOUS
 10
34.1981625224
 20
60.7875298829
 11
41.6989403002
 21
60.7875298829
  0
LINE
  5
277
100
AcDbEntity
  8
0
100
AcDbLine
 62
7
  6
CONTINUOUS
 10
51.7291625224
 20
12.0755828829
 11
51.7291625224
 21
68.7668678829
  0
LINE
  5
278
100
AcDbEntity
  8
0
100
AcDbLine
 62
7
  6
CONTINUOUS
 10
7.8891625224
 20
68.6055828829
 11
6.7291625224
 21
68.6055828829
  0
LINE
  5
279
100
AcDbEntity
  8
0
100
AcDbLine
 62
7
  6
CONTINUOUS
 10
15.7591625224
 20
68.6055828829
 11
16.5591625224
 21
68.6055828829
  0
LINE
  5
27A
100
AcDbEntity
  8
0
100
AcDbLine
 62
7
  6
CONTINUOUS
 10
24.4091625224
 20
68.6055828829
 11
25.2091625224
 21
68.6055828829
  0
LINE
  5
27B
100
AcDbEntity
  8
0
100
AcDbLine
 62
7
  6
CONTINUOUS
 10
33.0591625224
 20
68.6055828829
 11
33.8691625224
 21
68.6055828829
  0
LINE
  5
27C
100
AcDbEntity
  8
0
100
AcDbLine
 62
7
  6
CONTINUOUS
 10
41.6991625224
 20
68.6055828829
 11
42.5091625224
 21
68.6055828829
  0
LINE
  5
27D
100
AcDbEntity
  8
0
100
AcDbLine
 62
7
  6
CONTINUOUS
 10
50.3791625224
 20
68.6055828829
 11
51.7291625224
 21
68.6055828829
  0
LINE
  5
27E
100
AcDbEntity
  8
0
100
AcDbLine
 62
7
  6
CONTINUOUS
 10
6.7291625224
 20
68.7668678829
 11
51.7291625224
 21
68.7668678829
  0
SPLINE
  5
27F
100
AcDbEntity
  8
0
100
AcDbSpline
 62
7
  6
CONTINUOUS
 70
0
 71
3
 72
19
 73
15
 74
0
 42
0.0000001
 43
0.0000001
 44
0.0000000001
 40
0.0
 40
0.0
 40
0.0
 40
0.0
 40
0.2171467599
 40
0.4129193684
 40
0.5838854633
 40
0.7275985078
 40
0.8420022558
 40
0.8877315278
 40
0.9255965462
 40
0.9554915567
 40
0.9774683521
 40
0.9855725427
 40
0.9918628224
 40
1.0
 40
1.0
 40
1.0
 40
1.0
 10
10.7230359599
 20
19.1292127669
 30
0.0
 10
10.6558087008
 20
19.1314959771
 30
0.0
 10
10.5279890861
 20
19.1363934591
 30
0.0
 10
10.3473309383
 20
19.1452499409
 30
0.0
 10
10.1895082089
 20
19.1551241484
 30
0.0
 10
10.0570163639
 20
19.1658356976
 30
0.0
 10
9.9634014208
 20
19.1758245874
 30
0.0
 10
9.9026779588
 20
19.1845166073
 30
0.0
 10
9.868046263
 20
19.1905989457
 30
0.0
 10
9.8409180726
 20
19.1967777823
 30
0.0
 10
9.8231433436
 20
19.2021992636
 30
0.0
 10
9.8128306201
 20
19.2069789223
 30
0.0
 10
9.8070180913
 20
19.2105407583
 30
0.0
 10
9.8036598474
 20
19.2145291873
 30
0.0
 10
9.8036598474
 20
19.2170498584
 30
0.0
  0
SPLINE
  5
280
100
AcDbEntity
  8
0
100
AcDbSpline
 62
7
  6
CONTINUOUS
 70
0
 71
3
 72
19
 73
15
 74
0
 42
0.0000001
 43
0.0000001
 44
0.0000000001
 40
0.0
 40
0.0
 40
0.0
 40
0.0
 40
0.0082380005
 40
0.0145464876
 40
0.0226524799
 40
0.0445951704
 40
0.0744176776
 40
0.112180741
 40
0.1577888758
 40
0.2719327213
 40
0.4154304556
 40
0.586323607
 40
0.7822759446
 40
1.0
 40
1.0
 40
1.0
 40
1.0
 10
13.9088899433
 20
19.2170485499
 30
0.0
 10
13.9088899433
 20
19.2145610224
 30
0.0
 10
13.9056602078
 20
19.210608621
 30
0.0
 10
13.8999919741
 20
19.2070537521
 30
0.0
 10
13.8899866647
 20
19.2023125141
 30
0.0
 10
13.8727205119
 20
19.1969236092
 30
0.0
 10
13.8463692546
 20
19.1907847723
 30
0.0
 10
13.8127221965
 20
19.1847357026
 30
0.0
 10
13.7537038927
 20
19.1760842287
 30
0.0
 10
13.6626549365
 20
19.1661220807
 30
0.0
 10
13.5336937894
 20
19.1554074827
 30
0.0
 10
13.3799036465
 20
19.1454880748
 30
0.0
 10
13.2036118436
 20
19.136537157
 30
0.0
 10
13.0787961658
 20
19.1315509098
 30
0.0
 10
13.013094273
 20
19.1292136834
 30
0.0
  0
SPLINE
  5
281
100
AcDbEntity
  8
0
100
AcDbSpline
 62
7
  6
CONTINUOUS
 70
0
 71
3
 72
15
 73
11
 74
0
 42
0.0000001
 43
0.0000001
 44
0.0000000001
 40
0.0
 40
0.0
 40
0.0
 40
0.0
 40
0.0962810129
 40
0.2166602852
 40
0.3539664283
 40
0.5000000487
 40
0.6460336599
 40
0.7833397807
 40
0.9037190166
 40
1.0
 40
1.0
 40
1.0
 40
1.0
 10
47.5453401104
 20
19.1315333918
 30
0.0
 10
47.4368008229
 20
19.1232084215
 30
0.0
 10
47.1921701459
 20
19.1096360756
 30
0.0
 10
46.7921956021
 20
19.095751167
 30
0.0
 10
46.3358045078
 20
19.087029406
 30
0.0
 10
45.8503399555
 20
19.0840433034
 30
0.0
 10
45.3648754285
 20
19.087029409
 30
0.0
 10
44.9084844112
 20
19.0957511734
 30
0.0
 10
44.5085099671
 20
19.1096360796
 30
0.0
 10
44.2638793646
 20
19.1232084241
 30
0.0
 10
44.1553401104
 20
19.1315333918
 30
0.0
  0
SPLINE
  5
282
100
AcDbEntity
  8
0
100
AcDbSpline
 62
7
  6
CONTINUOUS
 70
0
 71
3
 72
22
 73
18
 74
0
 42
0.0000001
 43
0.0000001
 44
0.0000000001
 40
0.0
 40
0.0
 40
0.0
 40
0.0
 40
0.0027715912
 40
0.0071479826
 40
0.0136195594
 40
0.0223182384
 40
0.0332868849
 40
0.0465374917
 40
0.0797926215
 40
0.1217996357
 40
0.1722110513
 40
0.230548813
 40
0.2962516004
 40
0.4472302072
 40
0.6193031612
 40
0.806046689
 40
1.0
 40
1.0
 40
1.0
 40
1.0
 10
39.399257654
 20
19.2170521002
 30
0.0
 10
39.399257654
 20
19.2156541102
 30
0.0
 10
39.3971019439
 20
19.2122755738
 30
0.0
 10
39.3911374036
 20
19.2088631147
 30
0.0
 10
39.3819548585
 20
19.2051735033
 30
0.0
 10
39.3692581925
 20
19.2015858954
 30
0.0
 10
39.3530518835
 20
19.1979476114
 30
0.0
 10
39.3245240835
 20
19.1927601454
 30
0.0
 10
39.2802766798
 20
19.1866880817
 30
0.0
 10
39.21723447
 20
19.180019408
 30
0.0
 10
39.1414540148
 20
19.1736642714
 30
0.0
 10
39.0536616844
 20
19.1676816788
 30
0.0
 10
38.9151552444
 20
19.1599442101
 30
0.0
 10
38.7192185523
 20
19.1519883847
 30
0.0
 10
38.462163675
 20
19.1451295273
 30
0.0
 10
38.1833731077
 20
19.1409149104
 30
0.0
 10
37.9913481586
 20
19.1399800211
 30
0.0
 10
37.8935181476
 20
19.1399986303
 30
0.0
  0
SPLINE
  5
283
100
AcDbEntity
  8
0
100
AcDbSpline
 62
7
  6
CONTINUOUS
 70
0
 71
3
 72
22
 73
18
 74
0
 42
0.0000001
 43
0.0000001
 44
0.0000000001
 40
0.0
 40
0.0
 40
0.0
 40
0.0
 40
0.1943456882
 40
0.381253056
 40
0.5533242615
 40
0.7041950716
 40
0.7698227129
 40
0.8280802521
 40
0.8784128027
 40
0.9203475294
 40
0.9535402538
 40
0.9667644259
 40
0.9777105883
 40
0.9863916418
 40
0.9928515612
 40
0.9972237778
 40
1.0
 40
1.0
 40
1.0
 40
1.0
 10
37.8935181476
 20
19.1399986303
 30
0.0
 10
37.7962127413
 20
19.1400171397
 30
0.0
 10
37.6053249987
 20
19.1410133258
 30
0.0
 10
37.3283130884
 20
19.1452926539
 30
0.0
 10
37.0731279381
 20
19.1521861204
 30
0.0
 10
36.8787305343
 20
19.160147584
 30
0.0
 10
36.7413795317
 20
19.1678746604
 30
0.0
 10
36.6543538479
 20
19.1738428791
 30
0.0
 10
36.5792504426
 20
19.1801782874
 30
0.0
 10
36.5167830033
 20
19.1868225556
 30
0.0
 10
36.4729458378
 20
19.1928699925
 30
0.0
 10
36.4446878098
 20
19.19803538
 30
0.0
 10
36.4286375326
 20
19.2016573152
 30
0.0
 10
36.4160640965
 20
19.2052295907
 30
0.0
 10
36.4069718386
 20
19.2089013495
 30
0.0
 10
36.4010634871
 20
19.2123036151
 30
0.0
 10
36.3989360298
 20
19.2156620918
 30
0.0
 10
36.3989360298
 20
19.2170520966
 30
0.0
  0
SPLINE
  5
284
100
AcDbEntity
  8
0
100
AcDbSpline
 62
7
  6
CONTINUOUS
 70
0
 71
3
 72
22
 73
18
 74
0
 42
0.0000001
 43
0.0000001
 44
0.0000000001
 40
0.0
 40
0.0
 40
0.0
 40
0.0
 40
0.0027740599
 40
0.0071492072
 40
0.0136162811
 40
0.0223076796
 40
0.0332665609
 40
0.046505131
 40
0.0797304043
 40
0.1217017082
 40
0.1720737339
 40
0.2303711876
 40
0.2960359044
 40
0.4469586607
 40
0.6190282712
 40
0.8058515718
 40
1.0
 40
1.0
 40
1.0
 40
1.0
 10
30.7292965165
 20
19.2170521118
 30
0.0
 10
30.7292965165
 20
19.215658059
 30
0.0
 10
30.7271539148
 20
19.2122894274
 30
0.0
 10
30.7212162169
 20
19.2088824995
 30
0.0
 10
30.7120769576
 20
19.2052018745
 30
0.0
 10
30.6994399313
 20
19.2016220811
 30
0.0
 10
30.6833098303
 20
19.1979920633
 30
0.0
 10
30.6549154889
 20
19.1928158394
 30
0.0
 10
30.6108726767
 20
19.1867561851
 30
0.0
 10
30.5481182965
 20
19.1800998266
 30
0.0
 10
30.4726778417
 20
19.1737546826
 30
0.0
 10
30.3852710048
 20
19.1677793892
 30
0.0
 10
30.2473464257
 20
19.1600472223
 30
0.0
 10
30.05218566
 20
19.1520885077
 30
0.0
 10
29.7960736649
 20
19.1452122227
 30
0.0
 10
29.5181799473
 20
19.1409646327
 30
0.0
 10
29.3267282614
 20
19.1399984756
 30
0.0
 10
29.2291625393
 20
19.1399984756
 30
0.0
  0
SPLINE
  5
285
100
AcDbEntity
  8
0
100
AcDbSpline
 62
7
  6
CONTINUOUS
 70
0
 71
3
 72
22
 73
18
 74
0
 42
0.0000001
 43
0.0000001
 44
0.0000000001
 40
0.0
 40
0.0
 40
0.0
 40
0.0
 40
0.1941483578
 40
0.3809715535
 40
0.553041144
 40
0.7039639151
 40
0.7696286448
 40
0.8279261277
 40
0.8782981747
 40
0.9202695122
 40
0.9534948192
 40
0.9667333991
 40
0.9776922907
 40
0.9863837006
 40
0.9928507847
 40
0.9972259387
 40
1.0
 40
1.0
 40
1.0
 40
1.0
 10
29.2291625393
 20
19.1399984756
 30
0.0
 10
29.1315968525
 20
19.1399984756
 30
0.0
 10
28.9401452542
 20
19.1409646312
 30
0.0
 10
28.6622516341
 20
19.1452122177
 30
0.0
 10
28.4061396938
 20
19.1520884983
 30
0.0
 10
28.2109789235
 20
19.160047207
 30
0.0
 10
28.0730543155
 20
19.1677793738
 30
0.0
 10
27.9856474461
 20
19.1737546632
 30
0.0
 10
27.910206949
 20
19.180099808
 30
0.0
 10
27.8474525238
 20
19.1867561664
 30
0.0
 10
27.8034096721
 20
19.1928158194
 30
0.0
 10
27.775015304
 20
19.1979920477
 30
0.0
 10
27.7588851872
 20
19.2016220677
 30
0.0
 10
27.7462481447
 20
19.2052018621
 30
0.0
 10
27.73710887
 20
19.2088824884
 30
0.0
 10
27.731171162
 20
19.2122894142
 30
0.0
 10
27.7290285519
 20
19.2156580472
 30
0.0
 10
27.7290285519
 20
19.2170521007
 30
0.0
  0
SPLINE
  5
286
100
AcDbEntity
  8
0
100
AcDbSpline
 62
7
  6
CONTINUOUS
 70
0
 71
3
 72
22
 73
18
 74
0
 42
0.0000001
 43
0.0000001
 44
0.0000000001
 40
0.0
 40
0.0
 40
0.0
 40
0.0
 40
0.0027678889
 40
0.0071461138
 40
0.0136243982
 40
0.0223339675
 40
0.0333172772
 40
0.046586027
 40
0.0798863349
 40
0.1219475144
 40
0.1724187219
 40
0.2308176885
 40
0.2965783113
 40
0.4476418654
 40
0.6197200889
 40
0.806342702
 40
1.0
 40
1.0
 40
1.0
 40
1.0
 10
22.1042142311
 20
19.2170521012
 30
0.0
 10
22.1042142311
 20
19.2156481631
 30
0.0
 10
22.1020387482
 20
19.2122546768
 30
0.0
 10
22.0960337174
 20
19.2088338351
 30
0.0
 10
22.0867858
 20
19.2051306378
 30
0.0
 10
22.0739990097
 20
19.2015312181
 30
0.0
 10
22.0576774489
 20
19.1978804432
 30
0.0
 10
22.0289476226
 20
19.1926759898
 30
0.0
 10
21.9843903453
 20
19.1865852007
 30
0.0
 10
21.9209121048
 20
19.1798979644
 30
0.0
 10
21.8446165745
 20
19.1735277963
 30
0.0
 10
21.7562403418
 20
19.1675342659
 30
0.0
 10
21.6168529486
 20
19.1597889527
 30
0.0
 10
21.4197422866
 20
19.1518377408
 30
0.0
 10
21.1612622571
 20
19.1450057925
 30
0.0
 10
20.8811187383
 20
19.1408413671
 30
0.0
 10
20.6882300421
 20
19.1399539593
 30
0.0
 10
20.5900025325
 20
19.1400011677
 30
0.0
  0
SPLINE
  5
287
100
AcDbEntity
  8
0
100
AcDbSpline
 62
7
  6
CONTINUOUS
 70
0
 71
3
 72
22
 73
18
 74
0
 42
0.0000001
 43
0.0000001
 44
0.0000000001
 40
0.0
 40
0.0
 40
0.0
 40
0.0
 40
0.1946395366
 40
0.3816668247
 40
0.5537327483
 40
0.7045193126
 40
0.7700895984
 40
0.8282864385
 40
0.8785596914
 40
0.9204406806
 40
0.9535885092
 40
0.9667946018
 40
0.9777261161
 40
0.9863962743
 40
0.9928494946
 40
0.9972199394
 40
1.0
 40
1.0
 40
1.0
 40
1.0
 10
20.5900025325
 20
19.1400011677
 30
0.0
 10
20.4931002495
 20
19.1400477393
 30
0.0
 10
20.3030845983
 20
19.1410905913
 30
0.0
 10
20.0274345082
 20
19.1454190525
 30
0.0
 10
19.7736768122
 20
19.1523384558
 30
0.0
 10
19.5804521865
 20
19.1603039057
 30
0.0
 10
19.4439795597
 20
19.1680227417
 30
0.0
 10
19.3575352859
 20
19.1739798055
 30
0.0
 10
19.2829444528
 20
19.1803000192
 30
0.0
 10
19.2209107717
 20
19.1869256092
 30
0.0
 10
19.1773818356
 20
19.1929542532
 30
0.0
 10
19.1493248113
 20
19.1981026257
 30
0.0
 10
19.1333892668
 20
19.2017120609
 30
0.0
 10
19.1209056111
 20
19.2052725141
 30
0.0
 10
19.1118784776
 20
19.208930704
 30
0.0
 10
19.1060105787
 20
19.2123245777
 30
0.0
 10
19.1039027822
 20
19.2156680817
 30
0.0
 10
19.1039027822
 20
19.2170521492
 30
0.0
  0
SPLINE
  5
288
100
AcDbEntity
  8
0
100
AcDbSpline
 62
7
  6
CONTINUOUS
 70
0
 71
3
 72
19
 73
15
 74
0
 42
0.0000001
 43
0.0000001
 44
0.0000000001
 40
0.0
 40
0.0
 40
0.0
 40
0.0
 40
0.0081374044
 40
0.0144278868
 40
0.0225323199
 40
0.0445096368
 40
0.0744050757
 40
0.1122702969
 40
0.1579995658
 40
0.2724029273
 40
0.4161154251
 40
0.5870810327
 40
0.7828533462
 40
1.0
 40
1.0
 40
1.0
 40
1.0
 10
9.8036598474
 20
19.2170498584
 30
0.0
 10
9.8036598474
 20
19.2195704553
 30
0.0
 10
9.807018067
 20
19.2235587406
 30
0.0
 10
9.8128304475
 20
19.2271204393
 30
0.0
 10
9.8231428734
 20
19.2318999187
 30
0.0
 10
9.8409169296
 20
19.2373212015
 30
0.0
 10
9.8680439012
 20
19.2434998287
 30
0.0
 10
9.9026737815
 20
19.2495819787
 30
0.0
 10
9.9633936758
 20
19.2582737215
 30
0.0
 10
10.0570029331
 20
19.2682623388
 30
0.0
 10
10.1894867189
 20
19.2789736343
 30
0.0
 10
10.3472999713
 20
19.2888476687
 30
0.0
 10
10.5279474748
 20
19.2977040648
 30
0.0
 10
10.6557596317
 20
19.3026015742
 30
0.0
 10
10.7229830014
 20
19.3048848239
 30
0.0
  0
SPLINE
  5
289
100
AcDbEntity
  8
0
100
AcDbSpline
 62
7
  6
CONTINUOUS
 70
0
 71
3
 72
19
 73
15
 74
0
 42
0.0000001
 43
0.0000001
 44
0.0000000001
 40
0.0
 40
0.0
 40
0.0
 40
0.0
 40
0.2177235278
 40
0.4136758233
 40
0.5845691021
 40
0.7280670422
 40
0.8422111229
 40
0.8878193558
 40
0.9255824848
 40
0.955405014
 40
0.9773476862
 40
0.985453655
 40
0.9917621079
 40
1.0
 40
1.0
 40
1.0
 40
1.0
 10
13.0130591475
 20
19.3048846496
 30
0.0
 10
13.078763434
 20
19.3025474375
 30
0.0
 10
13.2035837908
 20
19.2975612038
 30
0.0
 10
13.3798823169
 20
19.2886102629
 30
0.0
 10
13.5336785337
 20
19.2786907606
 30
0.0
 10
13.6626448789
 20
19.2679760113
 30
0.0
 10
13.7536975549
 20
19.2580136979
 30
0.0
 10
13.8127182962
 20
19.2493620635
 30
0.0
 10
13.8463667375
 20
19.2433128779
 30
0.0
 10
13.8727190661
 20
19.2371739164
 30
0.0
 10
13.8899859102
 20
19.2317849032
 30
0.0
 10
13.8999916232
 20
19.2270435611
 30
0.0
 10
13.905660059
 20
19.2234886325
 30
0.0
 10
13.9088899433
 20
19.2195361412
 30
0.0
 10
13.9088899433
 20
19.2170485499
 30
0.0
  0
SPLINE
  5
28A
100
AcDbEntity
  8
0
100
AcDbSpline
 62
7
  6
CONTINUOUS
 70
0
 71
3
 72
15
 73
11
 74
0
 42
0.0000001
 43
0.0000001
 44
0.0000000001
 40
0.0
 40
0.0
 40
0.0
 40
0.0
 40
0.0962815766
 40
0.2166609614
 40
0.3539668605
 40
0.5000000487
 40
0.6460332278
 40
0.7833391045
 40
0.9037184529
 40
1.0
 40
1.0
 40
1.0
 40
1.0
 10
44.1553401104
 20
19.2702192035
 30
0.0
 10
44.263880033
 20
19.2785442069
 30
0.0
 10
44.508511495
 20
19.2921161904
 30
0.0
 10
44.9084865189
 20
19.3060010659
 30
0.0
 10
45.3648769733
 20
19.3147226963
 30
0.0
 10
45.8503402653
 20
19.3177087774
 30
0.0
 10
46.3358035319
 20
19.3147226932
 30
0.0
 10
46.7921939094
 20
19.3060010594
 30
0.0
 10
47.1921688335
 20
19.2921161865
 30
0.0
 10
47.4368002209
 20
19.2785442044
 30
0.0
 10
47.5453401104
 20
19.2702192035
 30
0.0
  0
SPLINE
  5
28B
100
AcDbEntity
  8
0
100
AcDbSpline
 62
7
  6
CONTINUOUS
 70
0
 71
3
 72
22
 73
18
 74
0
 42
0.0000001
 43
0.0000001
 44
0.0000000001
 40
0.0
 40
0.0
 40
0.0
 40
0.0
 40
0.0027762195
 40
0.007148422
 40
0.0136083199
 40
0.0222893495
 40
0.0332354903
 40
0.046459645
 40
0.0796523305
 40
0.1215870258
 40
0.1719195577
 40
0.2301770693
 40
0.2958046999
 40
0.4466755054
 40
0.6187467443
 40
0.8056542309
 40
1.0
 40
1.0
 40
1.0
 40
1.0
 10
36.3989360298
 20
19.2170520966
 30
0.0
 10
36.3989360298
 20
19.2184420997
 30
0.0
 10
36.4010634688
 20
19.2218005728
 30
0.0
 10
36.4069717972
 20
19.2252028432
 30
0.0
 10
36.4160640206
 20
19.2288745999
 30
0.0
 10
36.4286374198
 20
19.2324468744
 30
0.0
 10
36.4446876617
 20
19.236068807
 30
0.0
 10
36.4729456448
 20
19.2412341898
 30
0.0
 10
36.5167827565
 20
19.2472816264
 30
0.0
 10
36.5792501378
 20
19.2539258934
 30
0.0
 10
36.6543534883
 20
19.2602613002
 30
0.0
 10
36.7413791248
 20
19.2662295226
 30
0.0
 10
36.878730077
 20
19.2739565975
 30
0.0
 10
37.0731274487
 20
19.2819180595
 30
0.0
 10
37.3283126185
 20
19.2888115484
 30
0.0
 10
37.6053245878
 20
19.293090853
 30
0.0
 10
37.7962123899
 20
19.2940870127
 30
0.0
 10
37.8935178161
 20
19.2941055602
 30
0.0
  0
SPLINE
  5
28C
100
AcDbEntity
  8
0
100
AcDbSpline
 62
7
  6
CONTINUOUS
 70
0
 71
3
 72
22
 73
18
 74
0
 42
0.0000001
 43
0.0000001
 44
0.0000000001
 40
0.0
 40
0.0
 40
0.0
 40
0.0
 40
0.1939532282
 40
0.380696645
 40
0.5527695761
 40
0.7037481994
 40
0.7694510017
 40
0.8277887951
 40
0.8782002351
 40
0.9202072863
 40
0.9534624535
 40
0.9667130715
 40
0.9776817298
 40
0.9863804212
 40
0.992852009
 40
0.9972284076
 40
1.0
 40
1.0
 40
1.0
 40
1.0
 10
37.8935178161
 20
19.2941055602
 30
0.0
 10
37.9913478063
 20
19.2941242076
 30
0.0
 10
38.183372699
 20
19.2931892951
 30
0.0
 10
38.4621632162
 20
19.2889746588
 30
0.0
 10
38.7192180899
 20
19.2821158256
 30
0.0
 10
38.9151548284
 20
19.2741600004
 30
0.0
 10
39.05366133
 20
19.2664225309
 30
0.0
 10
39.1414537154
 20
19.2604399423
 30
0.0
 10
39.217234234
 20
19.2540848046
 30
0.0
 10
39.2802765074
 20
19.2474161304
 30
0.0
 10
39.3245239645
 20
19.2413440674
 30
0.0
 10
39.3530518009
 20
19.2361565963
 30
0.0
 10
39.3692581312
 20
19.2325183095
 30
0.0
 10
39.3819548179
 20
19.2289307001
 30
0.0
 10
39.3911373818
 20
19.225241087
 30
0.0
 10
39.3971019343
 20
19.2218286298
 30
0.0
 10
39.399257654
 20
19.2184500912
 30
0.0
 10
39.399257654
 20
19.2170521002
 30
0.0
  0
SPLINE
  5
28D
100
AcDbEntity
  8
0
100
AcDbSpline
 62
7
  6
CONTINUOUS
 70
0
 71
3
 72
22
 73
18
 74
0
 42
0.0000001
 43
0.0000001
 44
0.0000000001
 40
0.0
 40
0.0
 40
0.0
 40
0.0
 40
0.00277406
 40
0.0071492095
 40
0.0136162876
 40
0.0223076921
 40
0.0332665807
 40
0.0465051591
 40
0.0797304499
 40
0.1217017703
 40
0.1720738082
 40
0.2303712692
 40
0.2960359892
 40
0.4469587419
 40
0.6190283363
 40
0.805851609
 40
1.0
 40
1.0
 40
1.0
 40
1.0
 10
27.7290285519
 20
19.2170521007
 30
0.0
 10
27.7290285519
 20
19.2184461536
 30
0.0
 10
27.731171157
 20
19.2218147857
 30
0.0
 10
27.7371088597
 20
19.225221712
 30
0.0
 10
27.7462481271
 20
19.2289023367
 30
0.0
 10
27.7588851639
 20
19.2324821294
 30
0.0
 10
27.7750152777
 20
19.2361121466
 30
0.0
 10
27.8034096389
 20
19.2412883694
 30
0.0
 10
27.8474524769
 20
19.2473480223
 30
0.0
 10
27.9102068866
 20
19.2540043791
 30
0.0
 10
27.9856473666
 20
19.2603495216
 30
0.0
 10
28.0730542232
 20
19.2663248134
 30
0.0
 10
28.2109788188
 20
19.2740569777
 30
0.0
 10
28.4061395945
 20
19.2820156893
 30
0.0
 10
28.6622515894
 20
19.288891971
 30
0.0
 10
28.9401452919
 20
19.2931395581
 30
0.0
 10
29.1315969629
 20
19.2941057141
 30
0.0
 10
29.2291626753
 20
19.2941057141
 30
0.0
  0
SPLINE
  5
28E
100
AcDbEntity
  8
0
100
AcDbSpline
 62
7
  6
CONTINUOUS
 70
0
 71
3
 72
22
 73
18
 74
0
 42
0.0000001
 43
0.0000001
 44
0.0000000001
 40
0.0
 40
0.0
 40
0.0
 40
0.0
 40
0.1941483361
 40
0.3809715114
 40
0.553041087
 40
0.7039638523
 40
0.7696285831
 40
0.8279260706
 40
0.8782981271
 40
0.9202694781
 40
0.9534947994
 40
0.9667333856
 40
0.9776922825
 40
0.9863836965
 40
0.9928507833
 40
0.9972259387
 40
1.0
 40
1.0
 40
1.0
 40
1.0
 10
29.2291626753
 20
19.2941057141
 30
0.0
 10
29.3267283414
 20
19.2941057141
 30
0.0
 10
29.5181798993
 20
19.2931395592
 30
0.0
 10
29.7960734628
 20
19.288891974
 30
0.0
 10
30.0521853568
 20
19.2820156951
 30
0.0
 10
30.2473460977
 20
19.2740569891
 30
0.0
 10
30.385270692
 20
19.2663248249
 30
0.0
 10
30.4726775602
 20
19.2603495373
 30
0.0
 10
30.5481180639
 20
19.2540043943
 30
0.0
 10
30.6108725018
 20
19.2473480381
 30
0.0
 10
30.6549153665
 20
19.2412883871
 30
0.0
 10
30.6833097452
 20
19.2361121604
 30
0.0
 10
30.6994398686
 20
19.2324821414
 30
0.0
 10
30.7120769162
 20
19.2289023479
 30
0.0
 10
30.7212161946
 20
19.2252217223
 30
0.0
 10
30.7271539047
 20
19.221814798
 30
0.0
 10
30.7292965165
 20
19.2184461651
 30
0.0
 10
30.7292965165
 20
19.2170521118
 30
0.0
  0
SPLINE
  5
28F
100
AcDbEntity
  8
0
100
AcDbSpline
 62
7
  6
CONTINUOUS
 70
0
 71
3
 72
22
 73
18
 74
0
 42
0.0000001
 43
0.0000001
 44
0.0000000001
 40
0.0
 40
0.0
 40
0.0
 40
0.0
 40
0.0027800611
 40
0.0071505282
 40
0.0136037891
 40
0.0222740009
 40
0.0332055768
 40
0.0464117321
 40
0.0795596606
 40
0.1214407299
 40
0.1717140499
 40
0.2299109216
 40
0.2954812277
 40
0.4462677619
 40
0.6183335888
 40
0.8053607374
 40
1.0
 40
1.0
 40
1.0
 40
1.0
 10
19.1039027822
 20
19.2170521492
 30
0.0
 10
19.1039027822
 20
19.2184362197
 30
0.0
 10
19.1060106149
 20
19.2217797318
 30
0.0
 10
19.1118785672
 20
19.2251735932
 30
0.0
 10
19.120905786
 20
19.2288317831
 30
0.0
 10
19.1333895496
 20
19.2323922323
 30
0.0
 10
19.1493252193
 20
19.2360016644
 30
0.0
 10
19.1773824164
 20
19.2411500277
 30
0.0
 10
19.2209115631
 20
19.2471786695
 30
0.0
 10
19.2829454938
 20
19.2538042539
 30
0.0
 10
19.3575365671
 20
19.2601244585
 30
0.0
 10
19.4439810742
 20
19.2660815167
 30
0.0
 10
19.5804539861
 20
19.2738003385
 30
0.0
 10
19.7736789455
 20
19.2817657913
 30
0.0
 10
20.0274370187
 20
19.2886851109
 30
0.0
 10
20.303087404
 20
19.2930136196
 30
0.0
 10
20.4931032297
 20
19.2940565407
 30
0.0
 10
20.59000557
 20
19.2941030008
 30
0.0
  0
SPLINE
  5
290
100
AcDbEntity
  8
0
100
AcDbSpline
 62
7
  6
CONTINUOUS
 70
0
 71
3
 72
22
 73
18
 74
0
 42
0.0000001
 43
0.0000001
 44
0.0000000001
 40
0.0
 40
0.0
 40
0.0
 40
0.0
 40
0.1936573479
 40
0.3802798911
 40
0.5523580862
 40
0.7034216211
 40
0.769182235
 40
0.8275812089
 40
0.878052417
 40
0.9201136125
 40
0.9534139399
 40
0.9666826934
 40
0.9776660084
 40
0.9863755853
 40
0.9928538776
 40
0.9972321085
 40
1.0
 40
1.0
 40
1.0
 40
1.0
 10
20.59000557
 20
19.2941030008
 30
0.0
 10
20.6882329084
 20
19.2941500962
 30
0.0
 10
20.8811212077
 20
19.2932627639
 30
0.0
 10
21.1612641431
 20
19.2890983994
 30
0.0
 10
21.4197435935
 20
19.282266385
 30
0.0
 10
21.6168538326
 20
19.2743151962
 30
0.0
 10
21.7562409358
 20
19.2665698877
 30
0.0
 10
21.8446169907
 20
19.2605763647
 30
0.0
 10
21.9209123797
 20
19.2542062001
 30
0.0
 10
21.9843905109
 20
19.2475189709
 30
0.0
 10
22.0289477187
 20
19.2414281905
 30
0.0
 10
22.0576775007
 20
19.2362237391
 30
0.0
 10
22.0739990364
 20
19.2325729666
 30
0.0
 10
22.0867858108
 20
19.2289735502
 30
0.0
 10
22.0960337203
 20
19.2252703565
 30
0.0
 10
22.1020387468
 20
19.2218495201
 30
0.0
 10
22.1042142311
 20
19.2184560378
 30
0.0
 10
22.1042142311
 20
19.2170521012
 30
0.0
  0
ENDSEC
  0
SECTION
  2
OBJECTS
  0
DICTIONARY
  5
C
100
AcDbDictionary
280
0
281
1
  3
ACAD_GROUP
350
D
  3
ACAD_MLINESTYLE
350
17
  3
ACAD_LAYOUT
350
1A
  3
ACAD_PLOTSETTINGS
350
19
  3
ACAD_PLOTSTYLENAME
350
E
  0
DICTIONARY
  5
D
102
{ACAD_REACTORS
330
C
102
}
100
AcDbDictionary
280
0
281
1
  0
ACDBDICTIONARYWDFLT
  5
E
102
{ACAD_REACTORS
330
C
102
}
100
AcDbDictionary
281
1
  3
Normal
350
F
100
AcDbDictionaryWithDefault
340
F
  0
DICTIONARY
  5
17
102
{ACAD_REACTORS
330
C
102
}
100
AcDbDictionary
280
0
281
1
  3
Standard
350
18
  0
DICTIONARY
  5
19
102
{ACAD_REACTORS
330
C
102
}
100
AcDbDictionary
281
1
  0
DICTIONARY
  5
1A
102
{ACAD_REACTORS
330
C
102
}
100
AcDbDictionary
281
1
  3
Model
350
291
  3
Layout1
350
292
  0
ACDBPLACEHOLDER
  5
F
102
{ACAD_REACTORS
330
E
102
}
  0
MLINESTYLE
  5
18
102
{ACAD_REACTORS
330
17
102
}
100
AcDbMlineStyle
  2
STANDARD
 70
0
  3

 62
256
 51
90.0
 52
90.0
 71
2
 49
0.5
 62
256
  6
BYLAYER
 49
-0.5
 62
256
  6
BYLAYER
  0
LAYOUT
  5
291
102
{ACAD_REACTORS
330
1A
102
}
100
AcDbPlotSettings
  1

  2
none_device
  4

  6

 40
0.0
 41
0.0
 42
0.0
 43
0.0
 44
210.0
 45
297.0
 46
0.0
 47
0.0
 48
0.0
 49
0.0
140
0.0
141
0.0
142
1.0
143
1.0
 70
1024
 72
1
 73
0
 74
0
  7

 75
0
147
1.0
148
0.0
149
0.0
100
AcDbLayout
  1
Model
 70
0
 71
0
 10
0.0
 20
0.0
 11
210.0
 21
297.0
 12
0.0
 22
0.0
 32
0.0
 14
0.0
 24
0.0
 34
0.0
 15
0.0
 25
0.0
 35
0.0
146
0.0
 13
0.0
 23
0.0
 33
0.0
 16
1.0
 26
0.0
 36
0.0
 17
0.0
 27
1.0
 37
0.0
 76
0
330
210
345
0
346
0
  0
LAYOUT
  5
292
102
{ACAD_REACTORS
330
1A
102
}
100
AcDbPlotSettings
  1

  2
none_device
  4

  6

 40
0.0
 41
0.0
 42
0.0
 43
0.0
 44
210.0
 45
297.0
 46
0.0
 47
0.0
 48
0.0
 49
0.0
140
0.0
141
0.0
142
1.0
143
1.0
 70
0
 72
1
 73
0
 74
0
  7

 75
0
147
1.0
148
0.0
149
0.0
100
AcDbLayout
  1
Layout1
 70
0
 71
1
 10
0.0
 20
0.0
 11
210.0
 21
297.0
 12
0.0
 22
0.0
 32
0.0
 14
0.0
 24
0.0
 34
0.0
 15
0.0
 25
0.0
 35
0.0
146
0.0
 13
0.0
 23
0.0
 33
0.0
 16
1.0
 26
0.0
 36
0.0
 17
0.0
 27
1.0
 37
0.0
 76
0
330
211
345
0
346
0
  0
ENDSEC
  0
EOF
