999
DXF file: C:\Users\sesa63760\Dev\_Creo\CAD\MCADID0002084_3D-CAD\drw0001_7.dxf
999
Pro/ENGINEER 2019471 by Parametric Technology Corporation
  0
SECTION
  2
HEADER
  9
$ACADVER
  1
AC1024
  9
$DWGCODEPAGE
  3
ANSI_1252
  9
$EXTMAX
 10
553.4278232633
 20
782.7050643296
 30
0.0
  9
$EXTMIN
 10
0.0
 20
0.0
 30
0.0
  9
$LIMMIN
 10
0.0
 20
0.0
  9
$LIMMAX
 10
553.4278232633
 20
782.7050643296
  9
$VIEWCTR
 10
276.7139116317
 20
391.3525321648
  9
$VIEWSIZE
 40
782.7050643296
  9
$CLAYER
  8
0
  9
$LTSCALE
 40
51.0207745637
  9
$CELTYPE
  6
BYLAYER
  9
$DIMSCALE
 40
1.0
  9
$DIMASZ
 40
6.5884264674
  9
$DIMEXO
 40
1.0
  9
$DIMDLI
 40
35.2507169713
  9
$DIMEXE
 40
1.0
  9
$DIMCEN
 40
8.3488540195
  9
$DIMLFAC
 40
1.0
  9
$DIMBLK
  1
_FILLED
  9
$DIMALT
 70
0
  9
$DIMALTF
 40
0.0393700787
  9
$DIMTXT
 40
9.2237970544
  9
$DIMTOL
 70
1
  9
$DIMLIM
 70
0
  9
$DIMTFAC
 40
1.0
  9
$DIMTP
 40
0.01
  9
$DIMTM
 40
0.01
  9
$DIMGAP
 40
0.625
  9
$DIMDSEP
 70
46
  9
$AUNITS
 70
0
  9
$PDMODE
 70
3
  9
$PDSIZE
 40
0.3125
  9
$HANDSEED
  5
4B2
  9
$TILEMODE
 70
1
  9
$MEASUREMENT
 70
1
  9
$INSUNITS
 70
4
  0
ENDSEC
  0
SECTION
  2
CLASSES
  0
CLASS
  1
ACDBDICTIONARYWDFLT
  2
AcDbDictionaryWithDefault
  3
AutoCAD 2000
 90
0
 91
1
280
0
281
0
  0
CLASS
  1
ACDBPLACEHOLDER
  2
AcDbPlaceHolder
  3
AutoCAD 2000
 90
0
 91
1
280
0
281
0
  0
CLASS
  1
LAYOUT
  2
AcDbLayout
  3
AutoCAD 2000
 90
0
 91
0
280
0
281
0
  0
ENDSEC
  0
SECTION
  2
TABLES
  0
TABLE
  2
VPORT
  5
8
100
AcDbSymbolTable
 70
2
  0
VPORT
  5
1F4
100
AcDbSymbolTableRecord
100
AcDbViewportTableRecord
  2
*ACTIVE
 70
0
 10
0.0
 20
0.0
 11
1.0
 21
1.0
 12
276.7139116317
 22
391.3525321648
 13
0.0
 23
0.0
 14
1.0
 24
1.0
 15
0.0
 25
0.0
 16
0.0
 26
0.0
 36
1.0
 17
0.0
 27
0.0
 37
0.0
 40
782.7050643296
 41
0.7070707071
 42
50.0
 43
0.0
 44
0.0
 50
0.0
 51
0.0
 71
0
 72
100
 73
1
 74
1
 75
0
 76
0
 77
0
 78
0
  0
ENDTAB
  0
TABLE
  2
LTYPE
  5
5
100
AcDbSymbolTable
 70
6
  0
LTYPE
  5
14
100
AcDbSymbolTableRecord
100
AcDbLinetypeTableRecord
  2
BYBLOCK
 70
0
  3

 72
65
 73
0
 40
0.0
  0
LTYPE
  5
15
100
AcDbSymbolTableRecord
100
AcDbLinetypeTableRecord
  2
BYLAYER
 70
0
  3

 72
65
 73
0
 40
0.0
  0
LTYPE
  5
16
100
AcDbSymbolTableRecord
100
AcDbLinetypeTableRecord
  2
CONTINUOUS
 70
64
  3
Solid line
 72
65
 73
0
 40
0.0
  0
LTYPE
  5
1F5
100
AcDbSymbolTableRecord
100
AcDbLinetypeTableRecord
  2
CENTER
 70
64
  3
____ _ ____ _ ____ _ ____ _ ____ _ ____ _ ____
 72
65
 73
4
 40
0.6
 49
0.375
 74
0
 49
-0.075
 74
0
 49
0.075
 74
0
 49
-0.075
 74
0
  0
LTYPE
  5
1F6
100
AcDbSymbolTableRecord
100
AcDbLinetypeTableRecord
  2
HIDDEN
 70
64
  3
- - - - - - - - - - - - - - - - - - - -
 72
65
 73
2
 40
0.2
 49
0.1
 74
0
 49
-0.1
 74
0
  0
LTYPE
  5
1F7
100
AcDbSymbolTableRecord
100
AcDbLinetypeTableRecord
  2
PHANTOM
 70
64
  3
_____ _ _ _____ _ _ _____ _ _ _____
 72
65
 73
6
 40
0.8
 49
0.45
 74
0
 49
-0.05
 74
0
 49
0.1
 74
0
 49
-0.05
 74
0
 49
0.1
 74
0
 49
-0.05
 74
0
  0
LTYPE
  5
1F8
100
AcDbSymbolTableRecord
100
AcDbLinetypeTableRecord
  2
DOT
 70
64
  3
. . . . . . . . . . . . . . . . . . . .
 72
65
 73
2
 40
0.2
 49
0.1
 74
0
 49
-0.1
 74
0
  0
LTYPE
  5
1F9
100
AcDbSymbolTableRecord
100
AcDbLinetypeTableRecord
  2
DASHED
 70
64
  3
- - - - - - - - - - - - - - - - - - - -
 72
65
 73
2
 40
0.2
 49
0.1
 74
0
 49
-0.1
 74
0
  0
ENDTAB
  0
TABLE
  2
LAYER
  5
2
100
AcDbSymbolTable
 70
36
  0
LAYER
  5
10
100
AcDbSymbolTableRecord
100
AcDbLayerTableRecord
  2
0
 70
0
 62
7
  6
CONTINUOUS
370
-3
390
F
  0
LAYER
  5
1FA
100
AcDbSymbolTableRecord
100
AcDbLayerTableRecord
  2
DEFAULT_1
 70
0
 62
7
  6
CENTER
370
-3
390
F
  0
LAYER
  5
1FB
100
AcDbSymbolTableRecord
100
AcDbLayerTableRecord
  2
DEFAULT_2
 70
0
 62
8
  6
HIDDEN
370
-3
390
F
  0
LAYER
  5
1FC
100
AcDbSymbolTableRecord
100
AcDbLayerTableRecord
  2
DEFAULT_3
 70
0
 62
7
  6
PHANTOM
370
-3
390
F
  0
LAYER
  5
1FD
100
AcDbSymbolTableRecord
100
AcDbLayerTableRecord
  2
00_COMPONENTS
 70
0
 62
7
  6
CONTINUOUS
370
-3
390
F
  0
LAYER
  5
1FE
100
AcDbSymbolTableRecord
100
AcDbLayerTableRecord
  2
01_1_DEFAULT_DATUMS
 70
0
 62
7
  6
CONTINUOUS
370
-3
390
F
  0
LAYER
  5
1FF
100
AcDbSymbolTableRecord
100
AcDbLayerTableRecord
  2
01_PLANES
 70
0
 62
7
  6
CONTINUOUS
370
-3
390
F
  0
LAYER
  5
200
100
AcDbSymbolTableRecord
100
AcDbLayerTableRecord
  2
02_COORD_SYS
 70
0
 62
7
  6
CONTINUOUS
370
-3
390
F
  0
LAYER
  5
201
100
AcDbSymbolTableRecord
100
AcDbLayerTableRecord
  2
03_AXES
 70
0
 62
7
  6
CONTINUOUS
370
-3
390
F
  0
LAYER
  5
202
100
AcDbSymbolTableRecord
100
AcDbLayerTableRecord
  2
04_POINTS
 70
0
 62
7
  6
CONTINUOUS
370
-3
390
F
  0
LAYER
  5
203
100
AcDbSymbolTableRecord
100
AcDbLayerTableRecord
  2
05_CURVES
 70
0
 62
7
  6
CONTINUOUS
370
-3
390
F
  0
LAYER
  5
204
100
AcDbSymbolTableRecord
100
AcDbLayerTableRecord
  2
06_SURFS
 70
0
 62
7
  6
CONTINUOUS
370
-3
390
F
  0
LAYER
  5
205
100
AcDbSymbolTableRecord
100
AcDbLayerTableRecord
  2
07_COSMETICS
 70
0
 62
7
  6
CONTINUOUS
370
-3
390
F
  0
LAYER
  5
206
100
AcDbSymbolTableRecord
100
AcDbLayerTableRecord
  2
10_NOTES
 70
0
 62
7
  6
CONTINUOUS
370
-3
390
F
  0
LAYER
  5
207
100
AcDbSymbolTableRecord
100
AcDbLayerTableRecord
  2
11_NOTES_PUB
 70
0
 62
7
  6
CONTINUOUS
370
-3
390
F
  0
LAYER
  5
208
100
AcDbSymbolTableRecord
100
AcDbLayerTableRecord
  2
13_REF_GTOL
 70
0
 62
7
  6
CONTINUOUS
370
-3
390
F
  0
LAYER
  5
209
100
AcDbSymbolTableRecord
100
AcDbLayerTableRecord
  2
16_MISC
 70
0
 62
7
  6
CONTINUOUS
370
-3
390
F
  0
LAYER
  5
20A
100
AcDbSymbolTableRecord
100
AcDbLayerTableRecord
  2
17_NO_PRINT
 70
0
 62
7
  6
CONTINUOUS
370
-3
390
F
  0
LAYER
  5
20B
100
AcDbSymbolTableRecord
100
AcDbLayerTableRecord
  2
18_DATUM_CAMS_JOINTS
 70
0
 62
7
  6
CONTINUOUS
370
-3
390
F
  0
LAYER
  5
20C
100
AcDbSymbolTableRecord
100
AcDbLayerTableRecord
  2
19_DATUM_FUNCTIONAL
 70
0
 62
7
  6
CONTINUOUS
370
-3
390
F
  0
LAYER
  5
20D
100
AcDbSymbolTableRecord
100
AcDbLayerTableRecord
  2
20_DATUM_KINEMATIC_SCHEME
 70
0
 62
7
  6
CONTINUOUS
370
-3
390
F
  0
ENDTAB
  0
TABLE
  2
STYLE
  5
3
100
AcDbSymbolTable
 70
1
  0
STYLE
  5
11
100
AcDbSymbolTableRecord
100
AcDbTextStyleTableRecord
  2
STANDARD
 70
0
 40
0.0
 41
0.8
 50
0.0
 71
0
 42
0.2
  3
txt
  4

  0
STYLE
  5
20E
100
AcDbSymbolTableRecord
100
AcDbTextStyleTableRecord
  2
TEXTSTYLE_1
 70
0
 40
0.0
 41
0.8
 50
0.0
 71
0
 42
0.2
  3
gdt
  4

  0
ENDTAB
  0
TABLE
  2
VIEW
  5
6
100
AcDbSymbolTable
 70
0
  0
ENDTAB
  0
TABLE
  2
UCS
  5
7
100
AcDbSymbolTable
 70
0
  0
ENDTAB
  0
TABLE
  2
APPID
  5
9
100
AcDbSymbolTable
 70
1
  0
APPID
  5
20F
100
AcDbSymbolTableRecord
100
AcDbRegAppTableRecord
  2
ACAD
 70
0
  0
ENDTAB
  0
TABLE
  2
BLOCK_RECORD
  5
1
100
AcDbSymbolTable
 70
0
  0
BLOCK_RECORD
  5
210
100
AcDbSymbolTableRecord
100
AcDbBlockTableRecord
  2
*Model_Space
  0
BLOCK_RECORD
  5
211
100
AcDbSymbolTableRecord
100
AcDbBlockTableRecord
  2
*Paper_Space
  0
BLOCK_RECORD
  5
212
100
AcDbSymbolTableRecord
100
AcDbBlockTableRecord
  2
_FILLED
  0
ENDTAB
  0
TABLE
  2
DIMSTYLE
  5
A
100
AcDbSymbolTable
 70
1
100
AcDbDimStyleTable
 71
0
  0
DIMSTYLE
105
213
100
AcDbSymbolTableRecord
100
AcDbDimStyleTableRecord
  2
STANDARD
 70
0
  3

  4

 40
1.0
 41
6.5884264674
 42
1.0
 43
0.38
 44
1.0
 45
0.0
 46
0.0
 47
0.01
 48
0.01
140
9.2237970544
141
0.09
142
0.0
143
25.4
144
1.0
145
0.0
146
1.0
147
0.625
 71
1
 72
0
 73
0
 74
0
 75
0
 76
0
 77
1
 78
8
 79
2
170
0
171
1
172
0
173
0
174
0
175
0
176
0
177
0
178
0
270
2
179
2
271
2
272
2
273
2
274
2
275
0
280
0
281
0
282
0
283
1
284
8
285
0
286
0
287
3
288
0
340
11
278
46
341
212
342
212
343
212
344
212
  0
ENDTAB
  0
ENDSEC
  0
SECTION
  2
BLOCKS
  0
BLOCK
  5
20
100
AcDbEntity
  8
0
100
AcDbBlockBegin
  2
*Model_Space
 70
0
 10
0.0
 20
0.0
 30
0.0
  3
*Model_Space
  1

  0
ENDBLK
  5
21
100
AcDbEntity
  8
0
100
AcDbBlockEnd
  0
BLOCK
  5
1C
100
AcDbEntity
  8
0
100
AcDbBlockBegin
  2
*Paper_Space
 70
0
 10
0.0
 20
0.0
 30
0.0
  3
*Paper_Space
  1

  0
ENDBLK
  5
1D
100
AcDbEntity
  8
0
100
AcDbBlockEnd
  0
BLOCK
  5
214
100
AcDbEntity
  8
0
100
AcDbBlockBegin
  2
_FILLED
 70
64
 10
0.0
 20
0.0
  3
_FILLED
  1

  0
SOLID
  5
215
100
AcDbEntity
  8
0
  6
BYBLOCK
 62
0
100
AcDbTrace
 10
0.0
 20
0.0
 11
-1.0
 21
0.25
 12
-1.0
 22
-0.25
 13
-1.0
 23
-0.25
  0
ENDBLK
  5
216
100
AcDbEntity
  8
0
  6
BYBLOCK
 62
0
100
AcDbBlockEnd
  0
ENDSEC
  0
SECTION
  2
ENTITIES
  0
LINE
  5
217
100
AcDbEntity
  8
0
100
AcDbLine
 62
7
  6
CONTINUOUS
 10
78.6591844197
 20
354.3648174057
 11
78.6591844197
 21
363.4729926657
  0
LINE
  5
218
100
AcDbEntity
  8
0
100
AcDbLine
 62
7
  6
CONTINUOUS
 10
78.6591765771
 20
423.0641696498
 11
78.6591765771
 21
432.1723449097
  0
LINE
  5
219
100
AcDbEntity
  8
0
100
AcDbLine
 62
7
  6
CONTINUOUS
 10
119.2803901498
 20
378.1185811577
 11
110.2347471742
 21
365.7685811577
  0
LINE
  5
21A
100
AcDbEntity
  8
0
100
AcDbLine
 62
7
  6
CONTINUOUS
 10
485.8036710806
 20
385.6704271342
 11
486.0589901991
 21
385.7015596365
  0
LINE
  5
21B
100
AcDbEntity
  8
0
100
AcDbLine
 62
7
  6
CONTINUOUS
 10
484.1015435047
 20
385.5178569704
 11
484.3568626232
 21
385.548957542
  0
LINE
  5
21C
100
AcDbEntity
  8
0
100
AcDbLine
 62
7
  6
CONTINUOUS
 10
485.8036710806
 20
385.1934480071
 11
486.0589901991
 21
385.2240335863
  0
LINE
  5
21D
100
AcDbEntity
  8
0
100
AcDbLine
 62
7
  6
CONTINUOUS
 10
484.1015435047
 20
385.0412554078
 11
484.3568626232
 21
385.0718225039
  0
LINE
  5
21E
100
AcDbEntity
  8
0
100
AcDbLine
 62
7
  6
CONTINUOUS
 10
485.8887774534
 20
384.9597703106
 11
486.0589901991
 21
384.9795642502
  0
LINE
  5
21F
100
AcDbEntity
  8
0
100
AcDbLine
 62
7
  6
CONTINUOUS
 10
484.1015435047
 20
384.7979619929
 11
484.3568626232
 21
384.8276480062
  0
LINE
  5
220
100
AcDbEntity
  8
0
100
AcDbLine
 62
7
  6
CONTINUOUS
 10
468.4845223017
 20
383.6731708325
 11
467.8036710806
 21
383.5948072196
  0
LINE
  5
221
100
AcDbEntity
  8
0
100
AcDbLine
 62
7
  6
CONTINUOUS
 10
450.4845223017
 20
382.0410976743
 11
449.8036710806
 21
381.962813602
  0
LINE
  5
222
100
AcDbEntity
  8
0
100
AcDbLine
 62
7
  6
CONTINUOUS
 10
467.8036710806
 20
383.1428131984
 11
468.4845223017
 21
383.2204250701
  0
LINE
  5
223
100
AcDbEntity
  8
0
100
AcDbLine
 62
7
  6
CONTINUOUS
 10
449.8036710806
 20
381.5108986348
 11
450.4845223017
 21
381.5885396104
  0
LINE
  5
224
100
AcDbEntity
  8
0
100
AcDbLine
 62
7
  6
CONTINUOUS
 10
432.4845223017
 20
380.0050054664
 11
431.8036710806
 21
379.9291498906
  0
LINE
  5
225
100
AcDbEntity
  8
0
100
AcDbLine
 62
7
  6
CONTINUOUS
 10
431.8036710806
 20
379.4904612373
 11
432.4845223017
 21
379.5659219625
  0
LINE
  5
226
100
AcDbEntity
  8
0
100
AcDbLine
 62
7
  6
CONTINUOUS
 10
450.4226986681
 20
381.1268660582
 11
451.0802669115
 21
381.19910216
  0
LINE
  5
227
100
AcDbEntity
  8
0
100
AcDbLine
 62
7
  6
CONTINUOUS
 10
447.0802669115
 20
380.7605272336
 11
448.1015435047
 21
380.8723457273
  0
LINE
  5
228
100
AcDbEntity
  8
0
100
AcDbLine
 62
7
  6
CONTINUOUS
 10
468.4218966813
 20
382.7673684293
 11
469.0802669115
 21
382.8392968981
  0
LINE
  5
229
100
AcDbEntity
  8
0
100
AcDbLine
 62
7
  6
CONTINUOUS
 10
467.8036710806
 20
382.6998980104
 11
469.0802669115
 21
382.8392968981
  0
LINE
  5
22A
100
AcDbEntity
  8
0
100
AcDbLine
 62
7
  6
CONTINUOUS
 10
467.8036716653
 20
382.6998926519
 11
468.4218966813
 21
382.7673684293
  0
LINE
  5
22B
100
AcDbEntity
  8
0
100
AcDbLine
 62
7
  6
CONTINUOUS
 10
432.3994159289
 20
379.3513894517
 11
431.8256900286
 21
379.2887439532
  0
LINE
  5
22C
100
AcDbEntity
  8
0
100
AcDbLine
 62
7
  6
CONTINUOUS
 10
432.3994159289
 20
379.3513894517
 11
431.8256879757
 21
379.2887627608
  0
LINE
  5
22D
100
AcDbEntity
  8
0
100
AcDbLine
 62
7
  6
CONTINUOUS
 10
432.4190644203
 20
379.1691137377
 11
433.0802669115
 21
379.2404102491
  0
LINE
  5
22E
100
AcDbEntity
  8
0
100
AcDbLine
 62
7
  6
CONTINUOUS
 10
432.4190620872
 20
379.1691353819
 11
433.0802669115
 21
379.2404102491
  0
LINE
  5
22F
100
AcDbEntity
  8
0
100
AcDbLine
 62
7
  6
CONTINUOUS
 10
413.9738838263
 20
377.7807423789
 11
414.1440968104
 21
377.7990997613
  0
LINE
  5
230
100
AcDbEntity
  8
0
100
AcDbLine
 62
7
  6
CONTINUOUS
 10
451.0802669115
 20
380.9485392001
 11
450.3426014067
 21
380.8691376208
  0
LINE
  5
231
100
AcDbEntity
  8
0
100
AcDbLine
 62
7
  6
CONTINUOUS
 10
450.6403228984
 20
380.9011770516
 11
450.3426014067
 21
380.8691376208
  0
LINE
  5
232
100
AcDbEntity
  8
0
100
AcDbLine
 62
7
  6
CONTINUOUS
 10
413.9738838263
 20
377.3554160891
 11
414.1440968104
 21
377.3737205467
  0
LINE
  5
233
100
AcDbEntity
  8
0
100
AcDbLine
 62
7
  6
CONTINUOUS
 10
450.3426014067
 20
380.8691376208
 11
448.8675009794
 21
380.7105019447
  0
LINE
  5
234
100
AcDbEntity
  8
0
100
AcDbLine
 62
7
  6
CONTINUOUS
 10
467.8036710806
 20
382.465903541
 11
468.4845223017
 21
382.5386180783
  0
LINE
  5
235
100
AcDbEntity
  8
0
100
AcDbLine
 62
7
  6
CONTINUOUS
 10
413.9738838263
 20
377.1938964327
 11
414.1440968104
 21
377.212016757
  0
LINE
  5
236
100
AcDbEntity
  8
0
100
AcDbLine
 62
7
  6
CONTINUOUS
 10
485.8887774534
 20
384.5564742103
 11
486.0589901991
 21
384.5745484723
  0
LINE
  5
237
100
AcDbEntity
  8
0
100
AcDbLine
 62
7
  6
CONTINUOUS
 10
431.8036710806
 20
378.8643310447
 11
432.0589901991
 21
378.8913891189
  0
LINE
  5
238
100
AcDbEntity
  8
0
100
AcDbLine
 62
7
  6
CONTINUOUS
 10
430.1015435047
 20
378.7081085973
 11
430.3568626232
 21
378.7351856842
  0
LINE
  5
239
100
AcDbEntity
  8
0
100
AcDbLine
 62
7
  6
CONTINUOUS
 10
485.8887774534
 20
384.1378817506
 11
486.0589901991
 21
384.1558902674
  0
LINE
  5
23A
100
AcDbEntity
  8
0
100
AcDbLine
 62
7
  6
CONTINUOUS
 10
484.1015435047
 20
384.3431117791
 11
484.3568626232
 21
384.3701056158
  0
LINE
  5
23B
100
AcDbEntity
  8
0
100
AcDbLine
 62
7
  6
CONTINUOUS
 10
484.1015435047
 20
383.9262491578
 11
484.3568626232
 21
383.9531568179
  0
LINE
  5
23C
100
AcDbEntity
  8
0
100
AcDbLine
 62
7
  6
CONTINUOUS
 10
468.3994159289
 20
382.3830877476
 11
467.8188394532
 21
382.3219160215
  0
LINE
  5
23D
100
AcDbEntity
  8
0
100
AcDbLine
 62
7
  6
CONTINUOUS
 10
431.8887774534
 20
378.7592292547
 11
432.0589901991
 21
378.7771263483
  0
LINE
  5
23E
100
AcDbEntity
  8
0
100
AcDbLine
 62
7
  6
CONTINUOUS
 10
430.1015435047
 20
378.5929068517
 11
430.3568626232
 21
378.6197709964
  0
LINE
  5
23F
100
AcDbEntity
  8
0
100
AcDbLine
 62
7
  6
CONTINUOUS
 10
485.8036710806
 20
384.0212392598
 11
486.0589901991
 21
384.0479357136
  0
LINE
  5
240
100
AcDbEntity
  8
0
100
AcDbLine
 62
7
  6
CONTINUOUS
 10
484.1015435047
 20
383.8245941845
 11
484.3568626232
 21
383.8512113879
  0
LINE
  5
241
100
AcDbEntity
  8
0
100
AcDbLine
 62
7
  6
CONTINUOUS
 10
466.5270753689
 20
382.0662294847
 11
469.0802669115
 21
382.3322515899
  0
LINE
  5
242
100
AcDbEntity
  8
0
100
AcDbLine
 62
7
  6
CONTINUOUS
 10
465.0802669115
 20
381.9155994841
 11
465.1352597506
 21
381.9213246574
  0
LINE
  5
243
100
AcDbEntity
  8
0
100
AcDbLine
 62
7
  6
CONTINUOUS
 10
465.0802669115
 20
381.9155994841
 11
465.1352599154
 21
381.9213230734
  0
LINE
  5
244
100
AcDbEntity
  8
0
100
AcDbLine
 62
7
  6
CONTINUOUS
 10
466.5270753689
 20
381.942919847
 11
466.9526073523
 21
381.9867535202
  0
LINE
  5
245
100
AcDbEntity
  8
0
100
AcDbLine
 62
7
  6
CONTINUOUS
 10
484.5270753689
 20
383.7456484858
 11
484.9526073523
 21
383.7894450037
  0
LINE
  5
246
100
AcDbEntity
  8
0
100
AcDbLine
 62
7
  6
CONTINUOUS
 10
449.7978405159
 20
380.2223899525
 11
449.3432484318
 21
380.1756994423
  0
LINE
  5
247
100
AcDbEntity
  8
0
100
AcDbLine
 62
7
  6
CONTINUOUS
 10
447.3704386866
 20
379.9731166756
 11
447.0802669115
 21
379.9433223416
  0
LINE
  5
248
100
AcDbEntity
  8
0
100
AcDbLine
 62
7
  6
CONTINUOUS
 10
448.2717562504
 20
380.0548846089
 11
448.4419689961
 21
380.0723491218
  0
LINE
  5
249
100
AcDbEntity
  8
0
100
AcDbLine
 62
7
  6
CONTINUOUS
 10
448.2717562504
 20
380.4602378324
 11
448.4419689961
 21
380.4777111532
  0
LINE
  5
24A
100
AcDbEntity
  8
0
100
AcDbLine
 62
7
  6
CONTINUOUS
 10
431.8887774534
 20
378.3849898284
 11
432.0589901991
 21
378.4024363748
  0
LINE
  5
24B
100
AcDbEntity
  8
0
100
AcDbLine
 62
7
  6
CONTINUOUS
 10
430.1015435047
 20
378.1923719882
 11
430.3568626232
 21
378.2185211668
  0
LINE
  5
24C
100
AcDbEntity
  8
0
100
AcDbLine
 62
7
  6
CONTINUOUS
 10
483.0802669115
 20
383.5366467353
 11
484.5229761218
 21
383.6841824574
  0
LINE
  5
24D
100
AcDbEntity
  8
0
100
AcDbLine
 62
7
  6
CONTINUOUS
 10
484.9484894485
 20
383.7276971992
 11
485.8245282289
 21
383.8172837512
  0
LINE
  5
24E
100
AcDbEntity
  8
0
100
AcDbLine
 62
7
  6
CONTINUOUS
 10
451.0802669115
 20
380.3133123905
 11
450.6547350474
 21
380.2697374219
  0
LINE
  5
24F
100
AcDbEntity
  8
0
100
AcDbLine
 62
7
  6
CONTINUOUS
 10
449.8036710806
 20
380.1656219167
 11
450.4845223017
 21
380.2352464689
  0
LINE
  5
250
100
AcDbEntity
  8
0
100
AcDbLine
 62
7
  6
CONTINUOUS
 10
448.1866498776
 20
380.0002769265
 11
448.5270753689
 21
380.0350848663
  0
LINE
  5
251
100
AcDbEntity
  8
0
100
AcDbLine
 62
7
  6
CONTINUOUS
 10
413.9738838263
 20
376.5501303157
 11
414.1440968104
 21
376.5675521505
  0
LINE
  5
252
100
AcDbEntity
  8
0
100
AcDbLine
 62
7
  6
CONTINUOUS
 10
413.9738838263
 20
376.9544484472
 11
414.1440968104
 21
376.9718750264
  0
LINE
  5
253
100
AcDbEntity
  8
0
100
AcDbLine
 62
7
  6
CONTINUOUS
 10
431.8036710806
 20
378.3331951843
 11
432.0589901991
 21
378.3592892974
  0
LINE
  5
254
100
AcDbEntity
  8
0
100
AcDbLine
 62
7
  6
CONTINUOUS
 10
430.1015435047
 20
378.1521212491
 11
430.3568626232
 21
378.1782006795
  0
LINE
  5
255
100
AcDbEntity
  8
0
100
AcDbLine
 62
7
  6
CONTINUOUS
 10
429.0802669115
 20
378.0478065549
 11
429.5057988353
 21
378.0912704241
  0
LINE
  5
256
100
AcDbEntity
  8
0
100
AcDbLine
 62
7
  6
CONTINUOUS
 10
413.9738838263
 20
376.5053297261
 11
414.1440968104
 21
376.5227049519
  0
LINE
  5
257
100
AcDbEntity
  8
0
100
AcDbLine
 62
7
  6
CONTINUOUS
 10
485.8036710806
 20
383.7799476425
 11
486.4845223017
 21
383.8493231329
  0
LINE
  5
258
100
AcDbEntity
  8
0
100
AcDbLine
 62
7
  6
CONTINUOUS
 10
465.0802669115
 20
381.6759027081
 11
467.8021859165
 21
381.9533453797
  0
LINE
  5
259
100
AcDbEntity
  8
0
100
AcDbLine
 62
7
  6
CONTINUOUS
 10
448.5270753689
 20
379.9889860326
 11
448.9526073523
 21
380.0323455687
  0
LINE
  5
25A
100
AcDbEntity
  8
0
100
AcDbLine
 62
7
  6
CONTINUOUS
 10
484.9526073523
 20
383.68742951
 11
484.5270753689
 21
383.6440972056
  0
LINE
  5
25B
100
AcDbEntity
  8
0
100
AcDbLine
 62
7
  6
CONTINUOUS
 10
467.8036710806
 20
381.9387748148
 11
468.4845223017
 21
382.0080849092
  0
LINE
  5
25C
100
AcDbEntity
  8
0
100
AcDbLine
 62
7
  6
CONTINUOUS
 10
430.5270753689
 20
378.1550980602
 11
430.9526073523
 21
378.1984480335
  0
LINE
  5
25D
100
AcDbEntity
  8
0
100
AcDbLine
 62
7
  6
CONTINUOUS
 10
415.0587211396
 20
376.9712891124
 11
419.5931202385
 21
377.4328746495
  0
LINE
  5
25E
100
AcDbEntity
  8
0
100
AcDbLine
 62
7
  6
CONTINUOUS
 10
424.5674135846
 20
377.9392398404
 11
429.0697370916
 21
378.3975601974
  0
LINE
  5
25F
100
AcDbEntity
  8
0
100
AcDbLine
 62
7
  6
CONTINUOUS
 10
433.0625476316
 20
378.8040139649
 11
437.5931202385
 21
379.2652099788
  0
LINE
  5
260
100
AcDbEntity
  8
0
100
AcDbLine
 62
7
  6
CONTINUOUS
 10
442.5674135846
 20
379.7715751697
 11
447.0739235744
 21
380.2303216956
  0
LINE
  5
261
100
AcDbEntity
  8
0
100
AcDbLine
 62
7
  6
CONTINUOUS
 10
449.6170569128
 20
380.4892035325
 11
450.621980655
 21
380.5915011589
  0
LINE
  5
262
100
AcDbEntity
  8
0
100
AcDbLine
 62
7
  6
CONTINUOUS
 10
451.1115390483
 20
380.6413364445
 11
455.5931202385
 21
381.0975453081
  0
LINE
  5
263
100
AcDbEntity
  8
0
100
AcDbLine
 62
7
  6
CONTINUOUS
 10
460.5674135846
 20
381.6039104991
 11
465.0653854585
 21
382.0617878754
  0
LINE
  5
264
100
AcDbEntity
  8
0
100
AcDbLine
 62
7
  6
CONTINUOUS
 10
469.0786919778
 20
382.47032806
 11
473.5931202385
 21
382.9298806375
  0
LINE
  5
265
100
AcDbEntity
  8
0
100
AcDbLine
 62
7
  6
CONTINUOUS
 10
478.5674135846
 20
383.4362458284
 11
483.2540551044
 21
383.9133290969
  0
LINE
  5
266
100
AcDbEntity
  8
0
100
AcDbLine
 62
7
  6
CONTINUOUS
 10
486.8228333364
 20
384.2766178989
 11
491.5931202385
 21
384.7622159668
  0
LINE
  5
267
100
AcDbEntity
  8
0
100
AcDbLine
 62
7
  6
CONTINUOUS
 10
325.1197708039
 20
359.7407818095
 11
318.1674135846
 21
359.6194279628
  0
LINE
  5
268
100
AcDbEntity
  8
0
100
AcDbLine
 62
7
  6
CONTINUOUS
 10
313.1674135846
 20
359.5321526382
 11
303.6893065675
 21
359.3667116648
  0
LINE
  5
269
100
AcDbEntity
  8
0
100
AcDbLine
 62
7
  6
CONTINUOUS
 10
291.1802741059
 20
353.2685952529
 11
77.6538036881
 21
353.2685869367
  0
LINE
  5
26A
100
AcDbEntity
  8
0
100
AcDbLine
 62
7
  6
CONTINUOUS
 10
78.6591844197
 20
354.3648174057
 11
290.1756525659
 21
354.3648174057
  0
LINE
  5
26B
100
AcDbEntity
  8
0
100
AcDbLine
 62
7
  6
CONTINUOUS
 10
78.6591998973
 20
363.4729926657
 11
290.1756673696
 21
363.4729926657
  0
LINE
  5
26C
100
AcDbEntity
  8
0
100
AcDbLine
 62
7
  6
CONTINUOUS
 10
252.1000819689
 20
365.7685811577
 11
242.3712122378
 21
378.1185811577
  0
LINE
  5
26D
100
AcDbEntity
  8
0
100
AcDbLine
 62
7
  6
CONTINUOUS
 10
411.0802669115
 20
378.7298070093
 11
411.5057988353
 21
378.7430831373
  0
LINE
  5
26E
100
AcDbEntity
  8
0
100
AcDbLine
 62
7
  6
CONTINUOUS
 10
411.0802669115
 20
378.2757629712
 11
411.5057988353
 21
378.2889481198
  0
LINE
  5
26F
100
AcDbEntity
  8
0
100
AcDbLine
 62
7
  6
CONTINUOUS
 10
411.0802669115
 20
377.0425343126
 11
411.5057988353
 21
377.054716566
  0
LINE
  5
270
100
AcDbEntity
  8
0
100
AcDbLine
 62
7
  6
CONTINUOUS
 10
411.0802669115
 20
376.8553027589
 11
411.5057988353
 21
376.8673459429
  0
LINE
  5
271
100
AcDbEntity
  8
0
100
AcDbLine
 62
7
  6
CONTINUOUS
 10
412.5270753689
 20
376.3636887483
 11
412.7080552747
 21
376.3686500539
  0
LINE
  5
272
100
AcDbEntity
  8
0
100
AcDbLine
 62
7
  6
CONTINUOUS
 10
411.0802669115
 20
376.3601304372
 11
411.5057988353
 21
376.3718206828
  0
LINE
  5
273
100
AcDbEntity
  8
0
100
AcDbLine
 62
7
  6
CONTINUOUS
 10
340.0674135846
 20
374.7685811577
 11
411.0841315169
 21
376.7142446627
  0
LINE
  5
274
100
AcDbEntity
  8
0
100
AcDbLine
 62
7
  6
CONTINUOUS
 10
325.1197830087
 20
374.0476296119
 11
330.1197708039
 21
374.1044714578
  0
LINE
  5
275
100
AcDbEntity
  8
0
100
AcDbLine
 62
7
  6
CONTINUOUS
 10
252.1000819689
 20
365.7685811577
 11
110.2347471742
 21
365.7685811577
  0
LINE
  5
276
100
AcDbEntity
  8
0
100
AcDbLine
 62
7
  6
CONTINUOUS
 10
61.1651106708
 20
368.0685811577
 11
61.6401342499
 21
368.0685811577
  0
LINE
  5
277
100
AcDbEntity
  8
0
100
AcDbLine
 62
7
  6
CONTINUOUS
 10
328.0674135846
 20
368.2685811577
 11
307.5472034907
 21
368.2685811577
  0
LINE
  5
278
100
AcDbEntity
  8
0
100
AcDbLine
 62
7
  6
CONTINUOUS
 10
332.9941330803
 20
374.7685811577
 11
340.0674135846
 21
374.7685811577
  0
LINE
  5
279
100
AcDbEntity
  8
0
100
AcDbLine
 62
7
  6
CONTINUOUS
 10
242.3712122378
 20
378.1185811577
 11
119.2803901498
 21
378.1185811577
  0
LINE
  5
27A
100
AcDbEntity
  8
0
100
AcDbLine
 62
7
  6
CONTINUOUS
 10
110.2347471742
 20
420.7685811577
 11
119.2803901499
 21
418.4185811577
  0
LINE
  5
27B
100
AcDbEntity
  8
0
100
AcDbLine
 62
7
  6
CONTINUOUS
 10
333.0674135846
 20
390.2685811577
 11
308.6876245064
 21
390.2685811577
  0
LINE
  5
27C
100
AcDbEntity
  8
0
100
AcDbLine
 62
7
  6
CONTINUOUS
 10
290.1756447234
 20
432.1723449097
 11
290.1756447234
 21
423.0641696498
  0
LINE
  5
27D
100
AcDbEntity
  8
0
100
AcDbLine
 62
7
  6
CONTINUOUS
 10
290.1756525659
 20
363.4729926657
 11
290.1756525659
 21
354.3648174057
  0
LINE
  5
27E
100
AcDbEntity
  8
0
100
AcDbLine
 62
7
  6
CONTINUOUS
 10
308.6876269893
 20
396.2685811577
 11
333.0674135846
 21
396.2685811577
  0
LINE
  5
27F
100
AcDbEntity
  8
0
100
AcDbLine
 62
7
  6
CONTINUOUS
 10
411.5585856562
 20
377.2679828248
 11
411.5057988353
 21
377.2810484099
  0
LINE
  5
280
100
AcDbEntity
  8
0
100
AcDbLine
 62
7
  6
CONTINUOUS
 10
332.9941330803
 20
411.7685811577
 11
340.0674135846
 21
411.7685811577
  0
LINE
  5
281
100
AcDbEntity
  8
0
100
AcDbLine
 62
7
  6
CONTINUOUS
 10
307.5472034907
 20
418.2685811577
 11
328.0674135846
 21
418.2685811577
  0
LINE
  5
282
100
AcDbEntity
  8
0
100
AcDbLine
 62
7
  6
CONTINUOUS
 10
242.3712122378
 20
418.4185811577
 11
119.2804278894
 21
418.4185811577
  0
LINE
  5
283
100
AcDbEntity
  8
0
100
AcDbLine
 62
7
  6
CONTINUOUS
 10
61.6401342499
 20
418.4685811577
 11
61.1651106708
 21
418.4685811577
  0
LINE
  5
284
100
AcDbEntity
  8
0
100
AcDbLine
 62
7
  6
CONTINUOUS
 10
110.2347471742
 20
420.7685811577
 11
252.1000819689
 21
420.7685811577
  0
LINE
  5
285
100
AcDbEntity
  8
0
100
AcDbLine
 62
7
  6
CONTINUOUS
 10
290.1756292458
 20
423.0641696498
 11
78.6591617735
 21
423.0641696498
  0
LINE
  5
286
100
AcDbEntity
  8
0
100
AcDbLine
 62
7
  6
CONTINUOUS
 10
330.1197708039
 20
412.4327298201
 11
325.119803972
 21
412.489550502
  0
LINE
  5
287
100
AcDbEntity
  8
0
100
AcDbLine
 62
7
  6
CONTINUOUS
 10
340.0674135846
 20
411.7685811577
 11
412.6971004812
 21
409.7787267222
  0
LINE
  5
288
100
AcDbEntity
  8
0
100
AcDbLine
 62
7
  6
CONTINUOUS
 10
412.6971004812
 20
409.7787267222
 11
413.4359610258
 21
409.7310643524
  0
LINE
  5
289
100
AcDbEntity
  8
0
100
AcDbLine
 62
7
  6
CONTINUOUS
 10
413.4359610257
 20
409.7310643524
 11
419.5931202385
 21
409.104287666
  0
LINE
  5
28A
100
AcDbEntity
  8
0
100
AcDbLine
 62
7
  6
CONTINUOUS
 10
424.5674135846
 20
408.5979224751
 11
437.5931202385
 21
407.2719523367
  0
LINE
  5
28B
100
AcDbEntity
  8
0
100
AcDbLine
 62
7
  6
CONTINUOUS
 10
442.5674135846
 20
406.7655871458
 11
455.5931202385
 21
405.4396170073
  0
LINE
  5
28C
100
AcDbEntity
  8
0
100
AcDbLine
 62
7
  6
CONTINUOUS
 10
460.5674135846
 20
404.9332518164
 11
473.5931202385
 21
403.607281678
  0
LINE
  5
28D
100
AcDbEntity
  8
0
100
AcDbLine
 62
7
  6
CONTINUOUS
 10
478.5674135846
 20
403.1009164871
 11
491.5931202385
 21
401.7749463487
  0
LINE
  5
28E
100
AcDbEntity
  8
0
100
AcDbLine
 62
7
  6
CONTINUOUS
 10
411.5585042843
 20
377.2672906321
 11
411.5057988353
 21
377.2810484099
  0
LINE
  5
28F
100
AcDbEntity
  8
0
100
AcDbLine
 62
7
  6
CONTINUOUS
 10
313.0674135846
 20
390.2685811577
 11
313.0674135846
 21
396.2685811577
  0
LINE
  5
290
100
AcDbEntity
  8
0
100
AcDbLine
 62
7
  6
CONTINUOUS
 10
313.1674135846
 20
427.0050096773
 11
313.1674135846
 21
426.7681595909
  0
LINE
  5
291
100
AcDbEntity
  8
0
100
AcDbLine
 62
7
  6
CONTINUOUS
 10
313.1674135846
 20
359.7690027246
 11
313.1674135846
 21
359.5321526382
  0
LINE
  5
292
100
AcDbEntity
  8
0
100
AcDbLine
 62
7
  6
CONTINUOUS
 10
318.1674135846
 20
359.6194279628
 11
318.1674135846
 21
359.8479194538
  0
LINE
  5
293
100
AcDbEntity
  8
0
100
AcDbLine
 62
7
  6
CONTINUOUS
 10
318.1674135846
 20
426.6892428142
 11
318.1674135846
 21
426.9177343527
  0
LINE
  5
294
100
AcDbEntity
  8
0
100
AcDbLine
 62
7
  6
CONTINUOUS
 10
242.3712122378
 20
418.4185811577
 11
252.1000819689
 21
420.7685811577
  0
LINE
  5
295
100
AcDbEntity
  8
0
100
AcDbLine
 62
7
  6
CONTINUOUS
 10
290.1756447234
 20
432.1723449097
 11
78.6591765771
 21
432.1723449097
  0
LINE
  5
296
100
AcDbEntity
  8
0
100
AcDbLine
 62
7
  6
CONTINUOUS
 10
291.180347055
 20
433.2685753787
 11
77.6538772481
 21
433.2685670626
  0
LINE
  5
297
100
AcDbEntity
  8
0
100
AcDbLine
 62
7
  6
CONTINUOUS
 10
303.6893440608
 20
427.1704499963
 11
313.1674135846
 21
427.0050096773
  0
LINE
  5
298
100
AcDbEntity
  8
0
100
AcDbLine
 62
7
  6
CONTINUOUS
 10
318.1674135846
 20
426.9177343527
 11
325.1197708039
 21
426.796380506
  0
LINE
  5
299
100
AcDbEntity
  8
0
100
AcDbLine
 62
7
  6
CONTINUOUS
 10
325.119783196
 20
374.0476131023
 11
325.1197708039
 21
359.7407818095
  0
LINE
  5
29A
100
AcDbEntity
  8
0
100
AcDbLine
 62
7
  6
CONTINUOUS
 10
325.1198050291
 20
412.4895848519
 11
325.1197708039
 21
426.796380506
  0
LINE
  5
29B
100
AcDbEntity
  8
0
100
AcDbLine
 62
7
  6
CONTINUOUS
 10
328.0674135846
 20
362.7403248949
 11
328.0674135846
 21
373.0338199707
  0
LINE
  5
29C
100
AcDbEntity
  8
0
100
AcDbLine
 62
7
  6
CONTINUOUS
 10
328.0674135846
 20
413.5033423448
 11
328.0674135846
 21
423.7968374205
  0
LINE
  5
29D
100
AcDbEntity
  8
0
100
AcDbLine
 62
7
  6
CONTINUOUS
 10
330.1197708039
 20
396.2685811577
 11
330.1197748226
 21
414.0184905217
  0
LINE
  5
29E
100
AcDbEntity
  8
0
100
AcDbLine
 62
7
  6
CONTINUOUS
 10
330.1197713153
 20
372.5186717321
 11
330.1197708039
 21
390.2685811577
  0
LINE
  5
29F
100
AcDbEntity
  8
0
100
AcDbLine
 62
7
  6
CONTINUOUS
 10
332.9941330803
 20
374.6685811577
 11
332.9941342539
 21
390.2685811577
  0
LINE
  5
2A0
100
AcDbEntity
  8
0
100
AcDbLine
 62
7
  6
CONTINUOUS
 10
332.9941342539
 20
396.2685811577
 11
332.9941330805
 21
411.8685811577
  0
LINE
  5
2A1
100
AcDbEntity
  8
0
100
AcDbLine
 62
7
  6
CONTINUOUS
 10
333.0674135846
 20
390.2685811577
 11
333.0674135846
 21
396.2685811577
  0
LINE
  5
2A2
100
AcDbEntity
  8
0
100
AcDbLine
 62
7
  6
CONTINUOUS
 10
340.0674135846
 20
411.7685811577
 11
340.0674135846
 21
374.7685811577
  0
LINE
  5
2A3
100
AcDbEntity
  8
0
100
AcDbLine
 62
7
  6
CONTINUOUS
 10
411.0802669115
 20
376.3601304372
 11
411.0802669115
 21
378.7298070093
  0
LINE
  5
2A4
100
AcDbEntity
  8
0
100
AcDbLine
 62
7
  6
CONTINUOUS
 10
411.5057988353
 20
378.7430831373
 11
411.5057988353
 21
378.2889481198
  0
LINE
  5
2A5
100
AcDbEntity
  8
0
100
AcDbLine
 62
7
  6
CONTINUOUS
 10
411.5057988353
 20
376.7089090883
 11
411.5057988353
 21
376.3718206828
  0
LINE
  5
2A6
100
AcDbEntity
  8
0
100
AcDbLine
 62
7
  6
CONTINUOUS
 10
411.5057988353
 20
377.9551714414
 11
411.5057988353
 21
376.8673459429
  0
LINE
  5
2A7
100
AcDbEntity
  8
0
100
AcDbLine
 62
7
  6
CONTINUOUS
 10
412.5270753689
 20
376.5083529098
 11
412.5270753689
 21
376.3636887483
  0
LINE
  5
2A8
100
AcDbEntity
  8
0
100
AcDbLine
 62
7
  6
CONTINUOUS
 10
412.6971004812
 20
409.7787267222
 11
412.6971004812
 21
378.1394672661
  0
LINE
  5
2A9
100
AcDbEntity
  8
0
100
AcDbLine
 62
7
  6
CONTINUOUS
 10
412.6971004812
 20
377.4302417941
 11
412.6971004812
 21
377.0229514383
  0
LINE
  5
2AA
100
AcDbEntity
  8
0
100
AcDbLine
 62
7
  6
CONTINUOUS
 10
412.7080552747
 20
377.6990014657
 11
412.7080552747
 21
377.4258191204
  0
LINE
  5
2AB
100
AcDbEntity
  8
0
100
AcDbLine
 62
7
  6
CONTINUOUS
 10
412.7080552747
 20
376.6146294125
 11
412.7080552747
 21
376.5083529098
  0
LINE
  5
2AC
100
AcDbEntity
  8
0
100
AcDbLine
 62
7
  6
CONTINUOUS
 10
412.9526073523
 20
376.484151055
 11
412.9526073523
 21
376.3782365883
  0
LINE
  5
2AD
100
AcDbEntity
  8
0
100
AcDbLine
 62
7
  6
CONTINUOUS
 10
413.4359610257
 20
376.9448997383
 11
413.4359610257
 21
377.2029620303
  0
LINE
  5
2AE
100
AcDbEntity
  8
0
100
AcDbLine
 62
7
  6
CONTINUOUS
 10
413.4359610257
 20
377.8616262971
 11
413.4359610257
 21
409.7310643524
  0
LINE
  5
2AF
100
AcDbEntity
  8
0
100
AcDbLine
 62
7
  6
CONTINUOUS
 10
413.476470241
 20
376.4694016423
 11
413.476470241
 21
376.5123389775
  0
LINE
  5
2B0
100
AcDbEntity
  8
0
100
AcDbLine
 62
7
  6
CONTINUOUS
 10
413.476470241
 20
377.1987739453
 11
413.476470241
 21
377.4209238202
  0
LINE
  5
2B1
100
AcDbEntity
  8
0
100
AcDbLine
 62
7
  6
CONTINUOUS
 10
413.6334583349
 20
377.8031937921
 11
413.6334583349
 21
377.3763898243
  0
LINE
  5
2B2
100
AcDbEntity
  8
0
100
AcDbLine
 62
7
  6
CONTINUOUS
 10
413.6334583349
 20
376.9382962217
 11
413.6334583349
 21
376.533535741
  0
LINE
  5
2B3
100
AcDbEntity
  8
0
100
AcDbLine
 62
7
  6
CONTINUOUS
 10
413.9738838263
 20
377.7807423789
 11
413.9738838263
 21
377.3554160891
  0
LINE
  5
2B4
100
AcDbEntity
  8
0
100
AcDbLine
 62
7
  6
CONTINUOUS
 10
413.9738838263
 20
376.9544484472
 11
413.9738838263
 21
376.5501303157
  0
LINE
  5
2B5
100
AcDbEntity
  8
0
100
AcDbLine
 62
7
  6
CONTINUOUS
 10
414.1440968104
 20
377.7990997613
 11
414.1440968104
 21
377.3737205467
  0
LINE
  5
2B6
100
AcDbEntity
  8
0
100
AcDbLine
 62
7
  6
CONTINUOUS
 10
414.1440968104
 20
376.5675521505
 11
414.1440968104
 21
377.1938964327
  0
LINE
  5
2B7
100
AcDbEntity
  8
0
100
AcDbLine
 62
7
  6
CONTINUOUS
 10
414.1440968104
 20
378.202728118
 11
414.1440968104
 21
378.8712195193
  0
LINE
  5
2B8
100
AcDbEntity
  8
0
100
AcDbLine
 62
7
  6
CONTINUOUS
 10
414.3994159289
 20
377.8861169695
 11
414.3994159289
 21
377.4590573267
  0
LINE
  5
2B9
100
AcDbEntity
  8
0
100
AcDbLine
 62
7
  6
CONTINUOUS
 10
414.3994159289
 20
376.8894975909
 11
414.3994159289
 21
376.6120195832
  0
LINE
  5
2BA
100
AcDbEntity
  8
0
100
AcDbLine
 62
7
  6
CONTINUOUS
 10
414.4845223017
 20
378.86553129
 11
414.4845223017
 21
378.4105288588
  0
LINE
  5
2BB
100
AcDbEntity
  8
0
100
AcDbLine
 62
7
  6
CONTINUOUS
 10
414.4845223017
 20
377.2740752897
 11
414.4845223017
 21
377.0158704572
  0
LINE
  5
2BC
100
AcDbEntity
  8
0
100
AcDbLine
 62
7
  6
CONTINUOUS
 10
414.5696286746
 20
377.9977185613
 11
414.5696286746
 21
377.5680668213
  0
LINE
  5
2BD
100
AcDbEntity
  8
0
100
AcDbLine
 62
7
  6
CONTINUOUS
 10
414.5696286746
 20
376.854476909
 11
414.5696286746
 21
376.6601651127
  0
LINE
  5
2BE
100
AcDbEntity
  8
0
100
AcDbLine
 62
7
  6
CONTINUOUS
 10
414.6547350474
 20
376.7286240953
 11
414.6547350474
 21
376.7841386261
  0
LINE
  5
2BF
100
AcDbEntity
  8
0
100
AcDbLine
 62
7
  6
CONTINUOUS
 10
414.6547350474
 20
377.7385685825
 11
414.6547350474
 21
377.8769108801
  0
LINE
  5
2C0
100
AcDbEntity
  8
0
100
AcDbLine
 62
7
  6
CONTINUOUS
 10
414.8249477931
 20
378.7299768609
 11
414.8249477931
 21
378.2800181519
  0
LINE
  5
2C1
100
AcDbEntity
  8
0
100
AcDbLine
 62
7
  6
CONTINUOUS
 10
414.8249477931
 20
377.3841404378
 11
414.8249477931
 21
376.9712972409
  0
LINE
  5
2C2
100
AcDbEntity
  8
0
100
AcDbLine
 62
7
  6
CONTINUOUS
 10
414.9951605387
 20
378.5839274151
 11
414.9951605387
 21
378.1387718942
  0
LINE
  5
2C3
100
AcDbEntity
  8
0
100
AcDbLine
 62
7
  6
CONTINUOUS
 10
414.9951605387
 20
377.3268417716
 11
414.9951605387
 21
376.9158710623
  0
LINE
  5
2C4
100
AcDbEntity
  8
0
100
AcDbLine
 62
7
  6
CONTINUOUS
 10
415.0802669115
 20
378.3260162758
 11
415.0802669115
 21
377.7518942029
  0
LINE
  5
2C5
100
AcDbEntity
  8
0
100
AcDbLine
 62
7
  6
CONTINUOUS
 10
415.0802669115
 20
377.2216977306
 11
415.0802669115
 21
376.813564479
  0
LINE
  5
2C6
100
AcDbEntity
  8
0
100
AcDbLine
 62
7
  6
CONTINUOUS
 10
419.5931202385
 20
409.104287666
 11
419.5931202385
 21
377.4328746495
  0
LINE
  5
2C7
100
AcDbEntity
  8
0
100
AcDbLine
 62
7
  6
CONTINUOUS
 10
424.5802669115
 20
377.6860572449
 11
424.5802669115
 21
408.8511050706
  0
LINE
  5
2C8
100
AcDbEntity
  8
0
100
AcDbLine
 62
7
  6
CONTINUOUS
 10
429.0802669115
 20
378.7043995277
 11
429.0802669115
 21
378.2941202012
  0
LINE
  5
2C9
100
AcDbEntity
  8
0
100
AcDbLine
 62
7
  6
CONTINUOUS
 10
429.0802669115
 20
378.0478065549
 11
429.0802669115
 21
378.2617572126
  0
LINE
  5
2CA
100
AcDbEntity
  8
0
100
AcDbLine
 62
7
  6
CONTINUOUS
 10
429.0802669115
 20
378.8096437846
 11
429.0802669115
 21
379.4202921275
  0
LINE
  5
2CB
100
AcDbEntity
  8
0
100
AcDbLine
 62
7
  6
CONTINUOUS
 10
429.1653732919
 20
378.8053796504
 11
429.1653732919
 21
378.3925492409
  0
LINE
  5
2CC
100
AcDbEntity
  8
0
100
AcDbLine
 62
7
  6
CONTINUOUS
 10
429.4206924327
 20
378.8462696879
 11
429.4206924327
 21
378.5212844299
  0
LINE
  5
2CD
100
AcDbEntity
  8
0
100
AcDbLine
 62
7
  6
CONTINUOUS
 10
429.5057988353
 20
378.321798307
 11
429.5057988353
 21
378.2605949369
  0
LINE
  5
2CE
100
AcDbEntity
  8
0
100
AcDbLine
 62
7
  6
CONTINUOUS
 10
429.5057988353
 20
378.1226435055
 11
429.5057988353
 21
378.0912704241
  0
LINE
  5
2CF
100
AcDbEntity
  8
0
100
AcDbLine
 62
7
  6
CONTINUOUS
 10
429.5909052082
 20
378.3995876023
 11
429.5909052082
 21
378.2157751445
  0
LINE
  5
2D0
100
AcDbEntity
  8
0
100
AcDbLine
 62
7
  6
CONTINUOUS
 10
429.676011581
 20
378.8737391162
 11
429.676011581
 21
378.6155195281
  0
LINE
  5
2D1
100
AcDbEntity
  8
0
100
AcDbLine
 62
7
  6
CONTINUOUS
 10
429.7611179538
 20
378.4942096204
 11
429.7611179538
 21
378.1871780058
  0
LINE
  5
2D2
100
AcDbEntity
  8
0
100
AcDbLine
 62
7
  6
CONTINUOUS
 10
430.1015435047
 20
378.5969558838
 11
430.1015435047
 21
378.1923719882
  0
LINE
  5
2D3
100
AcDbEntity
  8
0
100
AcDbLine
 62
7
  6
CONTINUOUS
 10
430.1015435047
 20
378.9195214978
 11
430.1015435047
 21
378.7081085973
  0
LINE
  5
2D4
100
AcDbEntity
  8
0
100
AcDbLine
 62
7
  6
CONTINUOUS
 10
430.3568626232
 20
378.6231139103
 11
430.3568626232
 21
378.2185211668
  0
LINE
  5
2D5
100
AcDbEntity
  8
0
100
AcDbLine
 62
7
  6
CONTINUOUS
 10
430.3568626232
 20
378.9469909229
 11
430.3568626232
 21
378.7351856842
  0
LINE
  5
2D6
100
AcDbEntity
  8
0
100
AcDbLine
 62
7
  6
CONTINUOUS
 10
430.5270753689
 20
378.2012814452
 11
430.5270753689
 21
378.1550980602
  0
LINE
  5
2D7
100
AcDbEntity
  8
0
100
AcDbLine
 62
7
  6
CONTINUOUS
 10
430.6972882338
 20
378.5922894805
 11
430.6972882338
 21
378.2832481917
  0
LINE
  5
2D8
100
AcDbEntity
  8
0
100
AcDbLine
 62
7
  6
CONTINUOUS
 10
430.7823946066
 20
378.9928110177
 11
430.7823946066
 21
378.7324704882
  0
LINE
  5
2D9
100
AcDbEntity
  8
0
100
AcDbLine
 62
7
  6
CONTINUOUS
 10
430.8675009795
 20
378.5326358935
 11
430.8675009795
 21
378.3471843614
  0
LINE
  5
2DA
100
AcDbEntity
  8
0
100
AcDbLine
 62
7
  6
CONTINUOUS
 10
430.9526073523
 20
378.2977612599
 11
430.9526073523
 21
378.1984480335
  0
LINE
  5
2DB
100
AcDbEntity
  8
0
100
AcDbLine
 62
7
  6
CONTINUOUS
 10
430.9526073523
 20
378.4100624197
 11
430.9526073523
 21
378.4718840171
  0
LINE
  5
2DC
100
AcDbEntity
  8
0
100
AcDbLine
 62
7
  6
CONTINUOUS
 10
431.0377137251
 20
379.0203065316
 11
431.0377137251
 21
378.669764418
  0
LINE
  5
2DD
100
AcDbEntity
  8
0
100
AcDbLine
 62
7
  6
CONTINUOUS
 10
431.122820098
 20
379.0511733476
 11
431.122820098
 21
378.6368833773
  0
LINE
  5
2DE
100
AcDbEntity
  8
0
100
AcDbLine
 62
7
  6
CONTINUOUS
 10
431.2079264708
 20
379.0386368742
 11
431.2079264708
 21
378.6876546514
  0
LINE
  5
2DF
100
AcDbEntity
  8
0
100
AcDbLine
 62
7
  6
CONTINUOUS
 10
431.2930328436
 20
378.5072065117
 11
431.2930328436
 21
378.4452375991
  0
LINE
  5
2E0
100
AcDbEntity
  8
0
100
AcDbLine
 62
7
  6
CONTINUOUS
 10
431.3781392164
 20
378.5858707274
 11
431.3781392164
 21
378.3997552086
  0
LINE
  5
2E1
100
AcDbEntity
  8
0
100
AcDbLine
 62
7
  6
CONTINUOUS
 10
431.4632455893
 20
379.0661323882
 11
431.4632455893
 21
378.7812075458
  0
LINE
  5
2E2
100
AcDbEntity
  8
0
100
AcDbLine
 62
7
  6
CONTINUOUS
 10
431.6334583349
 20
378.6904062127
 11
431.6334583349
 21
378.3793282741
  0
LINE
  5
2E3
100
AcDbEntity
  8
0
100
AcDbLine
 62
7
  6
CONTINUOUS
 10
431.8036710806
 20
379.9291498906
 11
431.8036710806
 21
379.4904612373
  0
LINE
  5
2E4
100
AcDbEntity
  8
0
100
AcDbLine
 62
7
  6
CONTINUOUS
 10
431.8036710806
 20
379.1027990354
 11
431.8036710806
 21
378.8643310447
  0
LINE
  5
2E5
100
AcDbEntity
  8
0
100
AcDbLine
 62
7
  6
CONTINUOUS
 10
431.8887774534
 20
378.7592292547
 11
431.8887774534
 21
378.3849898284
  0
LINE
  5
2E6
100
AcDbEntity
  8
0
100
AcDbLine
 62
7
  6
CONTINUOUS
 10
432.0589901991
 20
379.130321273
 11
432.0589901991
 21
378.8913891189
  0
LINE
  5
2E7
100
AcDbEntity
  8
0
100
AcDbLine
 62
7
  6
CONTINUOUS
 10
432.0589901991
 20
378.7592292547
 11
432.0589901991
 21
378.4024363748
  0
LINE
  5
2E8
100
AcDbEntity
  8
0
100
AcDbLine
 62
7
  6
CONTINUOUS
 10
432.314309556
 20
378.7617874598
 11
432.314309556
 21
378.4492110597
  0
LINE
  5
2E9
100
AcDbEntity
  8
0
100
AcDbLine
 62
7
  6
CONTINUOUS
 10
432.4845223017
 20
380.0050054664
 11
432.4845223017
 21
379.5659219625
  0
LINE
  5
2EA
100
AcDbEntity
  8
0
100
AcDbLine
 62
7
  6
CONTINUOUS
 10
432.4845223017
 20
379.1761916947
 11
432.4845223017
 21
378.8890883802
  0
LINE
  5
2EB
100
AcDbEntity
  8
0
100
AcDbLine
 62
7
  6
CONTINUOUS
 10
432.5696286746
 20
378.7101206005
 11
432.5696286746
 21
378.5224368034
  0
LINE
  5
2EC
100
AcDbEntity
  8
0
100
AcDbLine
 62
7
  6
CONTINUOUS
 10
432.6547350474
 20
378.5859631242
 11
432.6547350474
 21
378.6485285072
  0
LINE
  5
2ED
100
AcDbEntity
  8
0
100
AcDbLine
 62
7
  6
CONTINUOUS
 10
432.7398414202
 20
379.2037139323
 11
432.7398414202
 21
378.8487286725
  0
LINE
  5
2EE
100
AcDbEntity
  8
0
100
AcDbLine
 62
7
  6
CONTINUOUS
 10
432.9951605387
 20
379.1862842008
 11
432.9951605387
 21
378.7734193212
  0
LINE
  5
2EF
100
AcDbEntity
  8
0
100
AcDbLine
 62
7
  6
CONTINUOUS
 10
433.0802669115
 20
379.8584637054
 11
433.0802669115
 21
379.2404102491
  0
LINE
  5
2F0
100
AcDbEntity
  8
0
100
AcDbLine
 62
7
  6
CONTINUOUS
 10
433.0802669115
 20
379.1029684769
 11
433.0802669115
 21
378.6299480969
  0
LINE
  5
2F1
100
AcDbEntity
  8
0
100
AcDbLine
 62
7
  6
CONTINUOUS
 10
437.5931202385
 20
407.2719523367
 11
437.5931202385
 21
379.2652099788
  0
LINE
  5
2F2
100
AcDbEntity
  8
0
100
AcDbLine
 62
7
  6
CONTINUOUS
 10
442.5802669115
 20
379.5183925742
 11
442.5802669115
 21
407.0187697412
  0
LINE
  5
2F3
100
AcDbEntity
  8
0
100
AcDbLine
 62
7
  6
CONTINUOUS
 10
447.0802669115
 20
379.9433223416
 11
447.0802669115
 21
380.5808164497
  0
LINE
  5
2F4
100
AcDbEntity
  8
0
100
AcDbLine
 62
7
  6
CONTINUOUS
 10
447.0802669115
 20
380.7605272336
 11
447.0802669115
 21
381.4094456159
  0
LINE
  5
2F5
100
AcDbEntity
  8
0
100
AcDbLine
 62
7
  6
CONTINUOUS
 10
447.1653732919
 20
380.6955968845
 11
447.1653732919
 21
380.2794080678
  0
LINE
  5
2F6
100
AcDbEntity
  8
0
100
AcDbLine
 62
7
  6
CONTINUOUS
 10
447.4206924327
 20
380.7978000637
 11
447.4206924327
 21
380.4233369159
  0
LINE
  5
2F7
100
AcDbEntity
  8
0
100
AcDbLine
 62
7
  6
CONTINUOUS
 10
447.5057988353
 20
380.2124504002
 11
447.5057988353
 21
380.1075572568
  0
LINE
  5
2F8
100
AcDbEntity
  8
0
100
AcDbLine
 62
7
  6
CONTINUOUS
 10
447.5909052081
 20
380.3024948553
 11
447.5909052081
 21
380.0573714922
  0
LINE
  5
2F9
100
AcDbEntity
  8
0
100
AcDbLine
 62
7
  6
CONTINUOUS
 10
447.7611179538
 20
380.8350728939
 11
447.7611179538
 21
380.5369961526
  0
LINE
  5
2FA
100
AcDbEntity
  8
0
100
AcDbLine
 62
7
  6
CONTINUOUS
 10
447.7611179538
 20
380.3873316445
 11
447.7611179538
 21
380.0363003366
  0
LINE
  5
2FB
100
AcDbEntity
  8
0
100
AcDbLine
 62
7
  6
CONTINUOUS
 10
448.0164371319
 20
380.4451254325
 11
448.0164371319
 21
380.0394453435
  0
LINE
  5
2FC
100
AcDbEntity
  8
0
100
AcDbLine
 62
7
  6
CONTINUOUS
 10
448.1015435047
 20
380.8723457273
 11
448.1015435047
 21
380.4709683915
  0
LINE
  5
2FD
100
AcDbEntity
  8
0
100
AcDbLine
 62
7
  6
CONTINUOUS
 10
448.2717562504
 20
380.4602378324
 11
448.2717562504
 21
380.0548846089
  0
LINE
  5
2FE
100
AcDbEntity
  8
0
100
AcDbLine
 62
7
  6
CONTINUOUS
 10
448.4419689961
 20
380.4777111532
 11
448.4419689961
 21
380.0723491218
  0
LINE
  5
2FF
100
AcDbEntity
  8
0
100
AcDbLine
 62
7
  6
CONTINUOUS
 10
448.5270753689
 20
380.0350848663
 11
448.5270753689
 21
379.9889860326
  0
LINE
  5
300
100
AcDbEntity
  8
0
100
AcDbLine
 62
7
  6
CONTINUOUS
 10
448.6972882338
 20
380.5150795461
 11
448.6972882338
 21
380.1093605154
  0
LINE
  5
301
100
AcDbEntity
  8
0
100
AcDbLine
 62
7
  6
CONTINUOUS
 10
448.8675009794
 20
380.5279607165
 11
448.8675009794
 21
380.9562792841
  0
LINE
  5
302
100
AcDbEntity
  8
0
100
AcDbLine
 62
7
  6
CONTINUOUS
 10
448.9526073523
 20
380.5279607165
 11
448.9526073523
 21
380.1588672222
  0
LINE
  5
303
100
AcDbEntity
  8
0
100
AcDbLine
 62
7
  6
CONTINUOUS
 10
448.9526073523
 20
380.0954544985
 11
448.9526073523
 21
380.0323455687
  0
LINE
  5
304
100
AcDbEntity
  8
0
100
AcDbLine
 62
7
  6
CONTINUOUS
 10
449.122820098
 20
380.4635717994
 11
449.122820098
 21
380.2154232451
  0
LINE
  5
305
100
AcDbEntity
  8
0
100
AcDbLine
 62
7
  6
CONTINUOUS
 10
449.2079264708
 20
380.2839677924
 11
449.2079264708
 21
380.3902977129
  0
LINE
  5
306
100
AcDbEntity
  8
0
100
AcDbLine
 62
7
  6
CONTINUOUS
 10
449.5483519621
 20
380.6495318921
 11
449.5483519621
 21
380.5303981873
  0
LINE
  5
307
100
AcDbEntity
  8
0
100
AcDbLine
 62
7
  6
CONTINUOUS
 10
449.6334583349
 20
380.6585863898
 11
449.6334583349
 21
380.3280836797
  0
LINE
  5
308
100
AcDbEntity
  8
0
100
AcDbLine
 62
7
  6
CONTINUOUS
 10
449.8036710806
 20
381.962813602
 11
449.8036710806
 21
381.5108986348
  0
LINE
  5
309
100
AcDbEntity
  8
0
100
AcDbLine
 62
7
  6
CONTINUOUS
 10
449.8036710806
 20
380.5082001843
 11
449.8036710806
 21
380.1656219167
  0
LINE
  5
30A
100
AcDbEntity
  8
0
100
AcDbLine
 62
7
  6
CONTINUOUS
 10
450.4845223017
 20
382.0410976743
 11
450.4845223017
 21
381.5885396104
  0
LINE
  5
30B
100
AcDbEntity
  8
0
100
AcDbLine
 62
7
  6
CONTINUOUS
 10
450.4845223017
 20
380.5775083924
 11
450.4845223017
 21
380.2352464689
  0
LINE
  5
30C
100
AcDbEntity
  8
0
100
AcDbLine
 62
7
  6
CONTINUOUS
 10
450.6547350474
 20
380.2697374219
 11
450.6547350474
 21
380.76728368
  0
LINE
  5
30D
100
AcDbEntity
  8
0
100
AcDbLine
 62
7
  6
CONTINUOUS
 10
451.0802669115
 20
381.8586101654
 11
451.0802669115
 21
380.3133123905
  0
LINE
  5
30E
100
AcDbEntity
  8
0
100
AcDbLine
 62
7
  6
CONTINUOUS
 10
455.5931202385
 20
405.4396170073
 11
455.5931202385
 21
381.0975453081
  0
LINE
  5
30F
100
AcDbEntity
  8
0
100
AcDbLine
 62
7
  6
CONTINUOUS
 10
460.5802669115
 20
381.3507279036
 11
460.5802669115
 21
405.1864344119
  0
LINE
  5
310
100
AcDbEntity
  8
0
100
AcDbLine
 62
7
  6
CONTINUOUS
 10
465.0802669115
 20
381.6759027081
 11
465.0802669115
 21
383.0435472602
  0
LINE
  5
311
100
AcDbEntity
  8
0
100
AcDbLine
 62
7
  6
CONTINUOUS
 10
466.5270753689
 20
381.8233713738
 11
466.5270753689
 21
382.0662294847
  0
LINE
  5
312
100
AcDbEntity
  8
0
100
AcDbLine
 62
7
  6
CONTINUOUS
 10
466.9526073523
 20
382.1105539127
 11
466.9526073523
 21
381.8667454409
  0
LINE
  5
313
100
AcDbEntity
  8
0
100
AcDbLine
 62
7
  6
CONTINUOUS
 10
467.8036710806
 20
383.5948072196
 11
467.8036710806
 21
383.1428131984
  0
LINE
  5
314
100
AcDbEntity
  8
0
100
AcDbLine
 62
7
  6
CONTINUOUS
 10
467.8036710806
 20
382.6998980104
 11
467.8036710806
 21
382.465903541
  0
LINE
  5
315
100
AcDbEntity
  8
0
100
AcDbLine
 62
7
  6
CONTINUOUS
 10
467.8036710806
 20
382.199205966
 11
467.8036710806
 21
381.9387748148
  0
LINE
  5
316
100
AcDbEntity
  8
0
100
AcDbLine
 62
7
  6
CONTINUOUS
 10
468.4845223017
 20
383.6731708325
 11
468.4845223017
 21
383.2204250701
  0
LINE
  5
317
100
AcDbEntity
  8
0
100
AcDbLine
 62
7
  6
CONTINUOUS
 10
468.4845223017
 20
382.774244096
 11
468.4845223017
 21
382.5386180783
  0
LINE
  5
318
100
AcDbEntity
  8
0
100
AcDbLine
 62
7
  6
CONTINUOUS
 10
468.4845223017
 20
382.2701636437
 11
468.4845223017
 21
382.0080849092
  0
LINE
  5
319
100
AcDbEntity
  8
0
100
AcDbLine
 62
7
  6
CONTINUOUS
 10
469.0802669115
 20
383.4914720923
 11
469.0802669115
 21
382.0836222767
  0
LINE
  5
31A
100
AcDbEntity
  8
0
100
AcDbLine
 62
7
  6
CONTINUOUS
 10
473.5931202385
 20
403.607281678
 11
473.5931202385
 21
382.9298806375
  0
LINE
  5
31B
100
AcDbEntity
  8
0
100
AcDbLine
 62
7
  6
CONTINUOUS
 10
478.5802669115
 20
383.2383127554
 11
478.5802669115
 21
403.2988495601
  0
LINE
  5
31C
100
AcDbEntity
  8
0
100
AcDbLine
 62
7
  6
CONTINUOUS
 10
483.0802669115
 20
383.8956380832
 11
483.0802669115
 21
383.5366467353
  0
LINE
  5
31D
100
AcDbEntity
  8
0
100
AcDbLine
 62
7
  6
CONTINUOUS
 10
483.0802669115
 20
384.0794727723
 11
483.0802669115
 21
384.7153585946
  0
LINE
  5
31E
100
AcDbEntity
  8
0
100
AcDbLine
 62
7
  6
CONTINUOUS
 10
483.1653732919
 20
384.9242878992
 11
483.1653732919
 21
384.4754573351
  0
LINE
  5
31F
100
AcDbEntity
  8
0
100
AcDbLine
 62
7
  6
CONTINUOUS
 10
483.4206924327
 20
385.1799557052
 11
483.4206924327
 21
384.7189169318
  0
LINE
  5
320
100
AcDbEntity
  8
0
100
AcDbLine
 62
7
  6
CONTINUOUS
 10
483.5057988353
 20
384.288417449
 11
483.5057988353
 21
384.1563789727
  0
LINE
  5
321
100
AcDbEntity
  8
0
100
AcDbLine
 62
7
  6
CONTINUOUS
 10
483.5909052082
 20
384.4445411368
 11
483.5909052082
 21
384.0473909268
  0
LINE
  5
322
100
AcDbEntity
  8
0
100
AcDbLine
 62
7
  6
CONTINUOUS
 10
483.676011581
 20
385.3600231978
 11
483.676011581
 21
384.8903184643
  0
LINE
  5
323
100
AcDbEntity
  8
0
100
AcDbLine
 62
7
  6
CONTINUOUS
 10
483.7611179538
 20
384.3806612237
 11
483.7611179538
 21
383.9606194651
  0
LINE
  5
324
100
AcDbEntity
  8
0
100
AcDbLine
 62
7
  6
CONTINUOUS
 10
484.1015435047
 20
385.5178569704
 11
484.1015435047
 21
385.0412554078
  0
LINE
  5
325
100
AcDbEntity
  8
0
100
AcDbLine
 62
7
  6
CONTINUOUS
 10
484.1015435047
 20
384.3431117791
 11
484.1015435047
 21
383.9262491578
  0
LINE
  5
326
100
AcDbEntity
  8
0
100
AcDbLine
 62
7
  6
CONTINUOUS
 10
484.3568626232
 20
385.548957542
 11
484.3568626232
 21
385.0718225039
  0
LINE
  5
327
100
AcDbEntity
  8
0
100
AcDbLine
 62
7
  6
CONTINUOUS
 10
484.3568626232
 20
384.3701056158
 11
484.3568626232
 21
383.9531568179
  0
LINE
  5
328
100
AcDbEntity
  8
0
100
AcDbLine
 62
7
  6
CONTINUOUS
 10
484.5270753689
 20
383.6440972056
 11
484.5270753689
 21
383.8840132664
  0
LINE
  5
329
100
AcDbEntity
  8
0
100
AcDbLine
 62
7
  6
CONTINUOUS
 10
484.6972882338
 20
384.4804668737
 11
484.6972882338
 21
384.0600335104
  0
LINE
  5
32A
100
AcDbEntity
  8
0
100
AcDbLine
 62
7
  6
CONTINUOUS
 10
484.7823946066
 20
385.4929549355
 11
484.7823946066
 21
385.0211698295
  0
LINE
  5
32B
100
AcDbEntity
  8
0
100
AcDbLine
 62
7
  6
CONTINUOUS
 10
484.8675009795
 20
384.6101920318
 11
484.8675009795
 21
384.1845200566
  0
LINE
  5
32C
100
AcDbEntity
  8
0
100
AcDbLine
 62
7
  6
CONTINUOUS
 10
484.9526073523
 20
384.0085052982
 11
484.9526073523
 21
383.68742951
  0
LINE
  5
32D
100
AcDbEntity
  8
0
100
AcDbLine
 62
7
  6
CONTINUOUS
 10
484.9526073523
 20
384.3138419416
 11
484.9526073523
 21
384.4482372867
  0
LINE
  5
32E
100
AcDbEntity
  8
0
100
AcDbLine
 62
7
  6
CONTINUOUS
 10
485.0377137251
 20
385.3219154461
 11
485.0377137251
 21
384.8609639868
  0
LINE
  5
32F
100
AcDbEntity
  8
0
100
AcDbLine
 62
7
  6
CONTINUOUS
 10
485.122820098
 20
385.2379760493
 11
485.122820098
 21
384.7819927777
  0
LINE
  5
330
100
AcDbEntity
  8
0
100
AcDbLine
 62
7
  6
CONTINUOUS
 10
485.2079264708
 20
385.3419241992
 11
485.2079264708
 21
384.880703725
  0
LINE
  5
331
100
AcDbEntity
  8
0
100
AcDbLine
 62
7
  6
CONTINUOUS
 10
485.2930328436
 20
384.4859056729
 11
485.2930328436
 21
384.3509426196
  0
LINE
  5
332
100
AcDbEntity
  8
0
100
AcDbLine
 62
7
  6
CONTINUOUS
 10
485.3781392164
 20
384.6653906987
 11
485.3781392164
 21
384.2394311373
  0
LINE
  5
333
100
AcDbEntity
  8
0
100
AcDbLine
 62
7
  6
CONTINUOUS
 10
485.4632455893
 20
385.5224568654
 11
485.4632455893
 21
385.0523692002
  0
LINE
  5
334
100
AcDbEntity
  8
0
100
AcDbLine
 62
7
  6
CONTINUOUS
 10
485.6334583349
 20
384.5803737116
 11
485.6334583349
 21
384.1595355033
  0
LINE
  5
335
100
AcDbEntity
  8
0
100
AcDbLine
 62
7
  6
CONTINUOUS
 10
485.8036710806
 20
385.6704271342
 11
485.8036710806
 21
385.1934480071
  0
LINE
  5
336
100
AcDbEntity
  8
0
100
AcDbLine
 62
7
  6
CONTINUOUS
 10
485.8036710806
 20
384.0212392598
 11
485.8036710806
 21
383.7799476425
  0
LINE
  5
337
100
AcDbEntity
  8
0
100
AcDbLine
 62
7
  6
CONTINUOUS
 10
485.8887774534
 20
384.5564742103
 11
485.8887774534
 21
384.1378817506
  0
LINE
  5
338
100
AcDbEntity
  8
0
100
AcDbLine
 62
7
  6
CONTINUOUS
 10
486.0589901991
 20
385.7015596365
 11
486.0589901991
 21
385.2240335863
  0
LINE
  5
339
100
AcDbEntity
  8
0
100
AcDbLine
 62
7
  6
CONTINUOUS
 10
486.0589901991
 20
384.5745484723
 11
486.0589901991
 21
384.1558902674
  0
LINE
  5
33A
100
AcDbEntity
  8
0
100
AcDbLine
 62
7
  6
CONTINUOUS
 10
486.314309556
 20
384.6530988338
 11
486.314309556
 21
384.2319575254
  0
LINE
  5
33B
100
AcDbEntity
  8
0
100
AcDbLine
 62
7
  6
CONTINUOUS
 10
486.4845223017
 20
385.645273323
 11
486.4845223017
 21
385.173217048
  0
LINE
  5
33C
100
AcDbEntity
  8
0
100
AcDbLine
 62
7
  6
CONTINUOUS
 10
486.4845223017
 20
384.133397113
 11
486.4845223017
 21
383.8493231329
  0
LINE
  5
33D
100
AcDbEntity
  8
0
100
AcDbLine
 62
7
  6
CONTINUOUS
 10
486.5696286746
 20
384.7943458684
 11
486.5696286746
 21
384.367693852
  0
LINE
  5
33E
100
AcDbEntity
  8
0
100
AcDbLine
 62
7
  6
CONTINUOUS
 10
486.6547350474
 20
384.4995455532
 11
486.6547350474
 21
384.636831798
  0
LINE
  5
33F
100
AcDbEntity
  8
0
100
AcDbLine
 62
7
  6
CONTINUOUS
 10
486.7398414202
 20
385.5225846469
 11
486.7398414202
 21
385.0588515785
  0
LINE
  5
340
100
AcDbEntity
  8
0
100
AcDbLine
 62
7
  6
CONTINUOUS
 10
486.9951605387
 20
385.3200517683
 11
486.9951605387
 21
384.8687348875
  0
LINE
  5
341
100
AcDbEntity
  8
0
100
AcDbLine
 62
7
  6
CONTINUOUS
 10
487.0802669115
 20
385.1247303682
 11
487.0802669115
 21
384.5460513997
  0
LINE
  5
342
100
AcDbEntity
  8
0
100
AcDbLine
 62
7
  6
CONTINUOUS
 10
487.0802669115
 20
384.302823712
 11
487.0802669115
 21
383.9457135537
  0
LINE
  5
343
100
AcDbEntity
  8
0
100
AcDbLine
 62
7
  6
CONTINUOUS
 10
491.5931202385
 20
401.7749463487
 11
491.5931202385
 21
384.7622159668
  0
LINE
  5
344
100
AcDbEntity
  8
0
100
AcDbLine
 62
7
  6
CONTINUOUS
 10
496.5802669115
 20
385.0606103601
 11
496.5802669115
 21
401.4765519554
  0
ARC
  5
345
100
AcDbEntity
  8
0
100
AcDbCircle
 62
7
  6
CONTINUOUS
 10
-1058.1249585825
 20
393.2624659344
 40
1366.8215597604
100
AcDbArc
 50
359.8723450591
 51
0.000256344
  0
ARC
  5
346
100
AcDbEntity
  8
0
100
AcDbCircle
 62
7
  6
CONTINUOUS
 10
-1058.7099257933
 20
393.2750438613
 40
1367.4065269727
100
AcDbArc
 50
359.9997292059
 51
0.127585765
  0
ARC
  5
347
100
AcDbEntity
  8
0
100
AcDbCircle
 62
7
  6
CONTINUOUS
 10
-190.9035734988
 20
319.7661494995
 40
508.0920985465
100
AcDbArc
 50
11.2044290697
 51
11.3817511226
  0
ARC
  5
348
100
AcDbEntity
  8
0
100
AcDbCircle
 62
7
  6
CONTINUOUS
 10
77.6544231578
 20
369.7631632791
 40
16.494576354
100
AcDbArc
 50
191.9450264967
 51
269.9978482019
  0
CIRCLE
  5
349
100
AcDbEntity
  8
0
100
AcDbCircle
 62
7
  6
CONTINUOUS
 10
135.6674145715
 20
393.2685811577
 40
14.25
  0
CIRCLE
  5
34A
100
AcDbEntity
  8
0
100
AcDbCircle
 62
7
  6
CONTINUOUS
 10
135.6674145715
 20
393.2685811577
 40
14.1798523207
  0
CIRCLE
  5
34B
100
AcDbEntity
  8
0
100
AcDbCircle
 62
7
  6
CONTINUOUS
 10
135.6674145715
 20
393.2685811577
 40
12.85
  0
CIRCLE
  5
34C
100
AcDbEntity
  8
0
100
AcDbCircle
 62
7
  6
CONTINUOUS
 10
135.6674145715
 20
393.2685811577
 40
12.35
  0
CIRCLE
  5
34D
100
AcDbEntity
  8
0
100
AcDbCircle
 62
7
  6
CONTINUOUS
 10
135.6674145715
 20
393.2685811577
 40
11.8958413267
  0
CIRCLE
  5
34E
100
AcDbEntity
  8
0
100
AcDbCircle
 62
7
  6
CONTINUOUS
 10
135.6674145715
 20
393.2685811577
 40
9.1999522262
  0
ARC
  5
34F
100
AcDbEntity
  8
0
100
AcDbCircle
 62
7
  6
CONTINUOUS
 10
291.1804554606
 20
369.7628644915
 40
16.4943123068
100
AcDbArc
 50
269.9993700323
 51
325.6757750496
  0
ARC
  5
350
100
AcDbEntity
  8
0
100
AcDbCircle
 62
7
  6
CONTINUOUS
 10
325.0674135846
 20
362.7403248949
 40
3.0
100
AcDbArc
 50
271.0
 51
360.0
  0
ARC
  5
351
100
AcDbEntity
  8
0
100
AcDbCircle
 62
7
  6
CONTINUOUS
 10
163.7291660862
 20
393.2685784455
 40
144.681219122
100
AcDbArc
 50
358.8113722578
 51
1.1886292223
  0
ARC
  5
352
100
AcDbEntity
  8
0
100
AcDbCircle
 62
7
  6
CONTINUOUS
 10
188.6674145715
 20
393.2685811577
 40
129.9687558608
100
AcDbArc
 50
168.0463777951
 51
168.819951379
  0
ARC
  5
353
100
AcDbEntity
  8
0
100
AcDbCircle
 62
7
  6
CONTINUOUS
 10
188.6674145715
 20
393.2685811577
 40
129.9687558608
100
AcDbArc
 50
191.180048621
 51
191.9537306098
  0
ARC
  5
354
100
AcDbEntity
  8
0
100
AcDbCircle
 62
7
  6
CONTINUOUS
 10
188.6674135846
 20
393.2685765074
 40
129.9038105637
100
AcDbArc
 50
169.083836727
 51
191.1798458566
  0
ARC
  5
355
100
AcDbEntity
  8
0
100
AcDbCircle
 62
7
  6
CONTINUOUS
 10
180.1674145715
 20
393.2685811577
 40
129.8114016564
100
AcDbArc
 50
8.6509960185
 51
11.2050404457
  0
ARC
  5
356
100
AcDbEntity
  8
0
100
AcDbCircle
 62
7
  6
CONTINUOUS
 10
180.1674145715
 20
393.2685811577
 40
129.8114016564
100
AcDbArc
 50
348.7949595543
 51
351.3490039815
  0
CIRCLE
  5
357
100
AcDbEntity
  8
0
100
AcDbCircle
 62
7
  6
CONTINUOUS
 10
225.6674145715
 20
393.2685811577
 40
14.25
  0
CIRCLE
  5
358
100
AcDbEntity
  8
0
100
AcDbCircle
 62
7
  6
CONTINUOUS
 10
195.6674145715
 20
393.2685811577
 40
14.25
  0
CIRCLE
  5
359
100
AcDbEntity
  8
0
100
AcDbCircle
 62
7
  6
CONTINUOUS
 10
165.6674145715
 20
393.2685811577
 40
14.25
  0
CIRCLE
  5
35A
100
AcDbEntity
  8
0
100
AcDbCircle
 62
7
  6
CONTINUOUS
 10
225.6674145715
 20
393.2685811577
 40
14.1798523207
  0
CIRCLE
  5
35B
100
AcDbEntity
  8
0
100
AcDbCircle
 62
7
  6
CONTINUOUS
 10
195.6674145715
 20
393.2685811577
 40
14.1798523207
  0
CIRCLE
  5
35C
100
AcDbEntity
  8
0
100
AcDbCircle
 62
7
  6
CONTINUOUS
 10
165.6674145715
 20
393.2685811577
 40
14.1798523207
  0
CIRCLE
  5
35D
100
AcDbEntity
  8
0
100
AcDbCircle
 62
7
  6
CONTINUOUS
 10
225.6674145715
 20
393.2685811577
 40
12.85
  0
CIRCLE
  5
35E
100
AcDbEntity
  8
0
100
AcDbCircle
 62
7
  6
CONTINUOUS
 10
195.6674145715
 20
393.2685811577
 40
12.85
  0
CIRCLE
  5
35F
100
AcDbEntity
  8
0
100
AcDbCircle
 62
7
  6
CONTINUOUS
 10
165.6674145715
 20
393.2685811577
 40
12.85
  0
CIRCLE
  5
360
100
AcDbEntity
  8
0
100
AcDbCircle
 62
7
  6
CONTINUOUS
 10
225.6674145715
 20
393.2685811577
 40
12.35
  0
CIRCLE
  5
361
100
AcDbEntity
  8
0
100
AcDbCircle
 62
7
  6
CONTINUOUS
 10
195.6674145715
 20
393.2685811577
 40
12.35
  0
CIRCLE
  5
362
100
AcDbEntity
  8
0
100
AcDbCircle
 62
7
  6
CONTINUOUS
 10
165.6674145715
 20
393.2685811577
 40
12.35
  0
CIRCLE
  5
363
100
AcDbEntity
  8
0
100
AcDbCircle
 62
7
  6
CONTINUOUS
 10
165.6674145715
 20
393.2685811577
 40
11.8958399583
  0
CIRCLE
  5
364
100
AcDbEntity
  8
0
100
AcDbCircle
 62
7
  6
CONTINUOUS
 10
225.6674145715
 20
393.2685811577
 40
11.8958399479
  0
CIRCLE
  5
365
100
AcDbEntity
  8
0
100
AcDbCircle
 62
7
  6
CONTINUOUS
 10
195.6674145715
 20
393.2685811577
 40
11.8958399479
  0
CIRCLE
  5
366
100
AcDbEntity
  8
0
100
AcDbCircle
 62
7
  6
CONTINUOUS
 10
225.6674145715
 20
393.2685811577
 40
9.1999472634
  0
CIRCLE
  5
367
100
AcDbEntity
  8
0
100
AcDbCircle
 62
7
  6
CONTINUOUS
 10
195.6674145715
 20
393.2685811577
 40
9.1999472634
  0
CIRCLE
  5
368
100
AcDbEntity
  8
0
100
AcDbCircle
 62
7
  6
CONTINUOUS
 10
165.6674145715
 20
393.2685811577
 40
9.1999472634
  0
ARC
  5
369
100
AcDbEntity
  8
0
100
AcDbCircle
 62
7
  6
CONTINUOUS
 10
301.4327709366
 20
393.2685792357
 40
7.5373764035
100
AcDbArc
 50
359.8161167303
 51
0.184121692
  0
ARC
  5
36A
100
AcDbEntity
  8
0
100
AcDbCircle
 62
7
  6
CONTINUOUS
 10
330.0674135825
 20
375.3276001073
 40
3.0000000016
100
AcDbArc
 50
319.2313493987
 51
347.309807177
  0
ARC
  5
36B
100
AcDbEntity
  8
0
100
AcDbCircle
 62
7
  6
CONTINUOUS
 10
422.0802669115
 20
377.6860572449
 40
2.5
100
AcDbArc
 50
185.8124823832
 51
360.0
  0
ARC
  5
36C
100
AcDbEntity
  8
0
100
AcDbCircle
 62
7
  6
CONTINUOUS
 10
415.0377431268
 20
390.7221250594
 40
13.897696424
100
AcDbArc
 50
260.0451129913
 51
260.3040636792
  0
ARC
  5
36D
100
AcDbEntity
  8
0
100
AcDbCircle
 62
7
  6
CONTINUOUS
 10
415.030376413
 20
390.6704235576
 40
13.8454999294
100
AcDbArc
 50
255.4776191069
 51
260.0381525931
  0
ARC
  5
36E
100
AcDbEntity
  8
0
100
AcDbCircle
 62
7
  6
CONTINUOUS
 10
412.4232277776
 20
386.7586258604
 40
10.3938791687
100
AcDbArc
 50
271.5702956791
 51
272.919443617
  0
ARC
  5
36F
100
AcDbEntity
  8
0
100
AcDbCircle
 62
7
  6
CONTINUOUS
 10
413.0982560762
 20
384.6249788247
 40
8.1643422964
100
AcDbArc
 50
271.9645508122
 51
272.6551843157
  0
ARC
  5
370
100
AcDbEntity
  8
0
100
AcDbCircle
 62
7
  6
CONTINUOUS
 10
414.2645605528
 20
385.0429449298
 40
7.8836606201
100
AcDbArc
 50
263.5441376514
 51
264.2628436746
  0
ARC
  5
371
100
AcDbEntity
  8
0
100
AcDbCircle
 62
7
  6
CONTINUOUS
 10
415.3605166523
 20
383.7963761307
 40
6.6493254669
100
AcDbArc
 50
246.490142767
 51
247.3863723293
  0
ARC
  5
372
100
AcDbEntity
  8
0
100
AcDbCircle
 62
7
  6
CONTINUOUS
 10
415.3183991142
 20
383.6947782827
 40
6.5393437666
100
AcDbArc
 50
247.3847391903
 51
248.8923350946
  0
ARC
  5
373
100
AcDbEntity
  8
0
100
AcDbCircle
 62
7
  6
CONTINUOUS
 10
415.2317512824
 20
383.4643782247
 40
6.2931989221
100
AcDbArc
 50
248.8728715938
 51
253.8044131553
  0
ARC
  5
374
100
AcDbEntity
  8
0
100
AcDbCircle
 62
7
  6
CONTINUOUS
 10
414.9595579462
 20
383.2479701164
 40
6.2423318159
100
AcDbArc
 50
248.8578555903
 51
255.3248845609
  0
ARC
  5
375
100
AcDbEntity
  8
0
100
AcDbCircle
 62
7
  6
CONTINUOUS
 10
415.2520773576
 20
383.8125555729
 40
6.2218837804
100
AcDbArc
 50
245.7547276074
 51
253.0287557216
  0
ARC
  5
376
100
AcDbEntity
  8
0
100
AcDbCircle
 62
7
  6
CONTINUOUS
 10
413.6914175878
 20
382.5647813004
 40
6.0308630335
100
AcDbArc
 50
260.6157365057
 51
263.0741302578
  0
ARC
  5
377
100
AcDbEntity
  8
0
100
AcDbCircle
 62
7
  6
CONTINUOUS
 10
413.6812175984
 20
382.4786278118
 40
5.9441082465
100
AcDbArc
 50
263.0715926303
 51
268.0260318261
  0
ARC
  5
378
100
AcDbEntity
  8
0
100
AcDbCircle
 62
7
  6
CONTINUOUS
 10
413.4191556097
 20
382.3583921162
 40
5.8930995583
100
AcDbArc
 50
263.0694240229
 51
269.601214068
  0
ARC
  5
379
100
AcDbEntity
  8
0
100
AcDbCircle
 62
7
  6
CONTINUOUS
 10
413.6813926384
 20
382.7821974897
 40
5.8427515891
100
AcDbArc
 50
260.3014866357
 51
262.7435280862
  0
ARC
  5
37A
100
AcDbEntity
  8
0
100
AcDbCircle
 62
7
  6
CONTINUOUS
 10
413.6705109007
 20
382.6944469258
 40
5.7543293706
100
AcDbArc
 50
262.7406477198
 51
267.6639429062
  0
ARC
  5
37B
100
AcDbEntity
  8
0
100
AcDbCircle
 62
7
  6
CONTINUOUS
 10
494.0802669115
 20
385.0153985623
 40
2.5
100
AcDbArc
 50
185.8124823833
 51
360.0
  0
ARC
  5
37C
100
AcDbEntity
  8
0
100
AcDbCircle
 62
7
  6
CONTINUOUS
 10
476.0802669115
 20
383.1830632329
 40
2.5
100
AcDbArc
 50
185.8124823835
 51
360.0
  0
ARC
  5
37D
100
AcDbEntity
  8
0
100
AcDbCircle
 62
7
  6
CONTINUOUS
 10
458.0802669115
 20
381.3507279036
 40
2.5
100
AcDbArc
 50
185.8124823835
 51
360.0
  0
ARC
  5
37E
100
AcDbEntity
  8
0
100
AcDbCircle
 62
7
  6
CONTINUOUS
 10
440.0802669115
 20
379.5183925742
 40
2.5
100
AcDbArc
 50
185.8124823832
 51
360.0
  0
ARC
  5
37F
100
AcDbEntity
  8
0
100
AcDbCircle
 62
7
  6
CONTINUOUS
 10
-190.9053882498
 20
466.7762860147
 40
508.0949033676
100
AcDbArc
 50
348.6177753067
 51
348.795027391
  0
ARC
  5
380
100
AcDbEntity
  8
0
100
AcDbCircle
 62
7
  6
CONTINUOUS
 10
165.9843949666
 20
398.2689277944
 40
78.9990176808
100
AcDbArc
 50
345.2223831125
 51
14.7771307114
  0
ARC
  5
381
100
AcDbEntity
  8
0
100
AcDbCircle
 62
7
  6
CONTINUOUS
 10
195.6671655542
 20
398.2688501929
 40
78.9989844613
100
AcDbArc
 50
165.2228001422
 51
194.7775685574
  0
ARC
  5
382
100
AcDbEntity
  8
0
100
AcDbCircle
 62
7
  6
CONTINUOUS
 10
77.6545046284
 20
416.7738887438
 40
16.4946783307
100
AcDbArc
 50
90.0021792631
 51
168.0555114304
  0
ARC
  5
383
100
AcDbEntity
  8
0
100
AcDbCircle
 62
7
  6
CONTINUOUS
 10
291.1805209456
 20
416.7743794354
 40
16.4942388545
100
AcDbArc
 50
34.3240555185
 51
90.0006040427
  0
ARC
  5
384
100
AcDbEntity
  8
0
100
AcDbCircle
 62
7
  6
CONTINUOUS
 10
330.0674135825
 20
411.2095622082
 40
3.0000000016
100
AcDbArc
 50
12.690175553
 51
40.7686506013
  0
ARC
  5
385
100
AcDbEntity
  8
0
100
AcDbCircle
 62
7
  6
CONTINUOUS
 10
325.0674135846
 20
423.7968374205
 40
3.0
100
AcDbArc
 50
0.0
 51
89.0
  0
ARC
  5
386
100
AcDbEntity
  8
0
100
AcDbCircle
 62
7
  6
CONTINUOUS
 10
494.0802669115
 20
401.5217637532
 40
2.5
100
AcDbArc
 50
0.0
 51
174.1875176167
  0
ARC
  5
387
100
AcDbEntity
  8
0
100
AcDbCircle
 62
7
  6
CONTINUOUS
 10
476.0802669115
 20
403.3540990825
 40
2.5
100
AcDbArc
 50
0.0
 51
174.1875176165
  0
ARC
  5
388
100
AcDbEntity
  8
0
100
AcDbCircle
 62
7
  6
CONTINUOUS
 10
458.0802669115
 20
405.1864344119
 40
2.5
100
AcDbArc
 50
0.0
 51
174.1875176165
  0
ARC
  5
389
100
AcDbEntity
  8
0
100
AcDbCircle
 62
7
  6
CONTINUOUS
 10
440.0802669115
 20
407.0187697412
 40
2.5
100
AcDbArc
 50
0.0
 51
174.1875176168
  0
ARC
  5
38A
100
AcDbEntity
  8
0
100
AcDbCircle
 62
7
  6
CONTINUOUS
 10
422.0802669115
 20
408.8511050706
 40
2.5
100
AcDbArc
 50
0.0
 51
174.1875176168
  0
SPLINE
  5
38B
100
AcDbEntity
  8
0
100
AcDbSpline
 62
7
  6
CONTINUOUS
 70
0
 71
3
 72
20
 73
16
 74
0
 42
0.0000001
 43
0.0000001
 44
0.0000000001
 40
0.0
 40
0.0
 40
0.0
 40
0.0
 40
0.0244337528
 40
0.0611083533
 40
0.1113811594
 40
0.1741782738
 40
0.328114918
 40
0.5025872934
 40
0.676482008
 40
0.7567644826
 40
0.8290466213
 40
0.8908567874
 40
0.9401726317
 40
0.9760537969
 40
1.0
 40
1.0
 40
1.0
 40
1.0
 10
313.1674135854
 20
359.7689856471
 30
0.0
 10
313.167408979
 20
359.8143044956
 30
0.0
 10
313.2186106827
 20
359.9237424753
 30
0.0
 10
313.3658450475
 20
360.0687374197
 30
0.0
 10
313.5957660007
 20
360.2274386728
 30
0.0
 10
314.0383697686
 20
360.451425456
 30
0.0
 10
314.7370246826
 20
360.6677536025
 30
0.0
 10
315.6680891621
 20
360.7715913251
 30
0.0
 10
316.4663153601
 20
360.70665359
 30
0.0
 10
317.0564037204
 20
360.5671724899
 30
0.0
 10
317.432702673
 20
360.4362540016
 30
0.0
 10
317.7404180767
 20
360.2897153259
 30
0.0
 10
317.9694623174
 20
360.1388506125
 30
0.0
 10
318.1164590263
 20
359.9994130389
 30
0.0
 10
318.1674135846
 20
359.8923361303
 30
0.0
 10
318.1674135846
 20
359.8479215714
 30
0.0
  0
SPLINE
  5
38C
100
AcDbEntity
  8
0
100
AcDbSpline
 62
7
  6
CONTINUOUS
 70
0
 71
3
 72
10
 73
6
 74
0
 42
0.0000001
 43
0.0000001
 44
0.0000000001
 40
0.0
 40
0.0
 40
0.0
 40
0.0
 40
0.2621963847
 40
0.5902018737
 40
1.0
 40
1.0
 40
1.0
 40
1.0
 10
332.3394708716
 20
373.3685811577
 30
0.0
 10
332.18279187
 20
373.2246712808
 30
0.0
 10
331.7966337679
 20
372.9407955366
 30
0.0
 10
331.0489566278
 20
372.6157877735
 30
0.0
 10
330.4507247683
 20
372.5235111557
 30
0.0
 10
330.1197713047
 20
372.5186723359
 30
0.0
  0
SPLINE
  5
38D
100
AcDbEntity
  8
0
100
AcDbSpline
 62
7
  6
CONTINUOUS
 70
0
 71
3
 72
20
 73
16
 74
0
 42
0.0000001
 43
0.0000001
 44
0.0000000001
 40
0.0
 40
0.0
 40
0.0
 40
0.0
 40
0.0239467564
 40
0.0598307762
 40
0.1091498921
 40
0.1709641768
 40
0.2432495375
 40
0.3235331493
 40
0.4974266315
 40
0.6718969936
 40
0.8258287244
 40
0.8886223573
 40
0.9388929336
 40
0.9755660395
 40
1.0
 40
1.0
 40
1.0
 40
1.0
 10
318.1674135846
 20
426.6892407428
 30
0.0
 10
318.1674135846
 20
426.6448252861
 30
0.0
 10
318.1164545754
 20
426.537743203
 30
0.0
 10
317.9694476999
 20
426.3982993218
 30
0.0
 10
317.7403849538
 20
426.2474292702
 30
0.0
 10
317.4326513556
 20
426.1008856132
 30
0.0
 10
317.0563364508
 20
425.969967699
 30
0.0
 10
316.46624009
 20
425.830503182
 30
0.0
 10
315.6680207641
 20
425.7655710669
 30
0.0
 10
314.7369742384
 20
425.8694174862
 30
0.0
 10
314.0383441567
 20
426.0857503968
 30
0.0
 10
313.5957591785
 20
426.3097271717
 30
0.0
 10
313.3658504698
 20
426.4684212052
 30
0.0
 10
313.2186202736
 20
426.6134096029
 30
0.0
 10
313.1674135846
 20
426.7228404882
 30
0.0
 10
313.1674135846
 20
426.7681595909
 30
0.0
  0
SPLINE
  5
38E
100
AcDbEntity
  8
0
100
AcDbSpline
 62
7
  6
CONTINUOUS
 70
0
 71
3
 72
10
 73
6
 74
0
 42
0.0000001
 43
0.0000001
 44
0.0000000001
 40
0.0
 40
0.0
 40
0.0
 40
0.0
 40
0.4097764653
 40
0.7377606429
 40
1.0
 40
1.0
 40
1.0
 40
1.0
 10
330.1197713002
 20
414.01848998
 30
0.0
 10
330.4507130664
 20
414.0136510071
 30
0.0
 10
331.0489288531
 20
413.9214748362
 30
0.0
 10
331.7966485784
 20
413.5964975005
 30
0.0
 10
332.1827974604
 20
413.3125574859
 30
0.0
 10
332.3394708716
 20
413.1685811577
 30
0.0
  0
LINE
  5
38F
100
AcDbEntity
  8
0
100
AcDbLine
 62
7
  6
CONTINUOUS
 10
328.0674135846
 20
414.0485247098
 11
330.1197713002
 21
414.01848998
  0
LINE
  5
390
100
AcDbEntity
  8
0
100
AcDbLine
 62
7
  6
CONTINUOUS
 10
330.1197713047
 20
372.5186723359
 11
328.0674135846
 21
372.4886376056
  0
SPLINE
  5
391
100
AcDbEntity
  8
0
100
AcDbSpline
 62
7
  6
CONTINUOUS
 70
0
 71
3
 72
8
 73
4
 74
0
 42
0.0000001
 43
0.0000001
 44
0.0000000001
 40
0.0
 40
0.0
 40
0.0
 40
0.0
 40
1.0
 40
1.0
 40
1.0
 40
1.0
 10
308.5006234128
 20
373.8599461816
 30
0.0
 10
314.0403458105
 20
373.9222827075
 30
0.0
 10
319.5800669924
 20
373.9847285296
 30
0.0
 10
325.119783196
 20
374.0476131023
 30
0.0
  0
SPLINE
  5
392
100
AcDbEntity
  8
0
100
AcDbSpline
 62
7
  6
CONTINUOUS
 70
0
 71
3
 72
8
 73
4
 74
0
 42
0.0000001
 43
0.0000001
 44
0.0000000001
 40
0.0
 40
0.0
 40
0.0
 40
0.0
 40
1.0
 40
1.0
 40
1.0
 40
1.0
 10
325.1198050291
 20
412.4895848519
 30
0.0
 10
319.5800819679
 20
412.5524696487
 30
0.0
 10
314.0403536333
 20
412.6148895876
 30
0.0
 10
308.5006243225
 20
412.6772214054
 30
0.0
  0
SPLINE
  5
393
100
AcDbEntity
  8
0
100
AcDbSpline
 62
7
  6
CONTINUOUS
 70
0
 71
3
 72
14
 73
10
 74
0
 42
0.0000001
 43
0.0000001
 44
0.0000000001
 40
0.0
 40
0.0
 40
0.0
 40
0.0
 40
0.0532681682
 40
0.125714613
 40
0.222050237
 40
0.3422377495
 40
0.4841628388
 40
0.6444972113
 40
1.0
 40
1.0
 40
1.0
 40
1.0
 10
328.0674135846
 20
413.5033423448
 30
0.0
 10
328.0674135846
 20
413.4453708136
 30
0.0
 10
328.0119645586
 20
413.3107179048
 30
0.0
 10
327.8352510242
 20
413.1426592391
 30
0.0
 10
327.5676179789
 20
412.974729289
 30
0.0
 10
327.2101220779
 20
412.8162295281
 30
0.0
 10
326.7711938714
 20
412.6766925104
 30
0.0
 10
326.0705505252
 20
412.5263450215
 30
0.0
 10
325.5066379591
 20
412.4851778706
 30
0.0
 10
325.1197708039
 20
412.4895836425
 30
0.0
  0
SPLINE
  5
394
100
AcDbEntity
  8
0
100
AcDbSpline
 62
7
  6
CONTINUOUS
 70
0
 71
3
 72
14
 73
10
 74
0
 42
0.0000001
 43
0.0000001
 44
0.0000000001
 40
0.0
 40
0.0
 40
0.0
 40
0.0
 40
0.0529967926
 40
0.1254566076
 40
0.2218827558
 40
0.3421103165
 40
0.4840740053
 40
0.6444418174
 40
1.0
 40
1.0
 40
1.0
 40
1.0
 10
328.0674135846
 20
373.0338199707
 30
0.0
 10
328.0674135846
 20
373.0914864903
 30
0.0
 10
328.0115140688
 20
373.2256470305
 30
0.0
 10
327.8351280627
 20
373.3934838773
 30
0.0
 10
327.5676784072
 20
373.5620038261
 30
0.0
 10
327.2100893737
 20
373.7205933239
 30
0.0
 10
326.7712034935
 20
373.8604017594
 30
0.0
 10
326.0705443858
 20
374.0108114444
 30
0.0
 10
325.5066333371
 20
374.0520192356
 30
0.0
 10
325.1197708039
 20
374.0476135368
 30
0.0
  0
SPLINE
  5
395
100
AcDbEntity
  8
0
100
AcDbSpline
 62
7
  6
CONTINUOUS
 70
0
 71
3
 72
9
 73
5
 74
0
 42
0.0000001
 43
0.0000001
 44
0.0000000001
 40
0.0
 40
0.0
 40
0.0
 40
0.0
 40
0.7493915805
 40
1.0
 40
1.0
 40
1.0
 40
1.0
 10
308.7133571699
 20
391.3781627021
 30
0.0
 10
308.8463280924
 20
391.8304049317
 30
0.0
 10
308.9476526325
 20
392.4582058584
 30
0.0
 10
308.969602597
 20
393.086751086
 30
0.0
 10
308.9701085225
 20
393.2443890589
 30
0.0
  0
SPLINE
  5
396
100
AcDbEntity
  8
0
100
AcDbSpline
 62
7
  6
CONTINUOUS
 70
0
 71
3
 72
9
 73
5
 74
0
 42
0.0000001
 43
0.0000001
 44
0.0000000001
 40
0.0
 40
0.0
 40
0.0
 40
0.0
 40
0.2506084353
 40
1.0
 40
1.0
 40
1.0
 40
1.0
 10
308.9701084218
 20
393.2928007773
 30
0.0
 10
308.969601853
 20
393.4504373746
 30
0.0
 10
308.9476502073
 20
394.0789770113
 30
0.0
 10
308.8463248165
 20
394.7067721077
 30
0.0
 10
308.7133540768
 20
395.1590100688
 30
0.0
  0
SPLINE
  5
397
100
AcDbEntity
  8
0
100
AcDbSpline
 62
7
  6
CONTINUOUS
 70
0
 71
3
 72
8
 73
4
 74
0
 42
0.0000001
 43
0.0000001
 44
0.0000000001
 40
0.0
 40
0.0
 40
0.0
 40
0.0
 40
1.0
 40
1.0
 40
1.0
 40
1.0
 10
465.0802669115
 20
382.4031838509
 30
0.0
 10
465.9880880395
 20
382.5019072361
 30
0.0
 10
466.8958853622
 20
382.6008495536
 30
0.0
 10
467.8036716653
 20
382.6998926519
 30
0.0
  0
LINE
  5
398
100
AcDbEntity
  8
0
100
AcDbLine
 62
7
  6
CONTINUOUS
 10
465.1352599154
 20
381.9213230734
 11
466.5270756522
 21
382.0662267646
  0
SPLINE
  5
399
100
AcDbEntity
  8
0
100
AcDbSpline
 62
7
  6
CONTINUOUS
 70
0
 71
3
 72
8
 73
4
 74
0
 42
0.0000001
 43
0.0000001
 44
0.0000000001
 40
0.0
 40
0.0
 40
0.0
 40
0.0
 40
1.0
 40
1.0
 40
1.0
 40
1.0
 10
429.0802669115
 20
378.8096437846
 30
0.0
 10
430.1932164255
 20
378.9293089965
 30
0.0
 10
431.3061471099
 20
379.0491493938
 30
0.0
 10
432.4190644203
 20
379.1691137377
 30
0.0
  0
LINE
  5
39A
100
AcDbEntity
  8
0
100
AcDbLine
 62
7
  6
CONTINUOUS
 10
449.2930328436
 20
380.622368399
 11
450.6547350474
 21
380.76728368
  0
LINE
  5
39B
100
AcDbEntity
  8
0
100
AcDbLine
 62
7
  6
CONTINUOUS
 10
448.1015459154
 20
380.8723237204
 11
448.8675031013
 21
380.9562599281
  0
LINE
  5
39C
100
AcDbEntity
  8
0
100
AcDbLine
 62
7
  6
CONTINUOUS
 10
448.8675031013
 20
380.9562599281
 11
450.4226986681
 21
381.1268660582
  0
LINE
  5
39D
100
AcDbEntity
  8
0
100
AcDbLine
 62
7
  6
CONTINUOUS
 10
467.8188394532
 20
382.3219160215
 11
465.0802669115
 21
382.0336567638
  0
LINE
  5
39E
100
AcDbEntity
  8
0
100
AcDbLine
 62
7
  6
CONTINUOUS
 10
431.8256900286
 20
379.2887439532
 11
429.0802669115
 21
378.9894284009
  0
LINE
  5
39F
100
AcDbEntity
  8
0
100
AcDbLine
 62
7
  6
CONTINUOUS
 10
429.0802669115
 20
379.4202921275
 11
431.7789797846
 21
379.7157138658
  0
SPLINE
  5
3A0
100
AcDbEntity
  8
0
100
AcDbSpline
 62
7
  6
CONTINUOUS
 70
0
 71
3
 72
8
 73
4
 74
0
 42
0.0000001
 43
0.0000001
 44
0.0000000001
 40
0.0
 40
0.0
 40
0.0
 40
0.0
 40
1.0
 40
1.0
 40
1.0
 40
1.0
 10
450.3994159289
 20
381.3389132014
 30
0.0
 10
449.2930680911
 20
381.2152254012
 30
0.0
 10
448.1866839435
 20
381.0918620227
 30
0.0
 10
447.0802669115
 20
380.968794718
 30
0.0
  0
SPLINE
  5
3A1
100
AcDbEntity
  8
0
100
AcDbSpline
 62
7
  6
CONTINUOUS
 70
0
 71
3
 72
8
 73
4
 74
0
 42
0.0000001
 43
0.0000001
 44
0.0000000001
 40
0.0
 40
0.0
 40
0.0
 40
0.0
 40
1.0
 40
1.0
 40
1.0
 40
1.0
 10
465.0802669115
 20
383.0435472602
 30
0.0
 10
465.9805191783
 20
383.1439752035
 30
0.0
 10
466.8807365796
 20
383.244715758
 30
0.0
 10
467.7809370069
 20
383.3456073154
 30
0.0
  0
SPLINE
  5
3A2
100
AcDbEntity
  8
0
100
AcDbSpline
 62
7
  6
CONTINUOUS
 70
0
 71
3
 72
8
 73
4
 74
0
 42
0.0000001
 43
0.0000001
 44
0.0000000001
 40
0.0
 40
0.0
 40
0.0
 40
0.0
 40
1.0
 40
1.0
 40
1.0
 40
1.0
 10
447.0802669115
 20
381.4094456159
 30
0.0
 10
447.9805448173
 20
381.5101977188
 30
0.0
 10
448.8807912912
 20
381.6112307321
 30
0.0
 10
449.7810230492
 20
381.7123943407
 30
0.0
  0
SPLINE
  5
3A3
100
AcDbEntity
  8
0
100
AcDbSpline
 62
7
  6
CONTINUOUS
 70
0
 71
3
 72
10
 73
6
 74
0
 42
0.0000001
 43
0.0000001
 44
0.0000000001
 40
0.0
 40
0.0
 40
0.0
 40
0.0
 40
0.2501361725
 40
0.6249725911
 40
1.0
 40
1.0
 40
1.0
 40
1.0
 10
413.6334583349
 20
376.9382962217
 30
0.0
 10
413.6618581826
 20
376.9395751627
 30
0.0
 10
413.7325098455
 20
376.9485421512
 30
0.0
 10
413.8464836635
 20
376.9421129253
 30
0.0
 10
413.93131384
 20
376.9523263495
 30
0.0
 10
413.9738838263
 20
376.9544484472
 30
0.0
  0
SPLINE
  5
3A4
100
AcDbEntity
  8
0
100
AcDbSpline
 62
7
  6
CONTINUOUS
 70
0
 71
3
 72
8
 73
4
 74
0
 42
0.0000001
 43
0.0000001
 44
0.0000000001
 40
0.0
 40
0.0
 40
0.0
 40
0.0
 40
1.0
 40
1.0
 40
1.0
 40
1.0
 10
468.3994159289
 20
382.9732440681
 30
0.0
 10
467.2930717849
 20
382.8499660794
 30
0.0
 10
466.1866873332
 20
382.7270493955
 30
0.0
 10
465.0802669115
 20
382.6044578865
 30
0.0
  0
SPLINE
  5
3A5
100
AcDbEntity
  8
0
100
AcDbSpline
 62
7
  6
CONTINUOUS
 70
0
 71
3
 72
9
 73
5
 74
0
 42
0.0000001
 43
0.0000001
 44
0.0000000001
 40
0.0
 40
0.0
 40
0.0
 40
0.0
 40
0.2510582837
 40
1.0
 40
1.0
 40
1.0
 40
1.0
 10
59.3517277347
 20
393.2685811577
 30
0.0
 10
59.3517277347
 20
395.3877925255
 30
0.0
 10
59.5422899382
 20
403.8277014134
 30
0.0
 10
60.4945485267
 20
412.2514366177
 30
0.0
 10
61.6406529325
 20
418.4685811577
 30
0.0
  0
SPLINE
  5
3A6
100
AcDbEntity
  8
0
100
AcDbSpline
 62
7
  6
CONTINUOUS
 70
0
 71
3
 72
9
 73
5
 74
0
 42
0.0000001
 43
0.0000001
 44
0.0000000001
 40
0.0
 40
0.0
 40
0.0
 40
0.0
 40
0.2488317859
 40
1.0
 40
1.0
 40
1.0
 40
1.0
 10
61.640642424
 20
368.0685811577
 30
0.0
 10
61.2598537202
 20
370.1342029387
 30
0.0
 10
59.9228527184
 20
378.4700687975
 30
0.0
 10
59.3517277347
 20
386.9278560117
 30
0.0
 10
59.3517277347
 20
393.2685811577
 30
0.0
  0
SPLINE
  5
3A7
100
AcDbEntity
  8
0
100
AcDbSpline
 62
7
  6
CONTINUOUS
 70
0
 71
3
 72
9
 73
5
 74
0
 42
0.0000001
 43
0.0000001
 44
0.0000000001
 40
0.0
 40
0.0
 40
0.0
 40
0.0
 40
0.203304532
 40
1.0
 40
1.0
 40
1.0
 40
1.0
 10
304.8024441911
 20
426.0750084632
 30
0.0
 10
305.0375874946
 20
425.7014044853
 30
0.0
 10
306.1203723782
 20
423.8187577805
 30
0.0
 10
306.8550235806
 20
421.7315153201
 30
0.0
 10
307.1964261569
 20
420.0356411124
 30
0.0
  0
SPLINE
  5
3A8
100
AcDbEntity
  8
0
100
AcDbSpline
 62
7
  6
CONTINUOUS
 70
0
 71
3
 72
10
 73
6
 74
0
 42
0.0000001
 43
0.0000001
 44
0.0000000001
 40
0.0
 40
0.0
 40
0.0
 40
0.0
 40
0.1713152551
 40
0.4051798141
 40
1.0
 40
1.0
 40
1.0
 40
1.0
 10
308.5019536825
 20
412.7942053475
 30
0.0
 10
308.5337449222
 20
411.8538934022
 30
0.0
 10
308.5835055323
 20
409.6291380113
 30
0.0
 10
308.661631212
 20
404.1377842466
 30
0.0
 10
308.6859242076
 20
399.5866659529
 30
0.0
 10
308.6932109691
 20
396.3199708187
 30
0.0
  0
SPLINE
  5
3A9
100
AcDbEntity
  8
0
100
AcDbSpline
 62
7
  6
CONTINUOUS
 70
0
 71
3
 72
10
 73
6
 74
0
 42
0.0000001
 43
0.0000001
 44
0.0000000001
 40
0.0
 40
0.0
 40
0.0
 40
0.0
 40
0.5948201861
 40
0.8286847444
 40
1.0
 40
1.0
 40
1.0
 40
1.0
 10
308.6932087421
 20
390.217191351
 30
0.0
 10
308.6859183103
 20
386.9504962211
 30
0.0
 10
308.661621835
 20
382.399377962
 30
0.0
 10
308.5834926499
 20
376.9080242225
 30
0.0
 10
308.5337288807
 20
374.683268916
 30
0.0
 10
308.5019376186
 20
373.742956968
 30
0.0
  0
SPLINE
  5
3AA
100
AcDbEntity
  8
0
100
AcDbSpline
 62
7
  6
CONTINUOUS
 70
0
 71
3
 72
9
 73
5
 74
0
 42
0.0000001
 43
0.0000001
 44
0.0000000001
 40
0.0
 40
0.0
 40
0.0
 40
0.0
 40
0.2895933992
 40
1.0
 40
1.0
 40
1.0
 40
1.0
 10
307.1965322818
 20
366.5021238848
 30
0.0
 10
307.0723640174
 20
365.8852377999
 30
0.0
 10
306.5346921174
 20
363.7780430246
 30
0.0
 10
305.6246408225
 20
361.7685894979
 30
0.0
 10
304.8024089118
 20
360.4621538523
 30
0.0
  0
SPLINE
  5
3AB
100
AcDbEntity
  8
0
100
AcDbSpline
 62
7
  6
CONTINUOUS
 70
0
 71
3
 72
9
 73
5
 74
0
 42
0.0000001
 43
0.0000001
 44
0.0000000001
 40
0.0
 40
0.0
 40
0.0
 40
0.0
 40
0.2490521297
 40
1.0
 40
1.0
 40
1.0
 40
1.0
 10
306.0969202803
 20
367.5503710875
 30
0.0
 10
306.437294183
 20
369.4161065939
 30
0.0
 10
307.651321461
 20
376.9345735876
 30
0.0
 10
308.2606163966
 20
384.5500849611
 30
0.0
 10
308.3792527762
 20
390.2673141787
 30
0.0
  0
SPLINE
  5
3AC
100
AcDbEntity
  8
0
100
AcDbSpline
 62
7
  6
CONTINUOUS
 70
0
 71
3
 72
9
 73
5
 74
0
 42
0.0000001
 43
0.0000001
 44
0.0000000001
 40
0.0
 40
0.0
 40
0.0
 40
0.0
 40
0.2508687271
 40
1.0
 40
1.0
 40
1.0
 40
1.0
 10
308.3792526987
 20
396.269846449
 30
0.0
 10
308.3396200369
 20
398.179789447
 30
0.0
 10
308.0310102634
 20
405.7891471537
 30
0.0
 10
307.1207364745
 20
413.3748011189
 30
0.0
 10
306.0969212268
 20
418.9867773438
 30
0.0
  0
SPLINE
  5
3AD
100
AcDbEntity
  8
0
100
AcDbSpline
 62
7
  6
CONTINUOUS
 70
0
 71
3
 72
14
 73
10
 74
0
 42
0.0000001
 43
0.0000001
 44
0.0000000001
 40
0.0
 40
0.0
 40
0.0
 40
0.0
 40
0.3368478739
 40
0.5009196985
 40
0.6511455681
 40
0.7797311273
 40
0.8818539506
 40
0.9546609103
 40
1.0
 40
1.0
 40
1.0
 40
1.0
 10
295.4409736653
 20
368.1937173096
 30
0.0
 10
296.6292521734
 20
367.9811251551
 30
0.0
 10
298.4037004905
 20
367.7029702454
 30
0.0
 10
300.7218915653
 20
367.4350581884
 30
0.0
 10
302.3041197028
 20
367.3023519638
 30
0.0
 10
303.6678712574
 20
367.2471661089
 30
0.0
 10
304.7583272583
 20
367.2638470544
 30
0.0
 10
305.5401887361
 20
367.3512105673
 30
0.0
 10
305.9582407529
 20
367.4650033765
 30
0.0
 10
306.0967991498
 20
367.5498631438
 30
0.0
  0
SPLINE
  5
3AE
100
AcDbEntity
  8
0
100
AcDbSpline
 62
7
  6
CONTINUOUS
 70
0
 71
3
 72
11
 73
7
 74
0
 42
0.0000001
 43
0.0000001
 44
0.0000000001
 40
0.0
 40
0.0
 40
0.0
 40
0.0
 40
0.2503639023
 40
0.5005074044
 40
0.7503636832
 40
1.0
 40
1.0
 40
1.0
 40
1.0
 10
306.0967275692
 20
418.9873292708
 30
0.0
 10
305.7235353314
 20
420.8062999409
 30
0.0
 10
304.3550696029
 20
424.3461199025
 30
0.0
 10
300.6653072891
 20
428.6510281545
 30
0.0
 10
295.7565017148
 20
431.4796656287
 30
0.0
 10
292.0270291786
 20
432.15493898
 30
0.0
 10
290.1756473207
 20
432.1722871341
 30
0.0
  0
SPLINE
  5
3AF
100
AcDbEntity
  8
0
100
AcDbSpline
 62
7
  6
CONTINUOUS
 70
0
 71
3
 72
14
 73
10
 74
0
 42
0.0000001
 43
0.0000001
 44
0.0000000001
 40
0.0
 40
0.0
 40
0.0
 40
0.0
 40
0.337414437
 40
0.5015825302
 40
0.6517724774
 40
0.7802132586
 40
0.8821429105
 40
0.9547733265
 40
1.0
 40
1.0
 40
1.0
 40
1.0
 10
295.4412104103
 20
418.3434807862
 30
0.0
 10
296.631453677
 20
418.5564213574
 30
0.0
 10
298.4082117182
 20
418.8348761729
 30
0.0
 10
300.728598706
 20
419.1027803857
 30
0.0
 10
302.3104996127
 20
419.2352117445
 30
0.0
 10
303.6728902621
 20
419.2900623278
 30
0.0
 10
304.761451944
 20
419.27309156
 30
0.0
 10
305.5415780558
 20
419.1856729229
 30
0.0
 10
305.9585086641
 20
419.0719630351
 30
0.0
 10
306.0967275692
 20
418.9873292708
 30
0.0
  0
SPLINE
  5
3B0
100
AcDbEntity
  8
0
100
AcDbSpline
 62
7
  6
CONTINUOUS
 70
0
 71
3
 72
11
 73
7
 74
0
 42
0.0000001
 43
0.0000001
 44
0.0000000001
 40
0.0
 40
0.0
 40
0.0
 40
0.0
 40
0.378083166
 40
0.670801773
 40
0.8779835816
 40
1.0
 40
1.0
 40
1.0
 40
1.0
 10
290.1756197525
 20
432.1723372706
 30
0.0
 10
290.3090349544
 20
432.3043310677
 30
0.0
 10
290.5439777766
 20
432.5401440662
 30
0.0
 10
290.8458585562
 20
432.855085281
 30
0.0
 10
291.0493320496
 20
433.0863477359
 30
0.0
 10
291.1518999033
 20
433.2152224629
 30
0.0
 10
291.1805895223
 20
433.2685637855
 30
0.0
  0
SPLINE
  5
3B1
100
AcDbEntity
  8
0
100
AcDbSpline
 62
7
  6
CONTINUOUS
 70
0
 71
3
 72
11
 73
7
 74
0
 42
0.0000001
 43
0.0000001
 44
0.0000000001
 40
0.0
 40
0.0
 40
0.0
 40
0.0
 40
0.1220333229
 40
0.32921262
 40
0.6219215403
 40
1.0
 40
1.0
 40
1.0
 40
1.0
 10
77.6542389964
 20
433.2685388562
 30
0.0
 10
77.6829317833
 20
433.2151914124
 30
0.0
 10
77.7854915705
 20
433.0863071906
 30
0.0
 10
77.9889601107
 20
432.855046271
 30
0.0
 10
78.2908300149
 20
432.5401216019
 30
0.0
 10
78.5257703726
 20
432.3043276406
 30
0.0
 10
78.6591862537
 20
432.1723444585
 30
0.0
  0
SPLINE
  5
3B2
100
AcDbEntity
  8
0
100
AcDbSpline
 62
7
  6
CONTINUOUS
 70
0
 71
3
 72
11
 73
7
 74
0
 42
0.0000001
 43
0.0000001
 44
0.0000000001
 40
0.0
 40
0.0
 40
0.0
 40
0.0
 40
0.1204312251
 40
0.3269750426
 40
0.6202742597
 40
1.0
 40
1.0
 40
1.0
 40
1.0
 10
61.5172645607
 20
366.3480155577
 30
0.0
 10
61.5528912176
 20
366.4069540974
 30
0.0
 10
61.6779839589
 20
366.547981925
 30
0.0
 10
61.9253792035
 20
366.8010260872
 30
0.0
 10
62.2916302024
 20
367.1465236322
 30
0.0
 10
62.5760848054
 20
367.4056030087
 30
0.0
 10
62.7379036942
 20
367.5504075762
 30
0.0
  0
SPLINE
  5
3B3
100
AcDbEntity
  8
0
100
AcDbSpline
 62
7
  6
CONTINUOUS
 70
0
 71
3
 72
11
 73
7
 74
0
 42
0.0000001
 43
0.0000001
 44
0.0000000001
 40
0.0
 40
0.0
 40
0.0
 40
0.0
 40
0.3797264944
 40
0.673024465
 40
0.8795655033
 40
1.0
 40
1.0
 40
1.0
 40
1.0
 10
62.7378952137
 20
418.9867183762
 30
0.0
 10
62.5760781024
 20
419.1315138129
 30
0.0
 10
62.2916140423
 20
419.3905612035
 30
0.0
 10
61.9253533963
 20
419.7360205505
 30
0.0
 10
61.6779564751
 20
419.9890425042
 30
0.0
 10
61.5528556048
 20
420.1300572236
 30
0.0
 10
61.5172329515
 20
420.1889974621
 30
0.0
  0
SPLINE
  5
3B4
100
AcDbEntity
  8
0
100
AcDbSpline
 62
7
  6
CONTINUOUS
 70
0
 71
3
 72
9
 73
5
 74
0
 42
0.0000001
 43
0.0000001
 44
0.0000000001
 40
0.0
 40
0.0
 40
0.0
 40
0.0
 40
0.4999999899
 40
1.0
 40
1.0
 40
1.0
 40
1.0
 10
62.7378952137
 20
418.9867183762
 30
0.0
 10
61.1931224219
 20
410.5191416407
 30
0.0
 10
59.6557432372
 20
393.2685624177
 30
0.0
 10
61.1931305593
 20
376.0179846012
 30
0.0
 10
62.7379036942
 20
367.5504075762
 30
0.0
  0
SPLINE
  5
3B5
100
AcDbEntity
  8
0
100
AcDbSpline
 62
7
  6
CONTINUOUS
 70
0
 71
3
 72
14
 73
10
 74
0
 42
0.0000001
 43
0.0000001
 44
0.0000000001
 40
0.0
 40
0.0
 40
0.0
 40
0.0
 40
0.3368478719
 40
0.5009196952
 40
0.6511455638
 40
0.7797311229
 40
0.8818539468
 40
0.9546609082
 40
1.0
 40
1.0
 40
1.0
 40
1.0
 10
73.3938553411
 20
418.3434450306
 30
0.0
 10
72.2055768591
 20
418.5560371783
 30
0.0
 10
70.4311285823
 20
418.8341920794
 30
0.0
 10
68.1129375603
 20
419.1021041288
 30
0.0
 10
66.5307094577
 20
419.2348103504
 30
0.0
 10
65.1669579269
 20
419.289996206
 30
0.0
 10
64.0765019368
 20
419.273315264
 30
0.0
 10
63.2946404541
 20
419.1859517568
 30
0.0
 10
62.8765884309
 20
419.0721589544
 30
0.0
 10
62.7380300249
 20
418.9872991924
 30
0.0
  0
SPLINE
  5
3B6
100
AcDbEntity
  8
0
100
AcDbSpline
 62
7
  6
CONTINUOUS
 70
0
 71
3
 72
14
 73
10
 74
0
 42
0.0000001
 43
0.0000001
 44
0.0000000001
 40
0.0
 40
0.0
 40
0.0
 40
0.0
 40
0.337414437
 40
0.5015825302
 40
0.6517724774
 40
0.7802132586
 40
0.8821429105
 40
0.9547733265
 40
1.0
 40
1.0
 40
1.0
 40
1.0
 10
73.3936187327
 20
368.1936815292
 30
0.0
 10
72.2033754661
 20
367.9807409581
 30
0.0
 10
70.4266174249
 20
367.7022861426
 30
0.0
 10
68.106230437
 20
367.4343819297
 30
0.0
 10
66.5243295304
 20
367.301950571
 30
0.0
 10
65.161938881
 20
367.2470999876
 30
0.0
 10
64.073377199
 20
367.2640707554
 30
0.0
 10
63.2932510873
 20
367.3514893925
 30
0.0
 10
62.876320479
 20
367.4651992803
 30
0.0
 10
62.7381015738
 20
367.5498330446
 30
0.0
  0
SPLINE
  5
3B7
100
AcDbEntity
  8
0
100
AcDbSpline
 62
7
  6
CONTINUOUS
 70
0
 71
3
 72
11
 73
7
 74
0
 42
0.0000001
 43
0.0000001
 44
0.0000000001
 40
0.0
 40
0.0
 40
0.0
 40
0.0
 40
0.2496373029
 40
0.4994935397
 40
0.7496366234
 40
1.0
 40
1.0
 40
1.0
 40
1.0
 10
78.6591720947
 20
432.1722981315
 30
0.0
 10
76.8077823652
 20
432.1549594074
 30
0.0
 10
73.0783007946
 20
431.4796738352
 30
0.0
 10
68.1694939329
 20
428.6510310677
 30
0.0
 10
64.4797439111
 20
424.3461192235
 30
0.0
 10
63.1112841338
 20
420.8063044212
 30
0.0
 10
62.738093766
 20
418.9873368675
 30
0.0
  0
SPLINE
  5
3B8
100
AcDbEntity
  8
0
100
AcDbSpline
 62
7
  6
CONTINUOUS
 70
0
 71
3
 72
11
 73
7
 74
0
 42
0.0000001
 43
0.0000001
 44
0.0000000001
 40
0.0
 40
0.0
 40
0.0
 40
0.0
 40
0.2503639023
 40
0.5005074044
 40
0.7503636832
 40
1.0
 40
1.0
 40
1.0
 40
1.0
 10
62.7381015738
 20
367.5498330446
 30
0.0
 10
63.1112938117
 20
365.7308623745
 30
0.0
 10
64.4797595402
 20
362.191042413
 30
0.0
 10
68.1695218541
 20
357.8861341609
 30
0.0
 10
73.0783274283
 20
355.0574966868
 30
0.0
 10
76.8077999644
 20
354.3822233354
 30
0.0
 10
78.6591818224
 20
354.3648751814
 30
0.0
  0
SPLINE
  5
3B9
100
AcDbEntity
  8
0
100
AcDbSpline
 62
7
  6
CONTINUOUS
 70
0
 71
3
 72
11
 73
7
 74
0
 42
0.0000001
 43
0.0000001
 44
0.0000000001
 40
0.0
 40
0.0
 40
0.0
 40
0.0
 40
0.2443839312
 40
0.4908697267
 40
0.7425678671
 40
1.0
 40
1.0
 40
1.0
 40
1.0
 10
290.1756673546
 20
363.4730784221
 30
0.0
 10
290.7990515758
 20
363.473183345
 30
0.0
 10
292.0638032912
 20
363.7089301332
 30
0.0
 10
293.7050727662
 20
364.7346422172
 30
0.0
 10
294.906740064
 20
366.289002736
 30
0.0
 10
295.3297435073
 20
367.5449080941
 30
0.0
 10
295.4408608921
 20
368.1921066117
 30
0.0
  0
SPLINE
  5
3BA
100
AcDbEntity
  8
0
100
AcDbSpline
 62
7
  6
CONTINUOUS
 70
0
 71
3
 72
11
 73
7
 74
0
 42
0.0000001
 43
0.0000001
 44
0.0000000001
 40
0.0
 40
0.0
 40
0.0
 40
0.0
 40
0.2574322839
 40
0.5091305064
 40
0.7556162492
 40
1.0
 40
1.0
 40
1.0
 40
1.0
 10
73.3939044332
 20
368.1922117465
 30
0.0
 10
73.5050143539
 20
367.5449930127
 30
0.0
 10
73.928012228
 20
366.2890454802
 30
0.0
 10
75.129698551
 20
364.7346285989
 30
0.0
 10
76.7710104946
 20
363.7088807202
 30
0.0
 10
78.0357987919
 20
363.4731310111
 30
0.0
 10
78.6591999036
 20
363.4730300972
 30
0.0
  0
SPLINE
  5
3BB
100
AcDbEntity
  8
0
100
AcDbSpline
 62
7
  6
CONTINUOUS
 70
0
 71
3
 72
9
 73
5
 74
0
 42
0.0000001
 43
0.0000001
 44
0.0000000001
 40
0.0
 40
0.0
 40
0.0
 40
0.0
 40
0.2497468958
 40
1.0
 40
1.0
 40
1.0
 40
1.0
 10
73.394125922
 20
418.345024762
 30
0.0
 10
72.6873498451
 20
414.2187945161
 30
0.0
 10
70.5749041088
 20
397.5824716833
 30
0.0
 10
71.2709253486
 20
380.5876691881
 30
0.0
 10
73.3941074929
 20
368.1922497371
 30
0.0
  0
SPLINE
  5
3BC
100
AcDbEntity
  8
0
100
AcDbSpline
 62
7
  6
CONTINUOUS
 70
0
 71
3
 72
11
 73
7
 74
0
 42
0.0000001
 43
0.0000001
 44
0.0000000001
 40
0.0
 40
0.0
 40
0.0
 40
0.0
 40
0.2443839304
 40
0.4908697255
 40
0.7425678664
 40
1.0
 40
1.0
 40
1.0
 40
1.0
 10
78.6591617884
 20
423.0640838933
 30
0.0
 10
78.0357775091
 20
423.0639789704
 30
0.0
 10
76.7710256718
 20
422.8282321366
 30
0.0
 10
75.1297560869
 20
421.8025198638
 30
0.0
 10
73.9280887954
 20
420.2481590893
 30
0.0
 10
73.5050854419
 20
418.9922535576
 30
0.0
 10
73.3939681237
 20
418.3450549622
 30
0.0
  0
SPLINE
  5
3BD
100
AcDbEntity
  8
0
100
AcDbSpline
 62
7
  6
CONTINUOUS
 70
0
 71
3
 72
11
 73
7
 74
0
 42
0.0000001
 43
0.0000001
 44
0.0000000001
 40
0.0
 40
0.0
 40
0.0
 40
0.0
 40
0.2574322831
 40
0.5091305051
 40
0.7556162482
 40
1.0
 40
1.0
 40
1.0
 40
1.0
 10
295.4409245677
 20
418.3449513971
 30
0.0
 10
295.3298145727
 20
418.992170044
 30
0.0
 10
294.9068165983
 20
420.2481173828
 30
0.0
 10
293.7051302683
 20
421.8025339785
 30
0.0
 10
292.0638184475
 20
422.8282816462
 30
0.0
 10
290.7990302862
 20
423.0640313044
 30
0.0
 10
290.1756292395
 20
423.0641322183
 30
0.0
  0
SPLINE
  5
3BE
100
AcDbEntity
  8
0
100
AcDbSpline
 62
7
  6
CONTINUOUS
 70
0
 71
3
 72
9
 73
5
 74
0
 42
0.0000001
 43
0.0000001
 44
0.0000000001
 40
0.0
 40
0.0
 40
0.0
 40
0.0
 40
0.2497468978
 40
1.0
 40
1.0
 40
1.0
 40
1.0
 10
295.4407029572
 20
368.1921368351
 30
0.0
 10
296.1474790838
 20
372.3183672361
 30
0.0
 10
298.2599249193
 20
388.9546905739
 30
0.0
 10
297.5639036387
 20
405.9494935979
 30
0.0
 10
295.4407213732
 20
418.3449133838
 30
0.0
  0
SPLINE
  5
3BF
100
AcDbEntity
  8
0
100
AcDbSpline
 62
7
  6
CONTINUOUS
 70
0
 71
3
 72
9
 73
5
 74
0
 42
0.0000001
 43
0.0000001
 44
0.0000000001
 40
0.0
 40
0.0
 40
0.0
 40
0.0
 40
0.3871234345
 40
1.0
 40
1.0
 40
1.0
 40
1.0
 10
307.1964269515
 20
420.0356412798
 30
0.0
 10
307.0657509669
 20
419.8893794538
 30
0.0
 10
306.7015255273
 20
419.5361862166
 30
0.0
 10
306.3283134522
 20
419.1938400098
 30
0.0
 10
306.0969212268
 20
418.9867773438
 30
0.0
  0
SPLINE
  5
3C0
100
AcDbEntity
  8
0
100
AcDbSpline
 62
7
  6
CONTINUOUS
 70
0
 71
3
 72
9
 73
5
 74
0
 42
0.0000001
 43
0.0000001
 44
0.0000000001
 40
0.0
 40
0.0
 40
0.0
 40
0.0
 40
0.613015771
 40
1.0
 40
1.0
 40
1.0
 40
1.0
 10
306.0969202803
 20
367.5503710875
 30
0.0
 10
306.3283170243
 20
367.3433151725
 30
0.0
 10
306.701134747
 20
367.0007399572
 30
0.0
 10
307.065939623
 20
366.6482880125
 30
0.0
 10
307.1965475962
 20
366.5021206642
 30
0.0
  0
SPLINE
  5
3C1
100
AcDbEntity
  8
0
100
AcDbSpline
 62
7
  6
CONTINUOUS
 70
0
 71
3
 72
11
 73
7
 74
0
 42
0.0000001
 43
0.0000001
 44
0.0000000001
 40
0.0
 40
0.0
 40
0.0
 40
0.0
 40
0.1220333237
 40
0.3292126211
 40
0.6219215412
 40
1.0
 40
1.0
 40
1.0
 40
1.0
 10
291.1805896232
 20
353.2686234608
 30
0.0
 10
291.1518968358
 20
353.3219709043
 30
0.0
 10
291.0493370486
 20
353.4508551256
 30
0.0
 10
290.845868509
 20
353.6821160438
 30
0.0
 10
290.5439986064
 20
353.9970407103
 30
0.0
 10
290.3090582503
 20
354.2328346694
 30
0.0
 10
290.17564237
 20
354.3648178502
 30
0.0
  0
SPLINE
  5
3C2
100
AcDbEntity
  8
0
100
AcDbSpline
 62
7
  6
CONTINUOUS
 70
0
 71
3
 72
11
 73
7
 74
0
 42
0.0000001
 43
0.0000001
 44
0.0000000001
 40
0.0
 40
0.0
 40
0.0
 40
0.0
 40
0.3780831666
 40
0.6708017738
 40
0.8779835821
 40
1.0
 40
1.0
 40
1.0
 40
1.0
 10
78.6592093235
 20
354.3648250424
 30
0.0
 10
78.5257941216
 20
354.2328312453
 30
0.0
 10
78.2908512996
 20
353.9970182469
 30
0.0
 10
77.9889705202
 20
353.6820770323
 30
0.0
 10
77.7854970276
 20
353.4508145779
 30
0.0
 10
77.6829291744
 20
353.3219398512
 30
0.0
 10
77.6542395559
 20
353.2685985287
 30
0.0
  0
SPLINE
  5
3C3
100
AcDbEntity
  8
0
100
AcDbSpline
 62
7
  6
CONTINUOUS
 70
0
 71
3
 72
11
 73
7
 74
0
 42
0.0000001
 43
0.0000001
 44
0.0000000001
 40
0.0
 40
0.0
 40
0.0
 40
0.0
 40
0.2493023132
 40
0.499999963
 40
0.7506944862
 40
1.0
 40
1.0
 40
1.0
 40
1.0
 10
110.2347471742
 20
365.7685811577
 30
0.0
 10
108.8936959417
 20
370.2029581014
 30
0.0
 10
106.8452029387
 20
379.3064620928
 30
0.0
 10
105.8342150409
 20
393.2684789112
 30
0.0
 10
106.8488646647
 20
407.2298395665
 30
0.0
 10
108.8936787191
 20
416.3341472853
 30
0.0
 10
110.2347471742
 20
420.7685811577
 30
0.0
  0
SPLINE
  5
3C4
100
AcDbEntity
  8
0
100
AcDbSpline
 62
7
  6
CONTINUOUS
 70
0
 71
3
 72
9
 73
5
 74
0
 42
0.0000001
 43
0.0000001
 44
0.0000000001
 40
0.0
 40
0.0
 40
0.0
 40
0.0
 40
0.5000002338
 40
1.0
 40
1.0
 40
1.0
 40
1.0
 10
252.1000819689
 20
420.7685811577
 30
0.0
 10
254.7824752402
 20
411.8988657016
 30
0.0
 10
257.5547780833
 20
393.2685764482
 30
0.0
 10
254.7824727322
 20
374.6382883203
 30
0.0
 10
252.1000819689
 20
365.7685811577
 30
0.0
  0
SPLINE
  5
3C5
100
AcDbEntity
  8
0
100
AcDbSpline
 62
7
  6
CONTINUOUS
 70
0
 71
3
 72
11
 73
7
 74
0
 42
0.0000001
 43
0.0000001
 44
0.0000000001
 40
0.0
 40
0.0
 40
0.0
 40
0.0
 40
0.2496373029
 40
0.4994935397
 40
0.7496366234
 40
1.0
 40
1.0
 40
1.0
 40
1.0
 10
290.1756570484
 20
354.364864184
 30
0.0
 10
292.0270467779
 20
354.3822029081
 30
0.0
 10
295.7565283485
 20
355.0574884803
 30
0.0
 10
300.6653352101
 20
357.8861312477
 30
0.0
 10
304.355085232
 20
362.1910430919
 30
0.0
 10
305.7235450092
 20
365.7308578943
 30
0.0
 10
306.0967353771
 20
367.549825448
 30
0.0
  0
ELLIPSE
  5
3C6
100
AcDbEntity
  8
0
100
AcDbEllipse
 62
7
  6
CONTINUOUS
 10
431.532584314
 20
393.2685811577
 30
0.0
 11
0.0
 21
15.0020698881
 31
0.0
 40
0.5113292759
 41
-2.9723113398
 42
-2.9497550525
  0
ELLIPSE
  5
3C7
100
AcDbEntity
  8
0
100
AcDbEllipse
 62
7
  6
CONTINUOUS
 10
429.4198853127
 20
393.2685811577
 30
0.0
 11
15.5616582177
 21
-0.0
 31
0.0
 40
0.9738599758
 41
-1.3725654957
 42
-1.3502005195
  0
ELLIPSE
  5
3C8
100
AcDbEntity
  8
0
100
AcDbEllipse
 62
7
  6
CONTINUOUS
 10
394.8307171431
 20
393.2685811577
 30
0.0
 11
76.6303019105
 21
-0.0
 31
0.0
 40
0.2226223134
 41
-1.0622280513
 42
-1.0571346712
  0
ELLIPSE
  5
3C9
100
AcDbEntity
  8
0
100
AcDbEllipse
 62
7
  6
CONTINUOUS
 10
427.0558933905
 20
393.2685811577
 30
0.0
 11
-0.0
 21
15.4112647952
 31
0.0
 40
0.9158079345
 41
-2.9671261349
 42
-2.9565639424
  0
ELLIPSE
  5
3CA
100
AcDbEntity
  8
0
100
AcDbEllipse
 62
7
  6
CONTINUOUS
 10
472.2890234298
 20
393.2685811577
 30
0.0
 11
12.9556871046
 21
0.0
 31
0.0
 40
0.8330891944
 41
-1.9243215995
 42
-1.8757237483
  0
ELLIPSE
  5
3CB
100
AcDbEntity
  8
0
100
AcDbEllipse
 62
7
  6
CONTINUOUS
 10
470.2735573634
 20
393.2685811577
 30
0.0
 11
13.2001385675
 21
-0.0
 31
0.0
 40
0.833089396
 41
-1.7590163307
 42
-1.7132566298
  0
ELLIPSE
  5
3CC
100
AcDbEntity
  8
0
100
AcDbEllipse
 62
7
  6
CONTINUOUS
 10
432.7648606189
 20
393.2685811577
 30
0.0
 11
20.2851966123
 21
0.0
 31
0.0
 40
0.7272852831
 41
-1.6897840569
 42
-1.6728988195
  0
ELLIPSE
  5
3CD
100
AcDbEntity
  8
0
100
AcDbEllipse
 62
7
  6
CONTINUOUS
 10
432.1299414267
 20
393.2685811577
 30
0.0
 11
0.0
 21
14.9413432896
 31
0.0
 40
0.5113292759
 41
-3.3302307965
 42
-3.3075960927
  0
ELLIPSE
  5
3CE
100
AcDbEntity
  8
0
100
AcDbEllipse
 62
7
  6
CONTINUOUS
 10
431.5976453107
 20
393.2685811577
 30
0.0
 11
0.0
 21
15.0106836428
 31
0.0
 40
0.2554054584
 41
-3.3332118716
 42
-3.3106465688
  0
ELLIPSE
  5
3CF
100
AcDbEntity
  8
0
100
AcDbEllipse
 62
7
  6
CONTINUOUS
 10
434.1778903348
 20
393.2685811577
 30
0.0
 11
-0.0
 21
14.7081817789
 31
0.0
 40
0.7682960098
 41
-3.3072646756
 42
-3.2843985964
  0
ELLIPSE
  5
3D0
100
AcDbEntity
  8
0
100
AcDbEllipse
 62
7
  6
CONTINUOUS
 10
433.3009235873
 20
393.2685811577
 30
0.0
 11
-0.0
 21
14.8373546062
 31
0.0
 40
0.2554054584
 41
-3.3357880888
 42
-3.3129489425
  0
ELLIPSE
  5
3D1
100
AcDbEntity
  8
0
100
AcDbEllipse
 62
7
  6
CONTINUOUS
 10
486.8491042177
 20
393.2685811577
 30
0.0
 11
9.5911710824
 21
-0.0
 31
0.0
 40
0.9738609147
 41
-1.7427559367
 42
-1.7157970659
  0
ELLIPSE
  5
3D2
100
AcDbEntity
  8
0
100
AcDbEllipse
 62
7
  6
CONTINUOUS
 10
486.2762470655
 20
393.2685811577
 30
0.0
 11
0.0
 21
9.4368956259
 31
0.0
 40
0.5113292759
 41
-3.3829638902
 42
-3.3648394728
  0
ELLIPSE
  5
3D3
100
AcDbEntity
  8
0
100
AcDbEllipse
 62
7
  6
CONTINUOUS
 10
421.8602991508
 20
393.2685811577
 30
0.0
 11
21.7967440276
 21
0.0
 31
0.0
 40
0.7272854129
 41
-1.1998720358
 42
-1.1830584317
  0
ELLIPSE
  5
3D4
100
AcDbEntity
  8
0
100
AcDbEllipse
 62
7
  6
CONTINUOUS
 10
428.6594902421
 20
393.2685811577
 30
0.0
 11
-0.0
 21
15.3096762351
 31
0.0
 40
0.2554054584
 41
-2.9234286314
 42
-2.9010775932
  0
ELLIPSE
  5
3D5
100
AcDbEntity
  8
0
100
AcDbEllipse
 62
7
  6
CONTINUOUS
 10
427.5217474344
 20
393.2685811577
 30
0.0
 11
-0.0
 21
15.4098066936
 31
0.0
 40
0.5113292759
 41
3.4073090879
 42
3.4297673247
  0
ELLIPSE
  5
3D6
100
AcDbEntity
  8
0
100
AcDbEllipse
 62
7
  6
CONTINUOUS
 10
484.9563062955
 20
393.2685811577
 30
0.0
 11
9.7879518045
 21
-0.0
 31
0.0
 40
0.9738607998
 41
-1.7283353383
 42
-1.7019753515
  0
ELLIPSE
  5
3D7
100
AcDbEntity
  8
0
100
AcDbEllipse
 62
7
  6
CONTINUOUS
 10
484.5848343444
 20
393.2685811577
 30
0.0
 11
-0.0
 21
9.6031134128
 31
0.0
 40
0.61396178
 41
-3.3847333238
 42
-3.3403465427
  0
ELLIPSE
  5
3D8
100
AcDbEntity
  8
0
100
AcDbEllipse
 62
7
  6
CONTINUOUS
 10
430.4479323609
 20
393.2685811577
 30
0.0
 11
0.0
 21
15.127680754
 31
0.0
 40
0.2554054584
 41
-2.9210811941
 42
-2.8984480287
  0
ELLIPSE
  5
3D9
100
AcDbEntity
  8
0
100
AcDbEllipse
 62
7
  6
CONTINUOUS
 10
483.7198802205
 20
393.2685811577
 30
0.0
 11
0.0
 21
9.7078007494
 31
0.0
 40
0.2042994405
 41
-3.4699618704
 42
-3.4249579036
  0
ELLIPSE
  5
3DA
100
AcDbEntity
  8
0
100
AcDbEllipse
 62
7
  6
CONTINUOUS
 10
427.9699390609
 20
393.2685811577
 30
0.0
 11
0.0
 21
15.338204999
 31
0.0
 40
0.7682960098
 41
3.4350001532
 42
3.4577133686
  0
ELLIPSE
  5
3DB
100
AcDbEntity
  8
0
100
AcDbEllipse
 62
7
  6
CONTINUOUS
 10
422.33160597
 20
393.2685811577
 30
0.0
 11
24.4478588587
 21
-0.0
 31
0.0
 40
0.6447911348
 41
-1.1804840992
 42
-1.1691647631
  0
ELLIPSE
  5
3DC
100
AcDbEntity
  8
0
100
AcDbEllipse
 62
7
  6
CONTINUOUS
 10
486.3422906318
 20
393.2685811577
 30
0.0
 11
0.0
 21
9.440906502
 31
0.0
 40
0.2042994811
 41
-2.7962810732
 42
-2.7489681653
  0
ELLIPSE
  5
3DD
100
AcDbEntity
  8
0
100
AcDbEllipse
 62
7
  6
CONTINUOUS
 10
484.7898877608
 20
393.2685811577
 30
0.0
 11
-0.0
 21
9.5822803851
 31
0.0
 40
0.6139613733
 41
3.4794297324
 42
3.5258228568
  0
ELLIPSE
  5
3DE
100
AcDbEntity
  8
0
100
AcDbEllipse
 62
7
  6
CONTINUOUS
 10
483.0635084215
 20
393.2685811577
 30
0.0
 11
9.9847302366
 21
0.0
 31
0.0
 40
0.9738609147
 41
-1.2210871861
 42
-1.1937288738
  0
ELLIPSE
  5
3DF
100
AcDbEntity
  8
0
100
AcDbEllipse
 62
7
  6
CONTINUOUS
 10
473.3856016523
 20
393.2685811577
 30
0.0
 11
27.4771709162
 21
-0.0
 31
0.0
 40
0.3782066634
 41
-1.091411554
 42
-1.0738765302
  0
ELLIPSE
  5
3E0
100
AcDbEntity
  8
0
100
AcDbEllipse
 62
7
  6
CONTINUOUS
 10
486.2132341274
 20
393.2685811577
 30
0.0
 11
19.3145459583
 21
-0.0
 31
0.0
 40
0.4788837202
 41
-1.6096363357
 42
-1.5920028179
  0
ELLIPSE
  5
3E1
100
AcDbEntity
  8
0
100
AcDbEllipse
 62
7
  6
CONTINUOUS
 10
483.460128604
 20
393.2685811577
 30
0.0
 11
-0.0
 21
9.7231788082
 31
0.0
 40
0.5113292759
 41
3.4644842858
 42
3.4825909627
  0
ELLIPSE
  5
3E2
100
AcDbEntity
  8
0
100
AcDbEllipse
 62
7
  6
CONTINUOUS
 10
482.4714956457
 20
393.2685811577
 30
0.0
 11
-0.0
 21
9.8070329698
 31
0.0
 40
0.7682965627
 41
-2.8298681726
 42
-2.7940523611
  0
ELLIPSE
  5
3E3
100
AcDbEntity
  8
0
100
AcDbEllipse
 62
7
  6
CONTINUOUS
 10
471.7883494239
 20
393.2685811577
 30
0.0
 11
27.8922980787
 21
0.0
 31
0.0
 40
0.378206777
 41
5.1798360908
 42
5.1970008901
  0
ELLIPSE
  5
3E4
100
AcDbEntity
  8
0
100
AcDbEllipse
 62
7
  6
CONTINUOUS
 10
482.9235178045
 20
393.2685811577
 30
0.0
 11
24.9982015309
 21
0.0
 31
0.0
 40
0.3782068338
 41
-1.5406898624
 42
-1.5236544496
  0
ELLIPSE
  5
3E5
100
AcDbEntity
  8
0
100
AcDbEllipse
 62
7
  6
CONTINUOUS
 10
476.3691272133
 20
393.2685811577
 30
0.0
 11
16.0210381033
 21
-0.0
 31
0.0
 40
0.6447918438
 41
-0.9542015599
 42
-0.9345296031
  0
ELLIPSE
  5
3E6
100
AcDbEntity
  8
0
100
AcDbEllipse
 62
7
  6
CONTINUOUS
 10
481.6580401249
 20
393.2685811577
 30
0.0
 11
-0.0
 21
9.8895877304
 31
0.0
 40
0.7682964244
 41
-2.6299538168
 42
-2.5909796354
  0
ELLIPSE
  5
3E7
100
AcDbEntity
  8
0
100
AcDbEllipse
 62
7
  6
CONTINUOUS
 10
484.2715250702
 20
393.2685811577
 30
0.0
 11
0.0
 21
9.6504832853
 31
0.0
 40
0.255405367
 41
-2.7142642958
 42
-2.6759805747
  0
ELLIPSE
  5
3E8
100
AcDbEntity
  8
0
100
AcDbEllipse
 62
7
  6
CONTINUOUS
 10
481.2413665192
 20
393.2685811577
 30
0.0
 11
-0.0
 21
9.9487354523
 31
0.0
 40
0.5113295509
 41
-2.6614973637
 42
-2.6233854787
  0
ELLIPSE
  5
3E9
100
AcDbEntity
  8
0
100
AcDbEllipse
 62
7
  6
CONTINUOUS
 10
482.4830829523
 20
393.2685811577
 30
0.0
 11
0.0
 21
9.8324787663
 31
0.0
 40
0.255405367
 41
-2.722150729
 42
-2.6847234028
  0
ELLIPSE
  5
3EA
100
AcDbEntity
  8
0
100
AcDbEllipse
 62
7
  6
CONTINUOUS
 10
475.7612278238
 20
393.2685811577
 30
0.0
 11
14.3251900619
 21
0.0
 31
0.0
 40
0.7272855013
 41
-0.9782812458
 42
-0.9493480584
  0
ELLIPSE
  5
3EB
100
AcDbEntity
  8
0
100
AcDbEllipse
 62
7
  6
CONTINUOUS
 10
434.2817975366
 20
393.2685811577
 30
0.0
 11
22.5843245036
 21
0.0
 31
0.0
 40
0.6447905177
 41
-1.6693785002
 42
-1.6580243158
  0
ELLIPSE
  5
3EC
100
AcDbEntity
  8
0
100
AcDbEllipse
 62
7
  6
CONTINUOUS
 10
487.5503353629
 20
393.2685811577
 30
0.0
 11
0.0
 21
9.3168249295
 31
0.0
 40
0.255405367
 41
-3.5663904952
 42
-3.5274689186
  0
ELLIPSE
  5
3ED
100
AcDbEntity
  8
0
100
AcDbEllipse
 62
7
  6
CONTINUOUS
 10
429.5059256247
 20
393.2685811577
 30
0.0
 11
15.5527002457
 21
0.0
 31
0.0
 40
0.9738607998
 41
4.7069086704
 42
4.723325303
  0
ELLIPSE
  5
3EE
100
AcDbEntity
  8
0
100
AcDbEllipse
 62
7
  6
CONTINUOUS
 10
489.1503990565
 20
393.2685811577
 30
0.0
 11
-0.0
 21
9.1292144807
 31
0.0
 40
0.7682964244
 41
-3.5578609495
 42
-3.5183945268
  0
ELLIPSE
  5
3EF
100
AcDbEntity
  8
0
100
AcDbEllipse
 62
7
  6
CONTINUOUS
 10
422.7296841821
 20
393.2685811577
 30
0.0
 11
40.6429742332
 21
-0.0
 31
0.0
 40
0.3782062536
 41
-1.3990422266
 42
-1.3884058635
  0
ELLIPSE
  5
3F0
100
AcDbEntity
  8
0
100
AcDbEllipse
 62
7
  6
CONTINUOUS
 10
490.9361384086
 20
393.2685811577
 30
0.0
 11
13.7494217602
 21
-0.0
 31
0.0
 40
0.6447912267
 41
-1.9334072721
 42
-1.9136193136
  0
ELLIPSE
  5
3F1
100
AcDbEntity
  8
0
100
AcDbEllipse
 62
7
  6
CONTINUOUS
 10
416.1580967675
 20
393.2685811577
 30
0.0
 11
42.3509749915
 21
0.0
 31
0.0
 40
0.3782061968
 41
5.0542746293
 42
5.0649601436
  0
ELLIPSE
  5
3F2
100
AcDbEntity
  8
0
100
AcDbEllipse
 62
7
  6
CONTINUOUS
 10
428.7833943398
 20
393.2685811577
 30
0.0
 11
-0.0
 21
15.2556502733
 31
0.0
 40
0.7682960098
 41
3.3129812016
 42
3.3351326903
  0
ELLIPSE
  5
3F3
100
AcDbEntity
  8
0
100
AcDbEllipse
 62
7
  6
CONTINUOUS
 10
429.7405055515
 20
393.2685811577
 30
0.0
 11
-0.0
 21
15.1842503795
 31
0.0
 40
0.5113300093
 41
3.3094562653
 42
3.3205846947
  0
ELLIPSE
  5
3F4
100
AcDbEntity
  8
0
100
AcDbEllipse
 62
7
  6
CONTINUOUS
 10
431.3987240349
 20
393.2685811577
 30
0.0
 11
15.3559188
 21
-0.0
 31
0.0
 40
0.9738609147
 41
4.6999636429
 42
4.7165907312
  0
ELLIPSE
  5
3F5
100
AcDbEntity
  8
0
100
AcDbEllipse
 62
7
  6
CONTINUOUS
 10
427.9941608432
 20
393.2685811577
 30
0.0
 11
31.4196699467
 21
0.0
 31
0.0
 40
0.4788844362
 41
4.8230257915
 42
4.8339340576
  0
ELLIPSE
  5
3F6
100
AcDbEntity
  8
0
100
AcDbEllipse
 62
7
  6
CONTINUOUS
 10
417.7554253645
 20
393.2685811577
 30
0.0
 11
41.9357114577
 21
-0.0
 31
0.0
 40
0.3782072436
 41
-1.2227274162
 42
-1.2119114166
  0
ELLIPSE
  5
3F7
100
AcDbEntity
  8
0
100
AcDbEllipse
 62
7
  6
CONTINUOUS
 10
429.3338538892
 20
393.2685811577
 30
0.0
 11
15.5705873996
 21
0.0
 31
0.0
 40
0.9738609147
 41
4.9161433298
 42
4.9329170771
  0
ELLIPSE
  5
3F8
100
AcDbEntity
  8
0
100
AcDbEllipse
 62
7
  6
CONTINUOUS
 10
431.0915881726
 20
393.2685811577
 30
0.0
 11
-0.0
 21
15.0379294617
 31
0.0
 40
0.613961726
 41
3.3210779618
 42
3.3492589716
  0
ELLIPSE
  5
3F9
100
AcDbEntity
  8
0
100
AcDbEllipse
 62
7
  6
CONTINUOUS
 10
432.4892215411
 20
393.2685811577
 30
0.0
 11
-0.0
 21
14.9217703082
 31
0.0
 40
0.2042994226
 41
-2.9748584162
 42
-2.94647685
  0
ELLIPSE
  5
3FA
100
AcDbEntity
  8
0
100
AcDbEllipse
 62
7
  6
CONTINUOUS
 10
485.8470570871
 20
393.2685811577
 30
0.0
 11
-0.0
 21
9.490153966
 31
0.0
 40
0.255405367
 41
-3.5576251884
 42
-3.519549555
  0
ELLIPSE
  5
3FB
100
AcDbEntity
  8
0
100
AcDbEllipse
 62
7
  6
CONTINUOUS
 10
486.7029323342
 20
393.2685811577
 30
0.0
 11
-0.0
 21
9.3935193061
 31
0.0
 40
0.5113295509
 41
-3.5723570988
 42
-3.5336906721
  0
ELLIPSE
  5
3FC
100
AcDbEntity
  8
0
100
AcDbEllipse
 62
7
  6
CONTINUOUS
 10
488.9797543333
 20
393.2685811577
 30
0.0
 11
12.4928880154
 21
-0.0
 31
0.0
 40
0.7272853715
 41
-1.9498504221
 42
-1.9206840363
  0
ELLIPSE
  5
3FD
100
AcDbEntity
  8
0
100
AcDbEllipse
 62
7
  6
CONTINUOUS
 10
429.5262383034
 20
393.2685811577
 30
0.0
 11
-0.0
 21
15.2233261456
 31
0.0
 40
0.2042995574
 41
-3.2854823451
 42
-3.2578839241
  0
ELLIPSE
  5
3FE
100
AcDbEntity
  8
0
100
AcDbEllipse
 62
7
  6
CONTINUOUS
 10
429.8612696319
 20
393.2685811577
 30
0.0
 11
0.0
 21
15.1629276056
 31
0.0
 40
0.6139614273
 41
-3.2164140301
 42
-3.1889361273
  0
ELLIPSE
  5
3FF
100
AcDbEntity
  8
0
100
AcDbEllipse
 62
7
  6
CONTINUOUS
 10
431.7032572723
 20
393.2685811577
 30
0.0
 11
-0.0
 21
14.9847194244
 31
0.0
 40
0.5113300093
 41
-3.2174192525
 42
-3.2062843294
  0
ELLIPSE
  5
400
100
AcDbEntity
  8
0
100
AcDbEllipse
 62
7
  6
CONTINUOUS
 10
436.7592486586
 20
393.2685811577
 30
0.0
 11
17.2650711136
 21
0.0
 31
0.0
 40
0.8330891944
 41
-1.8619203012
 42
-1.8260835151
  0
ELLIPSE
  5
401
100
AcDbEntity
  8
0
100
AcDbEllipse
 62
7
  6
CONTINUOUS
 10
446.6503673573
 20
393.2685811577
 30
0.0
 11
-0.0
 21
13.4788882604
 31
0.0
 40
0.2554052756
 41
-2.8904761109
 42
-2.8648670187
  0
ELLIPSE
  5
402
100
AcDbEntity
  8
0
100
AcDbEllipse
 62
7
  6
CONTINUOUS
 10
444.6756521327
 20
393.2685811577
 30
0.0
 11
0.0
 21
13.6515549652
 31
0.0
 40
0.682492174
 41
3.4598305738
 42
3.479127811
  0
ELLIPSE
  5
403
100
AcDbEntity
  8
0
100
AcDbEllipse
 62
7
  6
CONTINUOUS
 10
434.1762837665
 20
393.2685811577
 30
0.0
 11
30.1343487528
 21
0.0
 31
0.0
 40
0.4788829166
 41
-1.1031249282
 42
-1.0904279645
  0
ELLIPSE
  5
404
100
AcDbEntity
  8
0
100
AcDbEllipse
 62
7
  6
CONTINUOUS
 10
447.1548320264
 20
393.2685811577
 30
0.0
 11
18.2905055419
 21
-0.0
 31
0.0
 40
0.7272854778
 41
4.7269249246
 42
4.7455426299
  0
ELLIPSE
  5
405
100
AcDbEntity
  8
0
100
AcDbEllipse
 62
7
  6
CONTINUOUS
 10
442.124963288
 20
393.2685811577
 30
0.0
 11
35.6020253308
 21
-0.0
 31
0.0
 40
0.3782062536
 41
-1.4118175495
 42
-1.3997003668
  0
ELLIPSE
  5
406
100
AcDbEntity
  8
0
100
AcDbEllipse
 62
7
  6
CONTINUOUS
 10
435.6446481599
 20
393.2685811577
 30
0.0
 11
37.2863031672
 21
0.0
 31
0.0
 40
0.3782061968
 41
-1.2180245122
 42
-1.2058353852
  0
ELLIPSE
  5
407
100
AcDbEntity
  8
0
100
AcDbEllipse
 62
7
  6
CONTINUOUS
 10
444.4359241154
 20
393.2685811577
 30
0.0
 11
18.6673890795
 21
-0.0
 31
0.0
 40
0.7272855427
 41
4.956770028
 42
4.9756102172
  0
ELLIPSE
  5
408
100
AcDbEntity
  8
0
100
AcDbEllipse
 62
7
  6
CONTINUOUS
 10
447.7607032105
 20
393.2685811577
 30
0.0
 11
-0.0
 21
13.3443778685
 31
0.0
 40
0.6139613733
 41
3.3297312534
 42
3.3615561539
  0
ELLIPSE
  5
409
100
AcDbEntity
  8
0
100
AcDbEllipse
 62
7
  6
CONTINUOUS
 10
449.0666007442
 20
393.2685811577
 30
0.0
 11
-0.0
 21
13.2346174798
 31
0.0
 40
0.2042995395
 41
-2.9624623291
 42
-2.9303755053
  0
ELLIPSE
  5
40A
100
AcDbEntity
  8
0
100
AcDbEllipse
 62
7
  6
CONTINUOUS
 10
450.8965548197
 20
393.2685811577
 30
0.0
 11
-0.0
 21
13.0114630511
 31
0.0
 40
0.7682965627
 41
-3.3459859571
 42
-3.3199697889
  0
ELLIPSE
  5
40B
100
AcDbEntity
  8
0
100
AcDbEllipse
 62
7
  6
CONTINUOUS
 10
449.8865949525
 20
393.2685811577
 30
0.0
 11
-0.0
 21
13.1495632058
 31
0.0
 40
0.2554052756
 41
-3.3710176754
 42
-3.3450706759
  0
ELLIPSE
  5
40C
100
AcDbEntity
  8
0
100
AcDbEllipse
 62
7
  6
CONTINUOUS
 10
447.5340235479
 20
393.2685811577
 30
0.0
 11
0.0
 21
13.3905946042
 31
0.0
 40
0.2042995574
 41
-3.3082281177
 42
-3.2767595968
  0
ELLIPSE
  5
40D
100
AcDbEntity
  8
0
100
AcDbEllipse
 62
7
  6
CONTINUOUS
 10
447.9315800337
 20
393.2685811577
 30
0.0
 11
-0.0
 21
13.327017091
 31
0.0
 40
0.6139614273
 41
-3.2353723215
 42
-3.2040716308
  0
ELLIPSE
  5
40E
100
AcDbEntity
  8
0
100
AcDbEllipse
 62
7
  6
CONTINUOUS
 10
455.028002328
 20
393.2685811577
 30
0.0
 11
15.0492654848
 21
0.0
 31
0.0
 40
0.8330891944
 41
-1.9253252113
 42
-1.8834263939
  0
ELLIPSE
  5
40F
100
AcDbEntity
  8
0
100
AcDbEllipse
 62
7
  6
CONTINUOUS
 10
447.0525181622
 20
393.2685811577
 30
0.0
 11
16.0166005273
 21
-0.0
 31
0.0
 40
0.8330895328
 41
-1.354843789
 42
-1.3439212445
  0
ELLIPSE
  5
410
100
AcDbEntity
  8
0
100
AcDbEllipse
 62
7
  6
CONTINUOUS
 10
466.7320975492
 20
393.2685811577
 30
0.0
 11
13.6296776909
 21
0.0
 31
0.0
 40
0.8330895328
 41
-1.4418652263
 42
-1.3976489043
  0
ELLIPSE
  5
411
100
AcDbEntity
  8
0
100
AcDbEllipse
 62
7
  6
CONTINUOUS
 10
409.9790640113
 20
393.2685811577
 30
0.0
 11
0.0
 21
16.9794613556
 31
0.0
 40
0.91213888
 41
-3.0428545833
 42
-2.9782502504
  0
ELLIPSE
  5
412
100
AcDbEntity
  8
0
100
AcDbEllipse
 62
7
  6
CONTINUOUS
 10
415.9288701665
 20
393.2685811577
 30
0.0
 11
0.0
 21
16.6071901352
 31
0.0
 40
0.2042994518
 41
-3.5537867168
 42
-3.5265682037
  0
ELLIPSE
  5
413
100
AcDbEntity
  8
0
100
AcDbEllipse
 62
7
  6
CONTINUOUS
 10
484.5977577934
 20
393.2685811577
 30
0.0
 11
11.462763877
 21
-0.0
 31
0.0
 40
0.8330895328
 41
-1.4054444288
 42
-1.3524949772
  0
ELLIPSE
  5
414
100
AcDbEntity
  8
0
100
AcDbEllipse
 62
7
  6
CONTINUOUS
 10
418.5644069644
 20
393.2685811577
 30
0.0
 11
-0.0
 21
16.3031941342
 31
0.0
 40
0.682492174
 41
-3.5252566236
 42
-3.5088135749
  0
ELLIPSE
  5
415
100
AcDbEntity
  8
0
100
AcDbEllipse
 62
7
  6
CONTINUOUS
 10
421.6774089761
 20
393.2685811577
 30
0.0
 11
24.5498503293
 21
-0.0
 31
0.0
 40
0.6447918438
 41
-1.8826860773
 42
-1.8717778363
  0
ELLIPSE
  5
416
100
AcDbEntity
  8
0
100
AcDbEllipse
 62
7
  6
CONTINUOUS
 10
355.3678681219
 20
393.2685811577
 30
0.0
 11
93.0411271767
 21
0.0
 31
0.0
 40
0.2226215433
 41
-0.8870223332
 42
-0.8822932614
  0
ELLIPSE
  5
417
100
AcDbEntity
  8
0
100
AcDbEllipse
 62
7
  6
CONTINUOUS
 10
417.6503405412
 20
393.2685811577
 30
0.0
 11
0.0
 21
16.7695047114
 31
0.0
 40
0.8989959502
 41
-3.5613936561
 42
-3.4755992886
  0
ELLIPSE
  5
418
100
AcDbEntity
  8
0
100
AcDbEllipse
 62
7
  6
CONTINUOUS
 10
407.5236627554
 20
393.2685811577
 30
0.0
 11
17.8380159996
 21
0.0
 31
0.0
 40
0.9738613841
 41
-1.16991917
 42
-1.1490982319
  0
ELLIPSE
  5
419
100
AcDbEntity
  8
0
100
AcDbEllipse
 62
7
  6
CONTINUOUS
 10
411.6490696411
 20
393.2685811577
 30
0.0
 11
-0.0
 21
17.0234038057
 31
0.0
 40
0.5113296426
 41
-2.7681190575
 42
-2.7470281594
  0
ELLIPSE
  5
41A
100
AcDbEntity
  8
0
100
AcDbEllipse
 62
7
  6
CONTINUOUS
 10
413.9810469732
 20
393.2685811577
 30
0.0
 11
0.0
 21
16.8065391112
 31
0.0
 40
0.1702383026
 41
3.5039150112
 42
3.5359258298
  0
ELLIPSE
  5
41B
100
AcDbEntity
  8
0
100
AcDbEllipse
 62
7
  6
CONTINUOUS
 10
417.3596427584
 20
393.2685811577
 30
0.0
 11
25.223168432
 21
0.0
 31
0.0
 40
0.6447920801
 41
4.557821646
 42
4.5641176595
  0
ELLIPSE
  5
41C
100
AcDbEntity
  8
0
100
AcDbEllipse
 62
7
  6
CONTINUOUS
 10
403.7314540422
 20
393.2685811577
 30
0.0
 11
72.9291541647
 21
-0.0
 31
0.0
 40
0.2226215433
 41
-1.4345999927
 42
-1.4298869296
  0
ELLIPSE
  5
41D
100
AcDbEntity
  8
0
100
AcDbEllipse
 62
7
  6
CONTINUOUS
 10
373.4782236868
 20
393.2685811577
 30
0.0
 11
85.5101895213
 21
0.0
 31
0.0
 40
0.2226207732
 41
-1.0751872053
 42
-1.0706560012
  0
ELLIPSE
  5
41E
100
AcDbEntity
  8
0
100
AcDbEllipse
 62
7
  6
CONTINUOUS
 10
411.309256702
 20
393.2685811577
 30
0.0
 11
17.4444572253
 21
-0.0
 31
0.0
 40
0.9738613841
 41
4.8954308467
 42
4.9153151164
  0
ELLIPSE
  5
41F
100
AcDbEntity
  8
0
100
AcDbEllipse
 62
7
  6
CONTINUOUS
 10
413.526484429
 20
393.2685811577
 30
0.0
 11
-0.0
 21
16.8325481317
 31
0.0
 40
0.5113292759
 41
-2.9901526991
 42
-2.9701156223
  0
ELLIPSE
  5
420
100
AcDbEntity
  8
0
100
AcDbEllipse
 62
7
  6
CONTINUOUS
 10
414.6053477786
 20
393.2685811577
 30
0.0
 11
0.0
 21
16.7429970729
 31
0.0
 40
0.1702383026
 41
3.2787846517
 42
3.3089942037
  0
ELLIPSE
  5
421
100
AcDbEntity
  8
0
100
AcDbEllipse
 62
7
  6
CONTINUOUS
 10
415.9203920938
 20
393.2685811577
 30
0.0
 11
25.4475735838
 21
0.0
 31
0.0
 40
0.6447930255
 41
4.642530025
 42
4.6525843318
  0
ELLIPSE
  5
422
100
AcDbEntity
  8
0
100
AcDbEllipse
 62
7
  6
CONTINUOUS
 10
411.6026325956
 20
393.2685811577
 30
0.0
 11
26.1208984552
 21
0.0
 31
0.0
 40
0.6447930255
 41
4.7841877578
 42
4.7902146822
  0
ELLIPSE
  5
423
100
AcDbEntity
  8
0
100
AcDbEllipse
 62
7
  6
CONTINUOUS
 10
385.6206209713
 20
393.2685811577
 30
0.0
 11
80.460765238
 21
0.0
 31
0.0
 40
0.2226207732
 41
-1.2151938161
 42
-1.2106766944
  0
ELLIPSE
  5
424
100
AcDbEntity
  8
0
100
AcDbEllipse
 62
7
  6
CONTINUOUS
 10
416.0559033576
 20
393.2685811577
 30
0.0
 11
0.0
 21
16.5579367318
 31
0.0
 40
0.682492174
 41
-3.2887059425
 42
-3.2734958313
  0
ELLIPSE
  5
425
100
AcDbEntity
  8
0
100
AcDbEllipse
 62
7
  6
CONTINUOUS
 10
415.1796103997
 20
393.2685811577
 30
0.0
 11
-0.0
 21
16.6834455955
 31
0.0
 40
0.2042995395
 41
-3.3215251697
 42
-3.2962016093
  0
ELLIPSE
  5
426
100
AcDbEntity
  8
0
100
AcDbEllipse
 62
7
  6
CONTINUOUS
 10
414.3530226016
 20
393.2685811577
 30
0.0
 11
-0.0
 21
16.8598147991
 31
0.0
 40
0.8989960788
 41
-3.3305652849
 42
-3.2503360637
  0
ELLIPSE
  5
427
100
AcDbEntity
  8
0
100
AcDbEllipse
 62
7
  6
CONTINUOUS
 10
472.9800390848
 20
393.2685811577
 30
0.0
 11
12.8718690996
 21
-0.0
 31
0.0
 40
0.8330895328
 41
-1.9275682773
 42
-1.8786024495
  0
ELLIPSE
  5
428
100
AcDbEntity
  8
0
100
AcDbEllipse
 62
7
  6
CONTINUOUS
 10
440.2560353112
 20
393.2685811577
 30
0.0
 11
42.0733322431
 21
0.0
 31
0.0
 40
0.3101090615
 41
4.8979006237
 42
4.9040786153
  0
ELLIPSE
  5
429
100
AcDbEntity
  8
0
100
AcDbEllipse
 62
7
  6
CONTINUOUS
 10
433.6148195909
 20
393.2685811577
 30
0.0
 11
-0.0
 21
14.405233003
 31
0.0
 40
0.2042994226
 41
-3.3537352132
 42
-3.3242430151
  0
ELLIPSE
  5
42A
100
AcDbEntity
  8
0
100
AcDbEllipse
 62
7
  6
CONTINUOUS
 10
434.4903943356
 20
393.2685811577
 30
0.0
 11
-0.0
 21
14.2913327787
 31
0.0
 40
0.613961726
 41
-3.3227036654
 42
-3.312838393
  0
ELLIPSE
  5
42B
100
AcDbEntity
  8
0
100
AcDbEllipse
 62
7
  6
CONTINUOUS
 10
444.5636317939
 20
393.2685811577
 30
0.0
 11
0.0
 21
13.2679102881
 31
0.0
 40
0.6139614273
 41
3.4666777471
 42
3.4888692423
  0
ELLIPSE
  5
42C
100
AcDbEntity
  8
0
100
AcDbEllipse
 62
7
  6
CONTINUOUS
 10
446.4118418308
 20
393.2685811577
 30
0.0
 11
-0.0
 21
13.1028237398
 31
0.0
 40
0.2042994405
 41
-2.8892209667
 42
-2.8562418249
  0
ELLIPSE
  5
42D
100
AcDbEntity
  8
0
100
AcDbEllipse
 62
7
  6
CONTINUOUS
 10
416.2524715069
 20
393.2685811577
 30
0.0
 11
33.8611234383
 21
0.0
 31
0.0
 40
0.4788833622
 41
5.1782705084
 42
5.1895556044
  0
ELLIPSE
  5
42E
100
AcDbEntity
  8
0
100
AcDbEllipse
 62
7
  6
CONTINUOUS
 10
425.7203341619
 20
393.2685811577
 30
0.0
 11
15.9462495303
 21
0.0
 31
0.0
 40
0.9738613841
 41
5.0637016451
 42
5.080808897
  0
ELLIPSE
  5
42F
100
AcDbEntity
  8
0
100
AcDbEllipse
 62
7
  6
CONTINUOUS
 10
470.9645738442
 20
393.2685811577
 30
0.0
 11
13.1163203845
 21
0.0
 31
0.0
 40
0.8330897344
 41
-1.7610228616
 42
-1.7149563797
  0
ELLIPSE
  5
430
100
AcDbEntity
  8
0
100
AcDbEllipse
 62
7
  6
CONTINUOUS
 10
428.8871351267
 20
393.2685811577
 30
0.0
 11
-0.0
 21
15.2710029801
 31
0.0
 40
0.5113300093
 41
3.4319696497
 42
3.4433646811
  0
ELLIPSE
  5
431
100
AcDbEntity
  8
0
100
AcDbEllipse
 62
7
  6
CONTINUOUS
 10
437.4502643349
 20
393.2685811577
 30
0.0
 11
17.1812513814
 21
-0.0
 31
0.0
 40
0.8330895328
 41
-1.8640003372
 42
-1.8279686248
  0
ELLIPSE
  5
432
100
AcDbEntity
  8
0
100
AcDbEllipse
 62
7
  6
CONTINUOUS
 10
437.5092365848
 20
393.2685811577
 30
0.0
 11
16.6950399902
 21
-0.0
 31
0.0
 40
0.8330895328
 41
-1.8765064885
 42
-1.8392974427
  0
ELLIPSE
  5
433
100
AcDbEntity
  8
0
100
AcDbEllipse
 62
7
  6
CONTINUOUS
 10
430.1924412713
 20
393.2685811577
 30
0.0
 11
-0.0
 21
15.1536800504
 31
0.0
 40
0.2554052756
 41
3.3169085168
 42
3.3392864838
  0
ELLIPSE
  5
434
100
AcDbEntity
  8
0
100
AcDbEllipse
 62
7
  6
CONTINUOUS
 10
429.3138220488
 20
393.2685811577
 30
0.0
 11
-0.0
 21
15.2276265355
 31
0.0
 40
0.5113296426
 41
3.3202197649
 42
3.3424802304
  0
ELLIPSE
  5
435
100
AcDbEntity
  8
0
100
AcDbEllipse
 62
7
  6
CONTINUOUS
 10
425.1287738394
 20
393.2685811577
 30
0.0
 11
21.343683596
 21
0.0
 31
0.0
 40
0.7272852831
 41
4.9598548538
 42
4.9763407995
  0
ELLIPSE
  5
436
100
AcDbEntity
  8
0
100
AcDbEllipse
 62
7
  6
CONTINUOUS
 10
428.7057560983
 20
393.2685811577
 30
0.0
 11
46.9075900582
 21
0.0
 31
0.0
 40
0.3101089012
 41
-1.1365280812
 42
-1.1305197208
  0
ELLIPSE
  5
437
100
AcDbEntity
  8
0
100
AcDbEllipse
 62
7
  6
CONTINUOUS
 10
439.8304348016
 20
393.2685811577
 30
0.0
 11
43.4379340282
 21
0.0
 31
0.0
 40
0.3101090615
 41
-1.3812097995
 42
-1.3752212931
  0
ELLIPSE
  5
438
100
AcDbEntity
  8
0
100
AcDbEllipse
 62
7
  6
CONTINUOUS
 10
447.4967799941
 20
393.2685811577
 30
0.0
 11
20.5235167639
 21
0.0
 31
0.0
 40
0.6447909805
 41
-1.5579162112
 42
-1.545473538
  0
ELLIPSE
  5
439
100
AcDbEntity
  8
0
100
AcDbEllipse
 62
7
  6
CONTINUOUS
 10
448.4384072371
 20
393.2685811577
 30
0.0
 11
-0.0
 21
13.2694410999
 31
0.0
 40
0.682492174
 41
-3.2353113794
 42
-3.2164491622
  0
ELLIPSE
  5
43A
100
AcDbEntity
  8
0
100
AcDbEllipse
 62
7
  6
CONTINUOUS
 10
448.0555712755
 20
393.2685811577
 30
0.0
 11
-0.0
 21
13.3358918659
 31
0.0
 40
0.2554054584
 41
-3.3037119828
 42
-3.2784427604
  0
ELLIPSE
  5
43B
100
AcDbEntity
  8
0
100
AcDbEllipse
 62
7
  6
CONTINUOUS
 10
482.6174597073
 20
393.2685811577
 30
0.0
 11
-0.0
 21
9.4073199027
 31
0.0
 40
0.5113294592
 41
-2.5937591878
 42
-2.5728990518
  0
ELLIPSE
  5
43C
100
AcDbEntity
  8
0
100
AcDbEllipse
 62
7
  6
CONTINUOUS
 10
463.5861935023
 20
393.2685811577
 30
0.0
 11
28.9975394232
 21
-0.0
 31
0.0
 40
0.3782066525
 41
-0.8054162478
 42
-0.784861878
  0
ELLIPSE
  5
43D
100
AcDbEntity
  8
0
100
AcDbEllipse
 62
7
  6
CONTINUOUS
 10
477.6003413046
 20
393.2685811577
 30
0.0
 11
10.1420735798
 21
0.0
 31
0.0
 40
0.9738607411
 41
-0.9595582975
 42
-0.9284746663
  0
ELLIPSE
  5
43E
100
AcDbEntity
  8
0
100
AcDbEllipse
 62
7
  6
CONTINUOUS
 10
450.1904907974
 20
393.2685811577
 30
0.0
 11
0.0
 21
13.120234247
 31
0.0
 40
0.2042994226
 41
-3.3835086369
 42
-3.3509308121
  0
ELLIPSE
  5
43F
100
AcDbEntity
  8
0
100
AcDbEllipse
 62
7
  6
CONTINUOUS
 10
451.1440792796
 20
393.2685811577
 30
0.0
 11
-0.0
 21
13.0006330426
 31
0.0
 40
0.6139613733
 41
-3.3756291766
 42
-3.3428674633
  0
ELLIPSE
  5
440
100
AcDbEntity
  8
0
100
AcDbEllipse
 62
7
  6
CONTINUOUS
 10
480.1916188643
 20
393.2685811577
 30
0.0
 11
0.0
 21
9.6481719013
 31
0.0
 40
0.6139615595
 41
-2.6156626563
 42
-2.5650609921
  0
ELLIPSE
  5
441
100
AcDbEntity
  8
0
100
AcDbEllipse
 62
7
  6
CONTINUOUS
 10
482.2571257499
 20
393.2685811577
 30
0.0
 11
0.0
 21
9.4546914689
 31
0.0
 40
0.2042994697
 41
-2.7013629506
 42
-2.6520666814
  0
ELLIPSE
  5
442
100
AcDbEntity
  8
0
100
AcDbEllipse
 62
7
  6
CONTINUOUS
 10
425.6462479942
 20
393.2685811577
 30
0.0
 11
23.9309841202
 21
-0.0
 31
0.0
 40
0.6447905177
 41
4.98367244
 42
4.9947637627
  0
ELLIPSE
  5
443
100
AcDbEntity
  8
0
100
AcDbEllipse
 62
7
  6
CONTINUOUS
 10
471.0919599014
 20
393.2685811577
 30
0.0
 11
21.6373961901
 21
-0.0
 31
0.0
 40
0.4788834741
 41
-0.8443900428
 42
-0.8231419912
  0
ELLIPSE
  5
444
100
AcDbEntity
  8
0
100
AcDbEllipse
 62
7
  6
CONTINUOUS
 10
448.4813907813
 20
393.2685811577
 30
0.0
 11
0.0
 21
13.2925596132
 31
0.0
 40
0.2554054584
 41
3.331669089
 42
3.3572628664
  0
ELLIPSE
  5
445
100
AcDbEntity
  8
0
100
AcDbEllipse
 62
7
  6
CONTINUOUS
 10
447.0131215481
 20
393.2685811577
 30
0.0
 11
0.0
 21
13.4141811663
 31
0.0
 40
0.682492174
 41
3.3550583425
 42
3.3741228605
  0
ELLIPSE
  5
446
100
AcDbEntity
  8
0
100
AcDbEllipse
 62
7
  6
CONTINUOUS
 10
479.4931406058
 20
393.2685811577
 30
0.0
 11
9.9452920684
 21
0.0
 31
0.0
 40
0.9738609147
 41
-0.9586538439
 42
-0.9269269348
  0
ELLIPSE
  5
447
100
AcDbEntity
  8
0
100
AcDbEllipse
 62
7
  6
CONTINUOUS
 10
482.6067585023
 20
393.2685811577
 30
0.0
 11
0.0
 21
9.8099313667
 31
0.0
 40
0.5113294592
 41
3.6670358757
 42
3.6867622444
  0
ELLIPSE
  5
448
100
AcDbEntity
  8
0
100
AcDbEllipse
 62
7
  6
CONTINUOUS
 10
479.4499850036
 20
393.2685811577
 30
0.0
 11
10.3604003548
 21
-0.0
 31
0.0
 40
0.9738609147
 41
-0.9815141889
 42
-0.9515665392
  0
ELLIPSE
  5
449
100
AcDbEntity
  8
0
100
AcDbEllipse
 62
7
  6
CONTINUOUS
 10
442.6992573127
 20
393.2685811577
 30
0.0
 11
21.2716547503
 21
-0.0
 31
0.0
 40
0.6447911348
 41
4.9982388479
 42
5.0107726908
  0
ELLIPSE
  5
44A
100
AcDbEntity
  8
0
100
AcDbEllipse
 62
7
  6
CONTINUOUS
 10
470.9134873827
 20
393.2685811577
 30
0.0
 11
22.4957484848
 21
0.0
 31
0.0
 40
0.4788834741
 41
5.4157413984
 42
5.4357543193
  0
ELLIPSE
  5
44B
100
AcDbEntity
  8
0
100
AcDbEllipse
 62
7
  6
CONTINUOUS
 10
493.2951946261
 20
393.2685811577
 30
0.0
 11
21.2760100422
 21
-0.0
 31
0.0
 40
0.3782064639
 41
-1.9178312273
 42
-1.8966423556
  0
ELLIPSE
  5
44C
100
AcDbEntity
  8
0
100
AcDbEllipse
 62
7
  6
CONTINUOUS
 10
433.1088900419
 20
393.2685811577
 30
0.0
 11
30.3562429399
 21
-0.0
 31
0.0
 40
0.4788836326
 41
5.2160965494
 42
5.2289471158
  0
ELLIPSE
  5
44D
100
AcDbEntity
  8
0
100
AcDbEllipse
 62
7
  6
CONTINUOUS
 10
439.5187421851
 20
393.2685811577
 30
0.0
 11
19.3490018983
 21
0.0
 31
0.0
 40
0.7272851242
 41
5.1330791994
 42
5.1524388067
  0
ELLIPSE
  5
44E
100
AcDbEntity
  8
0
100
AcDbEllipse
 62
7
  6
CONTINUOUS
 10
444.5482036662
 20
393.2685811577
 30
0.0
 11
-0.0
 21
13.670761947
 31
0.0
 40
0.6139614273
 41
3.458696129
 42
3.4908872504
  0
ELLIPSE
  5
44F
100
AcDbEntity
  8
0
100
AcDbEllipse
 62
7
  6
CONTINUOUS
 10
490.5057832377
 20
393.2685811577
 30
0.0
 11
8.8003926779
 21
0.0
 31
0.0
 40
0.9738609147
 41
-2.0453495432
 42
-2.0129962739
  0
ELLIPSE
  5
450
100
AcDbEntity
  8
0
100
AcDbEllipse
 62
7
  6
CONTINUOUS
 10
446.4101335258
 20
393.2685811577
 30
0.0
 11
-0.0
 21
13.5049778403
 31
0.0
 40
0.2042994405
 41
-2.896254131
 42
-2.8643227152
  0
ELLIPSE
  5
451
100
AcDbEntity
  8
0
100
AcDbEllipse
 62
7
  6
CONTINUOUS
 10
489.2139581244
 20
393.2685811577
 30
0.0
 11
-0.0
 21
8.7315187264
 31
0.0
 40
0.6139614615
 41
-3.6212989888
 42
-3.5683177128
  0
ELLIPSE
  5
452
100
AcDbEntity
  8
0
100
AcDbEllipse
 62
7
  6
CONTINUOUS
 10
487.8084617817
 20
393.2685811577
 30
0.0
 11
0.0
 21
8.8897075744
 31
0.0
 40
0.2042994518
 41
-3.6059106017
 42
-3.5541490114
  0
ELLIPSE
  5
453
100
AcDbEntity
  8
0
100
AcDbEllipse
 62
7
  6
CONTINUOUS
 10
426.4933213922
 20
393.2685811577
 30
0.0
 11
0.0
 21
15.1038208027
 31
0.0
 40
0.6139614273
 41
-2.8492994622
 42
-2.8454302819
  0
ELLIPSE
  5
454
100
AcDbEntity
  8
0
100
AcDbEllipse
 62
7
  6
CONTINUOUS
 10
428.4040565952
 20
393.2685811577
 30
0.0
 11
0.0
 21
14.9355552808
 31
0.0
 40
0.2042994405
 41
3.3650599023
 42
3.3937602554
  0
ELLIPSE
  5
455
100
AcDbEntity
  8
0
100
AcDbEllipse
 62
7
  6
CONTINUOUS
 10
455.719017786
 20
393.2685811577
 30
0.0
 11
14.9654466659
 21
-0.0
 31
0.0
 40
0.8330895328
 41
-1.9281241375
 42
-1.8859515759
  0
ELLIPSE
  5
456
100
AcDbEntity
  8
0
100
AcDbEllipse
 62
7
  6
CONTINUOUS
 10
431.8957195463
 20
393.2685811577
 30
0.0
 11
0.0
 21
14.980351014
 31
0.0
 40
0.2554052756
 41
-2.964532403
 42
-2.9418874379
  0
ELLIPSE
  5
457
100
AcDbEntity
  8
0
100
AcDbEllipse
 62
7
  6
CONTINUOUS
 10
455.7779900359
 20
393.2685811577
 30
0.0
 11
14.4792352746
 21
-0.0
 31
0.0
 40
0.8330895328
 41
-1.9450632357
 42
-1.9012218134
  0
ELLIPSE
  5
458
100
AcDbEntity
  8
0
100
AcDbEllipse
 62
7
  6
CONTINUOUS
 10
429.9393562109
 20
393.2685811577
 30
0.0
 11
-0.0
 21
15.1383356877
 31
0.0
 40
0.7682965627
 41
3.3472353844
 42
3.3697145773
  0
ELLIPSE
  5
459
100
AcDbEntity
  8
0
100
AcDbEllipse
 62
7
  6
CONTINUOUS
 10
429.4963845411
 20
393.2685811577
 30
0.0
 11
20.7382574218
 21
-0.0
 31
0.0
 40
0.7272854129
 41
-1.5580305192
 42
-1.5416113828
  0
ELLIPSE
  5
45A
100
AcDbEntity
  8
0
100
AcDbEllipse
 62
7
  6
CONTINUOUS
 10
430.3378656552
 20
393.2685811577
 30
0.0
 11
0.0
 21
15.1235235065
 31
0.0
 40
0.5113296426
 41
-3.2383360452
 42
-3.2162436075
  0
ELLIPSE
  5
45B
100
AcDbEntity
  8
0
100
AcDbEllipse
 62
7
  6
CONTINUOUS
 10
430.0646945696
 20
393.2685811577
 30
0.0
 11
0.0
 21
15.1666798128
 31
0.0
 40
0.2554052756
 41
-3.286379411
 42
-3.2642105181
  0
ELLIPSE
  5
45C
100
AcDbEntity
  8
0
100
AcDbEllipse
 62
7
  6
CONTINUOUS
 10
430.9671470465
 20
393.2685811577
 30
0.0
 11
23.1012018199
 21
0.0
 31
0.0
 40
0.6447911348
 41
-1.5419491822
 42
-1.5308903915
  0
ELLIPSE
  5
45D
100
AcDbEntity
  8
0
100
AcDbEllipse
 62
7
  6
CONTINUOUS
 10
432.2084705941
 20
393.2685811577
 30
0.0
 11
-0.0
 21
14.9080512217
 31
0.0
 40
0.7682965627
 41
-3.2141502379
 42
-3.1918164957
  0
ELLIPSE
  5
45E
100
AcDbEntity
  8
0
100
AcDbEllipse
 62
7
  6
CONTINUOUS
 10
431.8531366867
 20
393.2685811577
 30
0.0
 11
-0.0
 21
14.9846843317
 31
0.0
 40
0.2554052756
 41
-3.2884696251
 42
-3.2660255326
  0
ELLIPSE
  5
45F
100
AcDbEntity
  8
0
100
AcDbEllipse
 62
7
  6
CONTINUOUS
 10
482.2554174444
 20
393.2685811577
 30
0.0
 11
-0.0
 21
9.8568455695
 31
0.0
 40
0.2042994697
 41
-2.7195672215
 42
-2.6727303205
  0
ELLIPSE
  5
460
100
AcDbEntity
  8
0
100
AcDbEllipse
 62
7
  6
CONTINUOUS
 10
480.1761907299
 20
393.2685811577
 30
0.0
 11
0.0
 21
10.0510235606
 31
0.0
 40
0.6139615595
 41
3.64726582
 42
3.6952137716
  0
ELLIPSE
  5
461
100
AcDbEntity
  8
0
100
AcDbEllipse
 62
7
  6
CONTINUOUS
 10
477.5571856871
 20
393.2685811577
 30
0.0
 11
10.5571819409
 21
0.0
 31
0.0
 40
0.9738607411
 41
5.301238335
 42
5.3306131565
  0
ELLIPSE
  5
462
100
AcDbEntity
  8
0
100
AcDbEllipse
 62
7
  6
CONTINUOUS
 10
463.3000573548
 20
393.2685811577
 30
0.0
 11
30.0984622867
 21
-0.0
 31
0.0
 40
0.3782066525
 41
5.4560359385
 42
5.4754190475
  0
ELLIPSE
  5
463
100
AcDbEntity
  8
0
100
AcDbEllipse
 62
7
  6
CONTINUOUS
 10
491.6979360731
 20
393.2685811577
 30
0.0
 11
21.6911398202
 21
0.0
 31
0.0
 40
0.3782065957
 41
-1.9160511779
 42
-1.8952792358
  0
ELLIPSE
  5
464
100
AcDbEntity
  8
0
100
AcDbEllipse
 62
7
  6
CONTINUOUS
 10
488.0185944535
 20
393.2685811577
 30
0.0
 11
0.0
 21
8.84323427
 31
0.0
 40
0.7682963899
 41
-3.6380530681
 42
-3.5957858153
  0
ELLIPSE
  5
465
100
AcDbEntity
  8
0
100
AcDbEllipse
 62
7
  6
CONTINUOUS
 10
487.1403180069
 20
393.2685811577
 30
0.0
 11
0.0
 21
8.947531622
 31
0.0
 40
0.5113294592
 41
-3.6191057995
 42
-3.5982717853
  0
ELLIPSE
  5
466
100
AcDbEntity
  8
0
100
AcDbEllipse
 62
7
  6
CONTINUOUS
 10
487.9944349148
 20
393.2685811577
 30
0.0
 11
-0.0
 21
9.2465292327
 31
0.0
 40
0.7682963899
 41
-3.6107563871
 42
-3.5708555934
  0
ELLIPSE
  5
467
100
AcDbEntity
  8
0
100
AcDbEllipse
 62
7
  6
CONTINUOUS
 10
487.129616802
 20
393.2685811577
 30
0.0
 11
0.0
 21
9.3501430859
 31
0.0
 40
0.5113294592
 41
-3.5944590257
 42
-3.5747557044
  0
ELLIPSE
  5
468
100
AcDbEntity
  8
0
100
AcDbEllipse
 62
7
  6
CONTINUOUS
 10
493.0090581933
 20
393.2685811577
 30
0.0
 11
22.3769334917
 21
0.0
 31
0.0
 40
0.3782064639
 41
-1.8866107562
 42
-1.8666684342
  0
ELLIPSE
  5
469
100
AcDbEntity
  8
0
100
AcDbEllipse
 62
7
  6
CONTINUOUS
 10
490.4626276355
 20
393.2685811577
 30
0.0
 11
9.2155009643
 21
0.0
 31
0.0
 40
0.9738609147
 41
-2.0171456806
 42
-1.9866489483
  0
ELLIPSE
  5
46A
100
AcDbEntity
  8
0
100
AcDbEllipse
 62
7
  6
CONTINUOUS
 10
489.1985299949
 20
393.2685811577
 30
0.0
 11
-0.0
 21
9.1343703854
 31
0.0
 40
0.6139614615
 41
-3.5954252419
 42
-3.5453615404
  0
ELLIPSE
  5
46B
100
AcDbEntity
  8
0
100
AcDbEllipse
 62
7
  6
CONTINUOUS
 10
487.8067534765
 20
393.2685811577
 30
0.0
 11
-0.0
 21
9.291861675
 31
0.0
 40
0.2042994518
 41
-3.583353243
 42
-3.5343088933
  0
ELLIPSE
  5
46C
100
AcDbEntity
  8
0
100
AcDbEllipse
 62
7
  6
CONTINUOUS
 10
491.4117998397
 20
393.2685811577
 30
0.0
 11
22.7920628603
 21
0.0
 31
0.0
 40
0.3782065957
 41
-1.885500121
 42
-1.8659267567
  0
ELLIPSE
  5
46D
100
AcDbEntity
  8
0
100
AcDbEllipse
 62
7
  6
CONTINUOUS
 10
486.1025488231
 20
393.2685811577
 30
0.0
 11
0.0
 21
9.464154611
 31
0.0
 40
0.255405367
 41
-3.4830904705
 42
-3.4459604309
  0
ELLIPSE
  5
46E
100
AcDbEntity
  8
0
100
AcDbEllipse
 62
7
  6
CONTINUOUS
 10
487.1809791585
 20
393.2685811577
 30
0.0
 11
0.0
 21
9.3290839937
 31
0.0
 40
0.7682965627
 41
-3.3958531022
 42
-3.3592142574
  0
ELLIPSE
  5
46F
100
AcDbEntity
  8
0
100
AcDbEllipse
 62
7
  6
CONTINUOUS
 10
487.6214874119
 20
393.2685811577
 30
0.0
 11
14.2663017489
 21
0.0
 31
0.0
 40
0.6447920801
 41
-1.7106027174
 42
-1.6925516673
  0
ELLIPSE
  5
470
100
AcDbEntity
  8
0
100
AcDbEllipse
 62
7
  6
CONTINUOUS
 10
418.3520683292
 20
393.2685811577
 30
0.0
 11
0.0
 21
16.3501103702
 31
0.0
 40
0.9121387867
 41
-3.6185329681
 42
-3.5305055422
  0
ELLIPSE
  5
471
100
AcDbEntity
  8
0
100
AcDbEllipse
 62
7
  6
CONTINUOUS
 10
417.3650891417
 20
393.2685811577
 30
0.0
 11
0.0
 21
15.9931634826
 31
0.0
 40
0.9158080288
 41
-3.4131799535
 42
-3.3992095133
  0
ELLIPSE
  5
472
100
AcDbEntity
  8
0
100
AcDbEllipse
 62
7
  6
CONTINUOUS
 10
401.5278416597
 20
393.2685811577
 30
0.0
 11
27.6920323631
 21
0.0
 31
0.0
 40
0.6447920801
 41
5.1854255712
 42
5.19581065
  0
ELLIPSE
  5
473
100
AcDbEntity
  8
0
100
AcDbEllipse
 62
7
  6
CONTINUOUS
 10
409.7846448503
 20
393.2685811577
 30
0.0
 11
0.0
 21
17.1947931739
 31
0.0
 40
0.682492174
 41
3.5457433774
 42
3.5615728484
  0
ELLIPSE
  5
474
100
AcDbEntity
  8
0
100
AcDbEllipse
 62
7
  6
CONTINUOUS
 10
413.3064601337
 20
393.2685811577
 30
0.0
 11
0.0
 21
16.8740843423
 31
0.0
 40
0.2042994811
 41
3.5167462932
 42
3.5434222341
  0
ELLIPSE
  5
475
100
AcDbEntity
  8
0
100
AcDbEllipse
 62
7
  6
CONTINUOUS
 10
484.3141067052
 20
393.2685811577
 30
0.0
 11
0.0
 21
9.6461500921
 31
0.0
 40
0.255405367
 41
-3.47587342
 42
-3.4395261827
  0
ELLIPSE
  5
476
100
AcDbEntity
  8
0
100
AcDbEllipse
 62
7
  6
CONTINUOUS
 10
484.9108562264
 20
393.2685811577
 30
0.0
 11
0.0
 21
9.5756995816
 31
0.0
 40
0.5113296426
 41
-3.41454865
 42
-3.3786218246
  0
ELLIPSE
  5
477
100
AcDbEntity
  8
0
100
AcDbEllipse
 62
7
  6
CONTINUOUS
 10
485.7112782255
 20
393.2685811577
 30
0.0
 11
12.9459516827
 21
-0.0
 31
0.0
 40
0.7272854129
 41
-1.7220105574
 42
-1.6954616999
  0
ELLIPSE
  5
478
100
AcDbEntity
  8
0
100
AcDbEllipse
 62
7
  6
CONTINUOUS
 10
483.6274596129
 20
393.2685811577
 30
0.0
 11
0.0
 21
9.6897182381
 31
0.0
 40
0.7682965627
 41
3.5108401015
 42
3.5478887682
  0
ELLIPSE
  5
479
100
AcDbEntity
  8
0
100
AcDbEllipse
 62
7
  6
CONTINUOUS
 10
485.71931161
 20
393.2685811577
 30
0.0
 11
-0.0
 21
9.5031536037
 31
0.0
 40
0.255405367
 41
3.4995210555
 42
3.5372327398
  0
ELLIPSE
  5
47A
100
AcDbEntity
  8
0
100
AcDbEllipse
 62
7
  6
CONTINUOUS
 10
420.7303624773
 20
393.2685811577
 30
0.0
 11
16.054404454
 21
0.0
 31
0.0
 40
0.9738609
 41
-1.9703879385
 42
-1.947478911
  0
ELLIPSE
  5
47B
100
AcDbEntity
  8
0
100
AcDbEllipse
 62
7
  6
CONTINUOUS
 10
418.1880489489
 20
393.2685811577
 30
0.0
 11
0.0
 21
15.9571355286
 31
0.0
 40
0.5113295509
 41
-3.5664352024
 42
-3.543654151
  0
ELLIPSE
  5
47C
100
AcDbEntity
  8
0
100
AcDbEllipse
 62
7
  6
CONTINUOUS
 10
415.9934879505
 20
393.2685811577
 30
0.0
 11
0.0
 21
16.200349154
 31
0.0
 40
0.1459127373
 41
-3.5776106663
 42
-3.5382418921
  0
ELLIPSE
  5
47D
100
AcDbEntity
  8
0
100
AcDbEllipse
 62
7
  6
CONTINUOUS
 10
431.2179913225
 20
393.2685811577
 30
0.0
 11
38.4367628999
 21
-0.0
 31
0.0
 40
0.378206777
 41
-1.5932019793
 42
-1.5821293842
  0
ELLIPSE
  5
47E
100
AcDbEntity
  8
0
100
AcDbEllipse
 62
7
  6
CONTINUOUS
 10
433.6131112862
 20
393.2685811577
 30
0.0
 11
0.0
 21
14.8073871035
 31
0.0
 40
0.2042994226
 41
-3.3473123584
 42
-3.3186551003
  0
ELLIPSE
  5
47F
100
AcDbEntity
  8
0
100
AcDbEllipse
 62
7
  6
CONTINUOUS
 10
415.9926165507
 20
393.2685811577
 30
0.0
 11
0.0
 21
16.6024606645
 31
0.0
 40
0.1459127373
 41
-3.5659604816
 42
-3.5277303282
  0
ELLIPSE
  5
480
100
AcDbEntity
  8
0
100
AcDbEllipse
 62
7
  6
CONTINUOUS
 10
418.1773477401
 20
393.2685811577
 30
0.0
 11
-0.0
 21
16.3597469928
 31
0.0
 40
0.5113295509
 41
-3.5539328165
 42
-3.531828759
  0
ELLIPSE
  5
481
100
AcDbEntity
  8
0
100
AcDbEllipse
 62
7
  6
CONTINUOUS
 10
420.6872068738
 20
393.2685811577
 30
0.0
 11
16.4695127467
 21
0.0
 31
0.0
 40
0.9738609
 41
-1.9569370962
 42
-1.9347226214
  0
ELLIPSE
  5
482
100
AcDbEntity
  8
0
100
AcDbEllipse
 62
7
  6
CONTINUOUS
 10
418.3434597115
 20
393.2685811577
 30
0.0
 11
66.8526931683
 21
0.0
 31
0.0
 40
0.222621808
 41
-1.6336528733
 42
-1.628551421
  0
ELLIPSE
  5
483
100
AcDbEntity
  8
0
100
AcDbEllipse
 62
7
  6
CONTINUOUS
 10
418.3429471307
 20
393.2685811577
 30
0.0
 11
-0.0
 21
16.7503853924
 31
0.0
 40
0.9121387867
 41
-3.6055561576
 42
-3.5193185116
  0
ELLIPSE
  5
484
100
AcDbEntity
  8
0
100
AcDbEllipse
 62
7
  6
CONTINUOUS
 10
487.2051387081
 20
393.2685811577
 30
0.0
 11
0.0
 21
8.9257890305
 31
0.0
 40
0.7682965627
 41
-3.4085060125
 42
-3.3728343404
  0
ELLIPSE
  5
485
100
AcDbEntity
  8
0
100
AcDbEllipse
 62
7
  6
CONTINUOUS
 10
418.075991657
 20
393.2685811577
 30
0.0
 11
33.4819447902
 21
0.0
 31
0.0
 40
0.4788837202
 41
-1.7038732125
 42
-1.6936219331
  0
ELLIPSE
  5
486
100
AcDbEntity
  8
0
100
AcDbEllipse
 62
7
  6
CONTINUOUS
 10
417.330761818
 20
393.2685811577
 30
0.0
 11
-0.0
 21
16.3969740621
 31
0.0
 40
0.9158080288
 41
-3.4011686415
 42
-3.3903671633
  0
ELLIPSE
  5
487
100
AcDbEntity
  8
0
100
AcDbEllipse
 62
7
  6
CONTINUOUS
 10
487.7199319587
 20
393.2685811577
 30
0.0
 11
13.6350176737
 21
-0.0
 31
0.0
 40
0.6447920801
 41
-1.7244230792
 42
-1.7055012563
  0
ELLIPSE
  5
488
100
AcDbEntity
  8
0
100
AcDbEllipse
 62
7
  6
CONTINUOUS
 10
419.169299193
 20
393.2685811577
 30
0.0
 11
64.8667816927
 21
0.0
 31
0.0
 40
0.222621808
 41
-1.648343607
 42
-1.6430807681
  0
ELLIPSE
  5
489
100
AcDbEntity
  8
0
100
AcDbEllipse
 62
7
  6
CONTINUOUS
 10
414.9973940047
 20
393.2685811577
 30
0.0
 11
0.0
 21
16.8420157748
 31
0.0
 40
0.9121387867
 41
-3.3708804468
 42
-3.2911734308
  0
ELLIPSE
  5
48A
100
AcDbEntity
  8
0
100
AcDbEllipse
 62
7
  6
CONTINUOUS
 10
479.683770582
 20
393.2685811577
 30
0.0
 11
15.504150296
 21
0.0
 31
0.0
 40
0.644791463
 41
5.1361529435
 42
5.1542939291
  0
ELLIPSE
  5
48B
100
AcDbEntity
  8
0
100
AcDbEllipse
 62
7
  6
CONTINUOUS
 10
409.8037093935
 20
393.2685811577
 30
0.0
 11
0.0
 21
16.7917568307
 31
0.0
 40
0.682492174
 41
3.554215065
 42
3.570486925
  0
ELLIPSE
  5
48C
100
AcDbEntity
  8
0
100
AcDbEllipse
 62
7
  6
CONTINUOUS
 10
401.6262862065
 20
393.2685811577
 30
0.0
 11
27.0607482878
 21
-0.0
 31
0.0
 40
0.6447920801
 41
-1.0898911932
 42
-1.0792191802
  0
ELLIPSE
  5
48D
100
AcDbEntity
  8
0
100
AcDbEllipse
 62
7
  6
CONTINUOUS
 10
418.2544639922
 20
393.2685811577
 30
0.0
 11
32.6235929557
 21
0.0
 31
0.0
 40
0.4788837202
 41
-1.7129204399
 42
-1.7023869519
  0
ELLIPSE
  5
48E
100
AcDbEntity
  8
0
100
AcDbEllipse
 62
7
  6
CONTINUOUS
 10
483.6516191625
 20
393.2685811577
 30
0.0
 11
-0.0
 21
9.2864232749
 31
0.0
 40
0.7682965627
 41
3.5240500412
 42
3.5629361803
  0
ELLIPSE
  5
48F
100
AcDbEntity
  8
0
100
AcDbEllipse
 62
7
  6
CONTINUOUS
 10
479.7822153172
 20
393.2685811577
 30
0.0
 11
14.8728656018
 21
0.0
 31
0.0
 40
0.644791463
 41
-1.1351145176
 42
-1.1160934441
  0
ELLIPSE
  5
490
100
AcDbEntity
  8
0
100
AcDbEllipse
 62
7
  6
CONTINUOUS
 10
415.4575440319
 20
393.2685811577
 30
0.0
 11
-0.0
 21
16.6569231181
 31
0.0
 40
0.1459126926
 41
-3.333004895
 42
-3.2974518243
  0
ELLIPSE
  5
491
100
AcDbEntity
  8
0
100
AcDbEllipse
 62
7
  6
CONTINUOUS
 10
416.2999341072
 20
393.2685811577
 30
0.0
 11
-0.0
 21
16.5506026061
 31
0.0
 40
0.5113292759
 41
-3.3167777681
 42
-3.2963874848
  0
ELLIPSE
  5
492
100
AcDbEntity
  8
0
100
AcDbEllipse
 62
7
  6
CONTINUOUS
 10
416.9016113443
 20
393.2685811577
 30
0.0
 11
16.8630756483
 21
0.0
 31
0.0
 40
0.97386068
 41
-1.7146279258
 42
-1.6942583041
  0
ELLIPSE
  5
493
100
AcDbEntity
  8
0
100
AcDbEllipse
 62
7
  6
CONTINUOUS
 10
413.9925657015
 20
393.2685811577
 30
0.0
 11
0.0
 21
16.3349920357
 31
0.0
 40
0.9158080288
 41
-3.1788081426
 42
-3.1655999171
  0
ELLIPSE
  5
494
100
AcDbEntity
  8
0
100
AcDbEllipse
 62
7
  6
CONTINUOUS
 10
400.2328116283
 20
393.2685811577
 30
0.0
 11
74.3840628624
 21
0.0
 31
0.0
 40
0.2226215433
 41
-1.3826688891
 42
-1.3780080136
  0
ELLIPSE
  5
495
100
AcDbEntity
  8
0
100
AcDbEllipse
 62
7
  6
CONTINUOUS
 10
410.2482035099
 20
393.2685811577
 30
0.0
 11
35.1095835792
 21
0.0
 31
0.0
 40
0.4788830042
 41
-1.4742266196
 42
-1.4644803922
  0
ELLIPSE
  5
496
100
AcDbEntity
  8
0
100
AcDbEllipse
 62
7
  6
CONTINUOUS
 10
413.9582383778
 20
393.2685811577
 30
0.0
 11
0.0
 21
16.7388026152
 31
0.0
 40
0.9158080288
 41
-3.1730252861
 42
-3.1627808015
  0
ELLIPSE
  5
497
100
AcDbEntity
  8
0
100
AcDbEllipse
 62
7
  6
CONTINUOUS
 10
434.4749661928
 20
393.2685811577
 30
0.0
 11
0.0
 21
14.6941844384
 31
0.0
 40
0.613961726
 41
-3.3351271763
 42
-3.3063652028
  0
ELLIPSE
  5
498
100
AcDbEntity
  8
0
100
AcDbEllipse
 62
7
  6
CONTINUOUS
 10
435.0122468619
 20
393.2685811577
 30
0.0
 11
14.9802416001
 21
0.0
 31
0.0
 40
0.9738613841
 41
-1.7403447208
 42
-1.7230777135
  0
ELLIPSE
  5
499
100
AcDbEntity
  8
0
100
AcDbEllipse
 62
7
  6
CONTINUOUS
 10
432.8152394357
 20
393.2685811577
 30
0.0
 11
38.021666956
 21
0.0
 31
0.0
 40
0.3782063733
 41
-1.5906875933
 42
-1.5794945594
  0
ELLIPSE
  5
49A
100
AcDbEntity
  8
0
100
AcDbEllipse
 62
7
  6
CONTINUOUS
 10
432.5566276972
 20
393.2685811577
 30
0.0
 11
0.0
 21
14.8979668239
 31
0.0
 40
0.5113300093
 41
-3.342328747
 42
-3.3309406898
  0
ELLIPSE
  5
49B
100
AcDbEntity
  8
0
100
AcDbEllipse
 62
7
  6
CONTINUOUS
 10
433.0219264964
 20
393.2685811577
 30
0.0
 11
0.0
 21
14.8254964656
 31
0.0
 40
0.7682962862
 41
-3.3394981952
 42
-3.3166868012
  0
ELLIPSE
  5
49C
100
AcDbEntity
  8
0
100
AcDbEllipse
 62
7
  6
CONTINUOUS
 10
415.4584154312
 20
393.2685811577
 30
0.0
 11
-0.0
 21
16.2548116076
 31
0.0
 40
0.1459126926
 41
-3.338175592
 42
-3.3017123449
  0
ELLIPSE
  5
49D
100
AcDbEntity
  8
0
100
AcDbEllipse
 62
7
  6
CONTINUOUS
 10
416.3106353045
 20
393.2685811577
 30
0.0
 11
0.0
 21
16.1479911426
 31
0.0
 40
0.5113292759
 41
-3.3225099358
 42
-3.3015918923
  0
ELLIPSE
  5
49E
100
AcDbEntity
  8
0
100
AcDbEllipse
 62
7
  6
CONTINUOUS
 10
416.9447669673
 20
393.2685811577
 30
0.0
 11
16.4479672608
 21
0.0
 31
0.0
 40
0.97386068
 41
-1.7037991639
 42
-1.7000361202
  0
ELLIPSE
  5
49F
100
AcDbEntity
  8
0
100
AcDbEllipse
 62
7
  6
CONTINUOUS
 10
484.921557439
 20
393.2685811577
 30
0.0
 11
0.0
 21
9.1730881173
 31
0.0
 40
0.5113296426
 41
-3.4265893347
 42
-3.3915922518
  0
ELLIPSE
  5
4A0
100
AcDbEntity
  8
0
100
AcDbEllipse
 62
7
  6
CONTINUOUS
 10
485.7886569023
 20
393.2685811577
 30
0.0
 11
12.3877299915
 21
-0.0
 31
0.0
 40
0.7272854129
 41
-1.735209213
 42
-1.7074132004
  0
ELLIPSE
  5
4A1
100
AcDbEntity
  8
0
100
AcDbEllipse
 62
7
  6
CONTINUOUS
 10
479.0297012176
 20
393.2685811577
 30
0.0
 11
13.8721302093
 21
0.0
 31
0.0
 40
0.7272852831
 41
5.1065340908
 42
5.133263973
  0
ELLIPSE
  5
4A2
100
AcDbEntity
  8
0
100
AcDbEllipse
 62
7
  6
CONTINUOUS
 10
414.0557200596
 20
393.2685811577
 30
0.0
 11
0.0
 21
16.7978288607
 31
0.0
 40
0.2042995395
 41
3.2919075566
 42
3.3170402834
  0
ELLIPSE
  5
4A3
100
AcDbEntity
  8
0
100
AcDbEllipse
 62
7
  6
CONTINUOUS
 10
412.2931484163
 20
393.2685811577
 30
0.0
 11
-0.0
 21
16.9400505805
 31
0.0
 40
0.682492174
 41
3.3247959475
 42
3.3397903451
  0
ELLIPSE
  5
4A4
100
AcDbEntity
  8
0
100
AcDbEllipse
 62
7
  6
CONTINUOUS
 10
407.284844215
 20
393.2685811577
 30
0.0
 11
26.7943044896
 21
0.0
 31
0.0
 40
0.6447911348
 41
4.9712675643
 42
4.9811379515
  0
ELLIPSE
  5
4A5
100
AcDbEntity
  8
0
100
AcDbEllipse
 62
7
  6
CONTINUOUS
 10
483.0334424426
 20
393.2685811577
 30
0.0
 11
0.0
 21
9.7665551861
 31
0.0
 40
0.5113296426
 41
3.4812602368
 42
3.5176515329
  0
ELLIPSE
  5
4A6
100
AcDbEntity
  8
0
100
AcDbEllipse
 62
7
  6
CONTINUOUS
 10
484.0160333342
 20
393.2685811577
 30
0.0
 11
0.0
 21
9.6764826402
 31
0.0
 40
0.255405367
 41
3.4933253024
 42
3.5302659935
  0
ELLIPSE
  5
4A7
100
AcDbEntity
  8
0
100
AcDbEllipse
 62
7
  6
CONTINUOUS
 10
407.669858227
 20
393.2685811577
 30
0.0
 11
44.5570492233
 21
-0.0
 31
0.0
 40
0.3782068338
 41
5.2289434929
 42
5.2399614993
  0
ELLIPSE
  5
4A8
100
AcDbEntity
  8
0
100
AcDbEllipse
 62
7
  6
CONTINUOUS
 10
423.8275281248
 20
393.2685811577
 30
0.0
 11
16.1430471392
 21
0.0
 31
0.0
 40
0.9738603303
 41
5.0661998406
 42
5.08311387
  0
ELLIPSE
  5
4A9
100
AcDbEntity
  8
0
100
AcDbEllipse
 62
7
  6
CONTINUOUS
 10
426.4778932644
 20
393.2685811577
 30
0.0
 11
-0.0
 21
15.5066724616
 31
0.0
 40
0.6139614273
 41
3.4277662712
 42
3.4558406335
  0
ELLIPSE
  5
4AA
100
AcDbEntity
  8
0
100
AcDbEllipse
 62
7
  6
CONTINUOUS
 10
473.0390113347
 20
393.2685811577
 30
0.0
 11
12.3856577084
 21
0.0
 31
0.0
 40
0.8330895328
 41
-1.9473554123
 42
-1.8961282024
  0
ELLIPSE
  5
4AB
100
AcDbEntity
  8
0
100
AcDbEllipse
 62
7
  6
CONTINUOUS
 10
428.4023482902
 20
393.2685811577
 30
0.0
 11
-0.0
 21
15.3377093814
 31
0.0
 40
0.2042994405
 41
-2.9235218667
 42
-2.8956128047
  0
ELLIPSE
  5
4AC
100
AcDbEntity
  8
0
100
AcDbEllipse
 62
7
  6
CONTINUOUS
 10
483.0441436552
 20
393.2685811577
 30
0.0
 11
0.0
 21
9.3639437218
 31
0.0
 40
0.5113296426
 41
3.4941125313
 42
3.5263087185
  0
ELLIPSE
  5
4AD
100
AcDbEntity
  8
0
100
AcDbEllipse
 62
7
  6
CONTINUOUS
 10
479.107079922
 20
393.2685811577
 30
0.0
 11
13.3139084165
 21
0.0
 31
0.0
 40
0.7272852831
 41
-1.1654814359
 42
-1.137486173
  0
ELLIPSE
  5
4AE
100
AcDbEntity
  8
0
100
AcDbEllipse
 62
7
  6
CONTINUOUS
 10
442.7977021482
 20
393.2685811577
 30
0.0
 11
20.6403697269
 21
-0.0
 31
0.0
 40
0.6447911348
 41
-1.2809264435
 42
-1.2722993634
  0
ELLIPSE
  5
4AF
100
AcDbEntity
  8
0
100
AcDbEllipse
 62
7
  6
CONTINUOUS
 10
429.1313570482
 20
393.2685811577
 30
0.0
 11
45.5429874986
 21
-0.0
 31
0.0
 40
0.3101089012
 41
-1.1329295512
 42
-1.1267304154
  0
ENDSEC
  0
SECTION
  2
OBJECTS
  0
DICTIONARY
  5
C
100
AcDbDictionary
280
0
281
1
  3
ACAD_GROUP
350
D
  3
ACAD_MLINESTYLE
350
17
  3
ACAD_LAYOUT
350
1A
  3
ACAD_PLOTSETTINGS
350
19
  3
ACAD_PLOTSTYLENAME
350
E
  0
DICTIONARY
  5
D
102
{ACAD_REACTORS
330
C
102
}
100
AcDbDictionary
280
0
281
1
  0
ACDBDICTIONARYWDFLT
  5
E
102
{ACAD_REACTORS
330
C
102
}
100
AcDbDictionary
281
1
  3
Normal
350
F
100
AcDbDictionaryWithDefault
340
F
  0
DICTIONARY
  5
17
102
{ACAD_REACTORS
330
C
102
}
100
AcDbDictionary
280
0
281
1
  3
Standard
350
18
  0
DICTIONARY
  5
19
102
{ACAD_REACTORS
330
C
102
}
100
AcDbDictionary
281
1
  0
DICTIONARY
  5
1A
102
{ACAD_REACTORS
330
C
102
}
100
AcDbDictionary
281
1
  3
Model
350
4B0
  3
Layout1
350
4B1
  0
ACDBPLACEHOLDER
  5
F
102
{ACAD_REACTORS
330
E
102
}
  0
MLINESTYLE
  5
18
102
{ACAD_REACTORS
330
17
102
}
100
AcDbMlineStyle
  2
STANDARD
 70
0
  3

 62
256
 51
90.0
 52
90.0
 71
2
 49
0.5
 62
256
  6
BYLAYER
 49
-0.5
 62
256
  6
BYLAYER
  0
LAYOUT
  5
4B0
102
{ACAD_REACTORS
330
1A
102
}
100
AcDbPlotSettings
  1

  2
none_device
  4

  6

 40
0.0
 41
0.0
 42
0.0
 43
0.0
 44
210.0
 45
297.0
 46
0.0
 47
0.0
 48
0.0
 49
0.0
140
0.0
141
0.0
142
1.0
143
1.0
 70
1024
 72
1
 73
0
 74
0
  7

 75
0
147
1.0
148
0.0
149
0.0
100
AcDbLayout
  1
Model
 70
0
 71
0
 10
0.0
 20
0.0
 11
210.0
 21
297.0
 12
0.0
 22
0.0
 32
0.0
 14
0.0
 24
0.0
 34
0.0
 15
0.0
 25
0.0
 35
0.0
146
0.0
 13
0.0
 23
0.0
 33
0.0
 16
1.0
 26
0.0
 36
0.0
 17
0.0
 27
1.0
 37
0.0
 76
0
330
210
345
0
346
0
  0
LAYOUT
  5
4B1
102
{ACAD_REACTORS
330
1A
102
}
100
AcDbPlotSettings
  1

  2
none_device
  4

  6

 40
0.0
 41
0.0
 42
0.0
 43
0.0
 44
210.0
 45
297.0
 46
0.0
 47
0.0
 48
0.0
 49
0.0
140
0.0
141
0.0
142
1.0
143
1.0
 70
0
 72
1
 73
0
 74
0
  7

 75
0
147
1.0
148
0.0
149
0.0
100
AcDbLayout
  1
Layout1
 70
0
 71
1
 10
0.0
 20
0.0
 11
210.0
 21
297.0
 12
0.0
 22
0.0
 32
0.0
 14
0.0
 24
0.0
 34
0.0
 15
0.0
 25
0.0
 35
0.0
146
0.0
 13
0.0
 23
0.0
 33
0.0
 16
1.0
 26
0.0
 36
0.0
 17
0.0
 27
1.0
 37
0.0
 76
0
330
211
345
0
346
0
  0
ENDSEC
  0
EOF
