999
DXF file: C:\Users\sesa63760\Dev\_Creo\CAD\MCADPE0010540_3D-CAD\drw0001_1.dxf
999
Pro/ENGINEER 2019471 by Parametric Technology Corporation
  0
SECTION
  2
HEADER
  9
$ACADVER
  1
AC1024
  9
$DWGCODEPAGE
  3
ANSI_1252
  9
$EXTMAX
 10
47.5368010121
 20
67.2306185742
 30
0.0
  9
$EXTMIN
 10
0.0
 20
0.0
 30
0.0
  9
$LIMMIN
 10
0.0
 20
0.0
  9
$LIMMAX
 10
47.5368010121
 20
67.2306185742
  9
$VIEWCTR
 10
23.768400506
 20
33.6153092871
  9
$VIEWSIZE
 40
67.2306185742
  9
$CLAYER
  8
0
  9
$LTSCALE
 40
4.3824403219
  9
$CELTYPE
  6
BYLAYER
  9
$DIMSCALE
 40
1.0
  9
$DIMASZ
 40
0.5659142978
  9
$DIMEXO
 40
1.0
  9
$DIMDLI
 40
3.0278678587
  9
$DIMEXE
 40
1.0
  9
$DIMCEN
 40
0.7171265981
  9
$DIMLFAC
 40
1.0
  9
$DIMBLK
  1
_FILLED
  9
$DIMALT
 70
0
  9
$DIMALTF
 40
0.0393700787
  9
$DIMTXT
 40
0.7922800169
  9
$DIMTOL
 70
1
  9
$DIMLIM
 70
0
  9
$DIMTFAC
 40
1.0
  9
$DIMTP
 40
0.01
  9
$DIMTM
 40
0.01
  9
$DIMGAP
 40
0.625
  9
$DIMDSEP
 70
46
  9
$AUNITS
 70
0
  9
$PDMODE
 70
3
  9
$PDSIZE
 40
0.3125
  9
$HANDSEED
  5
3D5
  9
$TILEMODE
 70
1
  9
$MEASUREMENT
 70
1
  9
$INSUNITS
 70
4
  0
ENDSEC
  0
SECTION
  2
CLASSES
  0
CLASS
  1
ACDBDICTIONARYWDFLT
  2
AcDbDictionaryWithDefault
  3
AutoCAD 2000
 90
0
 91
1
280
0
281
0
  0
CLASS
  1
ACDBPLACEHOLDER
  2
AcDbPlaceHolder
  3
AutoCAD 2000
 90
0
 91
1
280
0
281
0
  0
CLASS
  1
LAYOUT
  2
AcDbLayout
  3
AutoCAD 2000
 90
0
 91
0
280
0
281
0
  0
ENDSEC
  0
SECTION
  2
TABLES
  0
TABLE
  2
VPORT
  5
8
100
AcDbSymbolTable
 70
2
  0
VPORT
  5
1F4
100
AcDbSymbolTableRecord
100
AcDbViewportTableRecord
  2
*ACTIVE
 70
0
 10
0.0
 20
0.0
 11
1.0
 21
1.0
 12
23.768400506
 22
33.6153092871
 13
0.0
 23
0.0
 14
1.0
 24
1.0
 15
0.0
 25
0.0
 16
0.0
 26
0.0
 36
1.0
 17
0.0
 27
0.0
 37
0.0
 40
67.2306185742
 41
0.7070707071
 42
50.0
 43
0.0
 44
0.0
 50
0.0
 51
0.0
 71
0
 72
100
 73
1
 74
1
 75
0
 76
0
 77
0
 78
0
  0
ENDTAB
  0
TABLE
  2
LTYPE
  5
5
100
AcDbSymbolTable
 70
6
  0
LTYPE
  5
14
100
AcDbSymbolTableRecord
100
AcDbLinetypeTableRecord
  2
BYBLOCK
 70
0
  3

 72
65
 73
0
 40
0.0
  0
LTYPE
  5
15
100
AcDbSymbolTableRecord
100
AcDbLinetypeTableRecord
  2
BYLAYER
 70
0
  3

 72
65
 73
0
 40
0.0
  0
LTYPE
  5
16
100
AcDbSymbolTableRecord
100
AcDbLinetypeTableRecord
  2
CONTINUOUS
 70
64
  3
Solid line
 72
65
 73
0
 40
0.0
  0
LTYPE
  5
1F5
100
AcDbSymbolTableRecord
100
AcDbLinetypeTableRecord
  2
CENTER
 70
64
  3
____ _ ____ _ ____ _ ____ _ ____ _ ____ _ ____
 72
65
 73
4
 40
0.6
 49
0.375
 74
0
 49
-0.075
 74
0
 49
0.075
 74
0
 49
-0.075
 74
0
  0
LTYPE
  5
1F6
100
AcDbSymbolTableRecord
100
AcDbLinetypeTableRecord
  2
HIDDEN
 70
64
  3
- - - - - - - - - - - - - - - - - - - -
 72
65
 73
2
 40
0.2
 49
0.1
 74
0
 49
-0.1
 74
0
  0
LTYPE
  5
1F7
100
AcDbSymbolTableRecord
100
AcDbLinetypeTableRecord
  2
PHANTOM
 70
64
  3
_____ _ _ _____ _ _ _____ _ _ _____
 72
65
 73
6
 40
0.8
 49
0.45
 74
0
 49
-0.05
 74
0
 49
0.1
 74
0
 49
-0.05
 74
0
 49
0.1
 74
0
 49
-0.05
 74
0
  0
LTYPE
  5
1F8
100
AcDbSymbolTableRecord
100
AcDbLinetypeTableRecord
  2
DOT
 70
64
  3
. . . . . . . . . . . . . . . . . . . .
 72
65
 73
2
 40
0.2
 49
0.1
 74
0
 49
-0.1
 74
0
  0
LTYPE
  5
1F9
100
AcDbSymbolTableRecord
100
AcDbLinetypeTableRecord
  2
DASHED
 70
64
  3
- - - - - - - - - - - - - - - - - - - -
 72
65
 73
2
 40
0.2
 49
0.1
 74
0
 49
-0.1
 74
0
  0
ENDTAB
  0
TABLE
  2
LAYER
  5
2
100
AcDbSymbolTable
 70
36
  0
LAYER
  5
10
100
AcDbSymbolTableRecord
100
AcDbLayerTableRecord
  2
0
 70
0
 62
7
  6
CONTINUOUS
370
-3
390
F
  0
LAYER
  5
1FA
100
AcDbSymbolTableRecord
100
AcDbLayerTableRecord
  2
DEFAULT_1
 70
0
 62
7
  6
CENTER
370
-3
390
F
  0
LAYER
  5
1FB
100
AcDbSymbolTableRecord
100
AcDbLayerTableRecord
  2
DEFAULT_2
 70
0
 62
7
  6
HIDDEN
370
-3
390
F
  0
LAYER
  5
1FC
100
AcDbSymbolTableRecord
100
AcDbLayerTableRecord
  2
DEFAULT_3
 70
0
 62
7
  6
PHANTOM
370
-3
390
F
  0
LAYER
  5
1FD
100
AcDbSymbolTableRecord
100
AcDbLayerTableRecord
  2
00_COMPONENTS
 70
0
 62
7
  6
CONTINUOUS
370
-3
390
F
  0
LAYER
  5
1FE
100
AcDbSymbolTableRecord
100
AcDbLayerTableRecord
  2
01_1_DEFAULT_DATUMS
 70
0
 62
7
  6
CONTINUOUS
370
-3
390
F
  0
LAYER
  5
1FF
100
AcDbSymbolTableRecord
100
AcDbLayerTableRecord
  2
01_PLANES
 70
0
 62
7
  6
CONTINUOUS
370
-3
390
F
  0
LAYER
  5
200
100
AcDbSymbolTableRecord
100
AcDbLayerTableRecord
  2
02_COORD_SYS
 70
0
 62
7
  6
CONTINUOUS
370
-3
390
F
  0
LAYER
  5
201
100
AcDbSymbolTableRecord
100
AcDbLayerTableRecord
  2
03_AXES
 70
0
 62
7
  6
CONTINUOUS
370
-3
390
F
  0
LAYER
  5
202
100
AcDbSymbolTableRecord
100
AcDbLayerTableRecord
  2
04_POINTS
 70
0
 62
7
  6
CONTINUOUS
370
-3
390
F
  0
LAYER
  5
203
100
AcDbSymbolTableRecord
100
AcDbLayerTableRecord
  2
05_CURVES
 70
0
 62
7
  6
CONTINUOUS
370
-3
390
F
  0
LAYER
  5
204
100
AcDbSymbolTableRecord
100
AcDbLayerTableRecord
  2
06_SURFS
 70
0
 62
7
  6
CONTINUOUS
370
-3
390
F
  0
LAYER
  5
205
100
AcDbSymbolTableRecord
100
AcDbLayerTableRecord
  2
07_COSMETICS
 70
0
 62
7
  6
CONTINUOUS
370
-3
390
F
  0
LAYER
  5
206
100
AcDbSymbolTableRecord
100
AcDbLayerTableRecord
  2
10_NOTES
 70
0
 62
7
  6
CONTINUOUS
370
-3
390
F
  0
LAYER
  5
207
100
AcDbSymbolTableRecord
100
AcDbLayerTableRecord
  2
11_NOTES_PUB
 70
0
 62
7
  6
CONTINUOUS
370
-3
390
F
  0
LAYER
  5
208
100
AcDbSymbolTableRecord
100
AcDbLayerTableRecord
  2
13_REF_GTOL
 70
0
 62
7
  6
CONTINUOUS
370
-3
390
F
  0
LAYER
  5
209
100
AcDbSymbolTableRecord
100
AcDbLayerTableRecord
  2
16_MISC
 70
0
 62
7
  6
CONTINUOUS
370
-3
390
F
  0
LAYER
  5
20A
100
AcDbSymbolTableRecord
100
AcDbLayerTableRecord
  2
17_NO_PRINT
 70
0
 62
7
  6
CONTINUOUS
370
-3
390
F
  0
LAYER
  5
20B
100
AcDbSymbolTableRecord
100
AcDbLayerTableRecord
  2
18_DATUM_CAMS_JOINTS
 70
0
 62
7
  6
CONTINUOUS
370
-3
390
F
  0
LAYER
  5
20C
100
AcDbSymbolTableRecord
100
AcDbLayerTableRecord
  2
19_DATUM_FUNCTIONAL
 70
0
 62
7
  6
CONTINUOUS
370
-3
390
F
  0
LAYER
  5
20D
100
AcDbSymbolTableRecord
100
AcDbLayerTableRecord
  2
20_DATUM_KINEMATIC_SCHEME
 70
0
 62
7
  6
CONTINUOUS
370
-3
390
F
  0
ENDTAB
  0
TABLE
  2
STYLE
  5
3
100
AcDbSymbolTable
 70
1
  0
STYLE
  5
11
100
AcDbSymbolTableRecord
100
AcDbTextStyleTableRecord
  2
STANDARD
 70
0
 40
0.0
 41
1.0
 50
0.0
 71
0
 42
0.2
  3
ARIAL.TTF
  4

  0
STYLE
  5
20E
100
AcDbSymbolTableRecord
100
AcDbTextStyleTableRecord
  2
TEXTSTYLE_1
 70
0
 40
0.0
 41
0.8
 50
0.0
 71
0
 42
0.2
  3
gdt
  4

  0
ENDTAB
  0
TABLE
  2
VIEW
  5
6
100
AcDbSymbolTable
 70
0
  0
ENDTAB
  0
TABLE
  2
UCS
  5
7
100
AcDbSymbolTable
 70
0
  0
ENDTAB
  0
TABLE
  2
APPID
  5
9
100
AcDbSymbolTable
 70
1
  0
APPID
  5
20F
100
AcDbSymbolTableRecord
100
AcDbRegAppTableRecord
  2
ACAD
 70
0
  0
ENDTAB
  0
TABLE
  2
BLOCK_RECORD
  5
1
100
AcDbSymbolTable
 70
0
  0
BLOCK_RECORD
  5
210
100
AcDbSymbolTableRecord
100
AcDbBlockTableRecord
  2
*Model_Space
  0
BLOCK_RECORD
  5
211
100
AcDbSymbolTableRecord
100
AcDbBlockTableRecord
  2
*Paper_Space
  0
BLOCK_RECORD
  5
212
100
AcDbSymbolTableRecord
100
AcDbBlockTableRecord
  2
_FILLED
  0
ENDTAB
  0
TABLE
  2
DIMSTYLE
  5
A
100
AcDbSymbolTable
 70
1
100
AcDbDimStyleTable
 71
0
  0
DIMSTYLE
105
213
100
AcDbSymbolTableRecord
100
AcDbDimStyleTableRecord
  2
STANDARD
 70
0
  3

  4

 40
1.0
 41
0.5659142978
 42
1.0
 43
0.38
 44
1.0
 45
0.0
 46
0.0
 47
0.01
 48
0.01
140
0.7922800169
141
0.09
142
0.0
143
25.4
144
1.0
145
0.0
146
1.0
147
0.625
 71
1
 72
0
 73
0
 74
0
 75
0
 76
0
 77
1
 78
8
 79
2
170
0
171
1
172
0
173
0
174
0
175
0
176
0
177
0
178
0
270
2
179
2
271
2
272
2
273
2
274
2
275
0
280
0
281
0
282
0
283
1
284
8
285
0
286
0
287
3
288
0
340
11
278
46
341
212
342
212
343
212
344
212
  0
ENDTAB
  0
ENDSEC
  0
SECTION
  2
BLOCKS
  0
BLOCK
  5
20
100
AcDbEntity
  8
0
100
AcDbBlockBegin
  2
*Model_Space
 70
0
 10
0.0
 20
0.0
 30
0.0
  3
*Model_Space
  1

  0
ENDBLK
  5
21
100
AcDbEntity
  8
0
100
AcDbBlockEnd
  0
BLOCK
  5
1C
100
AcDbEntity
  8
0
100
AcDbBlockBegin
  2
*Paper_Space
 70
0
 10
0.0
 20
0.0
 30
0.0
  3
*Paper_Space
  1

  0
ENDBLK
  5
1D
100
AcDbEntity
  8
0
100
AcDbBlockEnd
  0
BLOCK
  5
214
100
AcDbEntity
  8
0
100
AcDbBlockBegin
  2
_FILLED
 70
64
 10
0.0
 20
0.0
  3
_FILLED
  1

  0
SOLID
  5
215
100
AcDbEntity
  8
0
  6
BYBLOCK
 62
0
100
AcDbTrace
 10
0.0
 20
0.0
 11
-1.0
 21
0.25
 12
-1.0
 22
-0.25
 13
-1.0
 23
-0.25
  0
ENDBLK
  5
216
100
AcDbEntity
  8
0
  6
BYBLOCK
 62
0
100
AcDbBlockEnd
  0
ENDSEC
  0
SECTION
  2
ENTITIES
  0
LINE
  5
217
100
AcDbEntity
  8
0
100
AcDbLine
 62
7
  6
BYLAYER
 10
13.9527875628
 20
5.2086703142
 11
9.6040627531
 21
7.7193509545
  0
LINE
  5
218
100
AcDbEntity
  8
0
100
AcDbLine
 62
7
  6
BYLAYER
 10
14.7060162661
 20
5.7848256551
 11
14.6498841098
 21
5.7864007896
  0
LINE
  5
219
100
AcDbEntity
  8
0
100
AcDbLine
 62
7
  6
BYLAYER
 10
13.9528276071
 20
5.2087397137
 11
14.1112773511
 21
5.1945143981
  0
LINE
  5
21A
100
AcDbEntity
  8
0
100
AcDbLine
 62
7
  6
BYLAYER
 10
13.8492314024
 20
5.4375633881
 11
9.5005065927
 21
7.9482440284
  0
LINE
  5
21B
100
AcDbEntity
  8
0
100
AcDbLine
 62
7
  6
BYLAYER
 10
14.7060641543
 20
5.7849082194
 11
14.655546903
 21
5.8140737082
  0
LINE
  5
21C
100
AcDbEntity
  8
0
100
AcDbLine
 62
7
  6
BYLAYER
 10
13.665436442
 20
7.9573723717
 11
13.8492314024
 21
7.8512607024
  0
LINE
  5
21D
100
AcDbEntity
  8
0
100
AcDbLine
 62
7
  6
BYLAYER
 10
18.8243347945
 20
7.8098304028
 11
18.9827814031
 21
7.7955995633
  0
LINE
  5
21E
100
AcDbEntity
  8
0
100
AcDbLine
 62
7
  6
BYLAYER
 10
18.9263741021
 20
6.5746404132
 11
17.432748977
 21
7.4369657728
  0
LINE
  5
21F
100
AcDbEntity
  8
0
100
AcDbLine
 62
7
  6
BYLAYER
 10
17.5255900846
 20
7.4618418277
 11
18.8345265321
 21
6.7060885308
  0
LINE
  5
220
100
AcDbEntity
  8
0
100
AcDbLine
 62
7
  6
BYLAYER
 10
17.5364676253
 20
7.4647563804
 11
18.8315944144
 21
6.7170314959
  0
LINE
  5
221
100
AcDbEntity
  8
0
100
AcDbLine
 62
7
  6
BYLAYER
 10
18.9699214632
 20
6.9439213026
 11
17.8993667319
 21
7.5619923823
  0
LINE
  5
222
100
AcDbEntity
  8
0
100
AcDbLine
 62
7
  6
BYLAYER
 10
13.665436442
 20
10.4068796231
 11
13.8492314024
 21
10.3007679538
  0
LINE
  5
223
100
AcDbEntity
  8
0
100
AcDbLine
 62
7
  6
BYLAYER
 10
14.1112773511
 20
5.1945143981
 11
14.3722396455
 21
5.2644372215
  0
LINE
  5
224
100
AcDbEntity
  8
0
100
AcDbLine
 62
7
  6
BYLAYER
 10
15.1873072995
 20
6.8353170856
 11
18.8243347945
 21
7.8098304028
  0
LINE
  5
225
100
AcDbEntity
  8
0
100
AcDbLine
 62
7
  6
BYLAYER
 10
18.5743183451
 20
7.7428404337
 11
19.0743337537
 21
7.4541629337
  0
LINE
  5
226
100
AcDbEntity
  8
0
100
AcDbLine
 62
7
  6
BYLAYER
 10
16.705982942
 20
9.7128222333
 11
16.8897779024
 21
9.6067105641
  0
LINE
  5
227
100
AcDbEntity
  8
0
100
AcDbLine
 62
7
  6
BYLAYER
 10
9.7625525414
 20
50.3088299348
 11
10.0235148358
 21
50.5402386146
  0
LINE
  5
228
100
AcDbEntity
  8
0
100
AcDbLine
 62
7
  6
BYLAYER
 10
18.0211078312
 20
56.5963057036
 11
14.8276450507
 21
54.7525701133
  0
LINE
  5
229
100
AcDbEntity
  8
0
100
AcDbLine
 62
7
  6
BYLAYER
 10
26.791906546
 20
61.6600984758
 11
27.4031987777
 21
62.0130261037
  0
LINE
  5
22A
100
AcDbEntity
  8
0
100
AcDbLine
 62
7
  6
BYLAYER
 10
17.5968817396
 20
10.8314571351
 11
17.5919993084
 21
10.8342759443
  0
LINE
  5
22B
100
AcDbEntity
  8
0
100
AcDbLine
 62
7
  6
BYLAYER
 10
17.5919993084
 20
11.6507783614
 11
17.5968817396
 21
11.6479595522
  0
LINE
  5
22C
100
AcDbEntity
  8
0
100
AcDbLine
 62
7
  6
BYLAYER
 10
9.9601279141
 20
16.0570524973
 11
13.3896100811
 21
14.0770848379
  0
LINE
  5
22D
100
AcDbEntity
  8
0
100
AcDbLine
 62
7
  6
BYLAYER
 10
23.4812619223
 20
9.4128284547
 11
23.6968275532
 21
9.2883743952
  0
LINE
  5
22E
100
AcDbEntity
  8
0
100
AcDbLine
 62
7
  6
BYLAYER
 10
11.1050221148
 20
50.1467779017
 11
14.4756099849
 21
53.1356514123
  0
LINE
  5
22F
100
AcDbEntity
  8
0
100
AcDbLine
 62
7
  6
BYLAYER
 10
24.3615075887
 20
10.0794089262
 11
24.5958668027
 21
9.9441046319
  0
LINE
  5
230
100
AcDbEntity
  8
0
100
AcDbLine
 62
7
  6
BYLAYER
 10
13.3896100811
 20
17.0471882042
 11
12.0814394257
 21
17.8024437981
  0
LINE
  5
231
100
AcDbEntity
  8
0
100
AcDbLine
 62
7
  6
BYLAYER
 10
25.2444551766
 20
10.6613913622
 11
25.5018007566
 21
10.5128161836
  0
LINE
  5
232
100
AcDbEntity
  8
0
100
AcDbLine
 62
7
  6
BYLAYER
 10
25.4905629197
 20
10.523239112
 11
25.2477723554
 21
10.6634111386
  0
LINE
  5
233
100
AcDbEntity
  8
0
100
AcDbLine
 62
7
  6
BYLAYER
 10
13.3896100811
 20
17.751345715
 11
9.9601279141
 21
19.7313133744
  0
LINE
  5
234
100
AcDbEntity
  8
0
100
AcDbLine
 62
7
  6
BYLAYER
 10
23.6926594083
 20
9.2912203452
 11
23.6968384932
 21
9.2883933437
  0
LINE
  5
235
100
AcDbEntity
  8
0
100
AcDbLine
 62
7
  6
BYLAYER
 10
23.5104103326
 20
9.4367985845
 11
23.6926594083
 21
9.2912203452
  0
LINE
  5
236
100
AcDbEntity
  8
0
100
AcDbLine
 62
7
  6
BYLAYER
 10
18.8343167852
 20
6.7059025375
 11
18.926426023
 21
6.5747304652
  0
LINE
  5
237
100
AcDbEntity
  8
0
100
AcDbLine
 62
7
  6
BYLAYER
 10
18.4459798957
 20
56.6400178082
 11
18.6631758864
 21
56.9758607096
  0
LINE
  5
238
100
AcDbEntity
  8
0
100
AcDbLine
 62
7
  6
BYLAYER
 10
14.3722396454
 20
48.0295579743
 11
14.111277351
 21
47.7981492945
  0
LINE
  5
239
100
AcDbEntity
  8
0
100
AcDbLine
 62
7
  6
BYLAYER
 10
22.3698326408
 20
54.0856250633
 11
19.1763698604
 21
52.241889473
  0
LINE
  5
23A
100
AcDbEntity
  8
0
100
AcDbLine
 62
7
  6
BYLAYER
 10
31.1406313556
 20
59.1494178355
 11
31.7519235873
 21
59.5023454634
  0
LINE
  5
23B
100
AcDbEntity
  8
0
100
AcDbLine
 62
7
  6
BYLAYER
 10
9.7479949965
 20
46.226813674
 11
11.7986309171
 21
47.4107418077
  0
LINE
  5
23C
100
AcDbEntity
  8
0
100
AcDbLine
 62
7
  6
BYLAYER
 10
12.1427307754
 20
47.1195053173
 11
9.7479949965
 21
45.7369122238
  0
LINE
  5
23D
100
AcDbEntity
  8
0
100
AcDbLine
 62
7
  6
BYLAYER
 10
26.1215012018
 20
11.1554340668
 11
26.4077347106
 21
10.990180812
  0
LINE
  5
23E
100
AcDbEntity
  8
0
100
AcDbLine
 62
7
  6
BYLAYER
 10
26.3936484908
 20
11.0052774734
 11
26.1279176425
 21
11.1586937795
  0
LINE
  5
23F
100
AcDbEntity
  8
0
100
AcDbLine
 62
7
  6
BYLAYER
 10
9.5005065927
 20
20.8539974028
 11
13.8492314024
 21
18.3433167625
  0
LINE
  5
240
100
AcDbEntity
  8
0
100
AcDbLine
 62
7
  6
BYLAYER
 10
14.0651441459
 20
18.8440172962
 11
9.7164193363
 21
21.3546979365
  0
LINE
  5
241
100
AcDbEntity
  8
0
100
AcDbLine
 62
7
  6
BYLAYER
 10
26.984121051
 20
11.5588450138
 11
27.3067739601
 21
11.3725654841
  0
LINE
  5
242
100
AcDbEntity
  8
0
100
AcDbLine
 62
7
  6
BYLAYER
 10
27.290327086
 20
11.392880085
 11
26.9949115234
 21
11.5634344811
  0
LINE
  5
243
100
AcDbEntity
  8
0
100
AcDbLine
 62
7
  6
BYLAYER
 10
24.587943399
 20
9.950433604
 11
24.5958775371
 21
9.9441231726
  0
LINE
  5
244
100
AcDbEntity
  8
0
100
AcDbLine
 62
7
  6
BYLAYER
 10
19.3229701048
 20
56.8056089731
 11
19.5234555456
 21
57.1528618704
  0
LINE
  5
245
100
AcDbEntity
  8
0
100
AcDbLine
 62
7
  6
BYLAYER
 10
18.8243347946
 20
50.624970772
 11
15.1873072995
 21
47.3998315511
  0
LINE
  5
246
100
AcDbEntity
  8
0
100
AcDbLine
 62
7
  6
BYLAYER
 10
16.8897779024
 20
46.59427006
 11
13.8492314024
 21
44.8388201984
  0
LINE
  5
247
100
AcDbEntity
  8
0
100
AcDbLine
 62
7
  6
BYLAYER
 10
10.702583116
 20
22.4053400024
 11
15.0513079257
 21
19.8946593621
  0
LINE
  5
248
100
AcDbEntity
  8
0
100
AcDbLine
 62
7
  6
BYLAYER
 10
25.4905629197
 20
10.5232391121
 11
25.5018064226
 21
10.5128259678
  0
LINE
  5
249
100
AcDbEntity
  8
0
100
AcDbLine
 62
7
  6
BYLAYER
 10
24.4253177139
 20
10.1247285118
 11
24.587943399
 21
9.950433604
  0
LINE
  5
24A
100
AcDbEntity
  8
0
100
AcDbLine
 62
7
  6
BYLAYER
 10
9.5005065927
 20
29.6620172276
 11
9.5005065927
 21
29.1006718158
  0
LINE
  5
24B
100
AcDbEntity
  8
0
100
AcDbLine
 62
7
  6
BYLAYER
 10
9.5005065927
 20
20.8539974028
 11
9.5005065927
 21
7.9482440284
  0
LINE
  5
24C
100
AcDbEntity
  8
0
100
AcDbLine
 62
7
  6
BYLAYER
 10
9.5005065927
 20
36.5410500919
 11
9.5005065927
 21
49.7631981529
  0
LINE
  5
24D
100
AcDbEntity
  8
0
100
AcDbLine
 62
7
  6
BYLAYER
 10
9.7479949965
 20
46.226813674
 11
9.7479949965
 21
45.7369122238
  0
LINE
  5
24E
100
AcDbEntity
  8
0
100
AcDbLine
 62
7
  6
BYLAYER
 10
9.7479949965
 20
11.6887614295
 11
9.7479949965
 21
11.1988599792
  0
LINE
  5
24F
100
AcDbEntity
  8
0
100
AcDbLine
 62
7
  6
BYLAYER
 10
9.9601279141
 20
19.7313133744
 11
9.9601279141
 21
16.0570524973
  0
LINE
  5
250
100
AcDbEntity
  8
0
100
AcDbLine
 62
7
  6
BYLAYER
 10
9.9601279141
 20
37.4494158261
 11
9.9601279141
 21
41.1236767032
  0
LINE
  5
251
100
AcDbEntity
  8
0
100
AcDbLine
 62
7
  6
BYLAYER
 10
14.4828279828
 20
54.2352428773
 11
14.4855919755
 21
54.2511054188
  0
LINE
  5
252
100
AcDbEntity
  8
0
100
AcDbLine
 62
7
  6
BYLAYER
 10
20.2223412788
 20
57.0736785474
 11
20.4045903545
 21
57.4296986365
  0
LINE
  5
253
100
AcDbEntity
  8
0
100
AcDbLine
 62
7
  6
BYLAYER
 10
13.665436442
 20
42.4954246163
 11
13.2485246713
 21
42.0416786786
  0
LINE
  5
254
100
AcDbEntity
  8
0
100
AcDbLine
 62
7
  6
BYLAYER
 10
13.665436442
 20
42.4954246163
 11
16.705982942
 21
44.2508744779
  0
LINE
  5
255
100
AcDbEntity
  8
0
100
AcDbLine
 62
7
  6
BYLAYER
 10
16.8897779024
 20
44.1447628086
 11
13.8492314024
 21
42.389312947
  0
LINE
  5
256
100
AcDbEntity
  8
0
100
AcDbLine
 62
7
  6
BYLAYER
 10
18.0918544257
 20
21.6501092237
 11
17.6322331043
 21
21.9154657142
  0
LINE
  5
257
100
AcDbEntity
  8
0
100
AcDbLine
 62
7
  6
BYLAYER
 10
14.2027509374
 20
23.8954333736
 11
13.743129616
 21
24.160789864
  0
LINE
  5
258
100
AcDbEntity
  8
0
100
AcDbLine
 62
7
  6
BYLAYER
 10
26.3936484908
 20
11.0052774734
 11
26.4077377897
 21
10.99018613
  0
LINE
  5
259
100
AcDbEntity
  8
0
100
AcDbLine
 62
7
  6
BYLAYER
 10
11.7455612759
 20
31.8155199541
 11
11.7455612759
 21
34.9066839904
  0
LINE
  5
25A
100
AcDbEntity
  8
0
100
AcDbLine
 62
7
  6
BYLAYER
 10
12.0814394257
 20
39.8989646376
 11
12.0814394257
 21
38.6741482877
  0
LINE
  5
25B
100
AcDbEntity
  8
0
100
AcDbLine
 62
7
  6
BYLAYER
 10
12.0814394257
 20
17.8024437981
 11
12.0814394257
 21
18.5066013088
  0
LINE
  5
25C
100
AcDbEntity
  8
0
100
AcDbLine
 62
7
  6
BYLAYER
 10
13.3896100811
 20
14.0770848379
 11
13.3896100811
 21
17.751345715
  0
LINE
  5
25D
100
AcDbEntity
  8
0
100
AcDbLine
 62
7
  6
BYLAYER
 10
13.3896100811
 20
35.4694481667
 11
13.3896100811
 21
39.1437090438
  0
LINE
  5
25E
100
AcDbEntity
  8
0
100
AcDbLine
 62
7
  6
BYLAYER
 10
22.0607292511
 20
57.9083278435
 11
22.2024938658
 21
58.2737076299
  0
LINE
  5
25F
100
AcDbEntity
  8
0
100
AcDbLine
 62
7
  6
BYLAYER
 10
21.1372486601
 20
57.4421863599
 11
21.2998743451
 21
57.8042641128
  0
LINE
  5
260
100
AcDbEntity
  8
0
100
AcDbLine
 62
7
  6
BYLAYER
 10
23.8721803552
 20
54.6421812301
 11
23.6716949144
 21
54.2949283328
  0
LINE
  5
261
100
AcDbEntity
  8
0
100
AcDbLine
 62
7
  6
BYLAYER
 10
23.0119006961
 20
54.4651800693
 11
22.7947047054
 21
54.1293371679
  0
LINE
  5
262
100
AcDbEntity
  8
0
100
AcDbLine
 62
7
  6
BYLAYER
 10
35.3098328618
 20
52.9832176993
 11
34.5320186409
 21
52.53414913
  0
LINE
  5
263
100
AcDbEntity
  8
0
100
AcDbLine
 62
7
  6
BYLAYER
 10
34.5320186409
 20
24.2015152556
 11
30.1271792639
 21
23.0212726979
  0
LINE
  5
264
100
AcDbEntity
  8
0
100
AcDbLine
 62
7
  6
BYLAYER
 10
30.3101912038
 20
24.3767131956
 11
34.0869607523
 21
25.3886693126
  0
LINE
  5
265
100
AcDbEntity
  8
0
100
AcDbLine
 62
7
  6
BYLAYER
 10
13.9527875628
 20
26.3610981016
 11
9.6040627531
 21
28.8717787419
  0
LINE
  5
266
100
AcDbEntity
  8
0
100
AcDbLine
 62
7
  6
BYLAYER
 10
16.324062449
 20
25.1201658352
 11
17.6322331043
 21
24.3649102414
  0
LINE
  5
267
100
AcDbEntity
  8
0
100
AcDbLine
 62
7
  6
BYLAYER
 10
13.8492314024
 20
26.5899911755
 11
9.5005065927
 21
29.1006718158
  0
LINE
  5
268
100
AcDbEntity
  8
0
100
AcDbLine
 62
7
  6
BYLAYER
 10
17.6322331043
 20
24.4874483281
 11
14.3775396231
 21
26.3665039757
  0
LINE
  5
269
100
AcDbEntity
  8
0
100
AcDbLine
 62
7
  6
BYLAYER
 10
9.5005065927
 20
29.6620172276
 11
13.8492314024
 21
27.1513365873
  0
LINE
  5
26A
100
AcDbEntity
  8
0
100
AcDbLine
 62
7
  6
BYLAYER
 10
27.290327086
 20
11.392880085
 11
27.3067749761
 21
11.372567247
  0
LINE
  5
26B
100
AcDbEntity
  8
0
100
AcDbLine
 62
7
  6
BYLAYER
 10
25.3487983049
 20
10.7249241987
 11
25.4905629197
 21
10.5232391121
  0
LINE
  5
26C
100
AcDbEntity
  8
0
100
AcDbLine
 62
7
  6
BYLAYER
 10
18.8315511382
 20
6.7186347052
 11
18.8343167852
 21
6.7059025375
  0
LINE
  5
26D
100
AcDbEntity
  8
0
100
AcDbLine
 62
7
  6
BYLAYER
 10
13.743129616
 20
24.160789864
 11
13.743129616
 21
26.4821414352
  0
LINE
  5
26E
100
AcDbEntity
  8
0
100
AcDbLine
 62
7
  6
BYLAYER
 10
13.8492314024
 20
47.2525175126
 11
13.8492314024
 21
44.8388201984
  0
LINE
  5
26F
100
AcDbEntity
  8
0
100
AcDbLine
 62
7
  6
BYLAYER
 10
13.8492314024
 20
27.1513365873
 11
13.8492314024
 21
26.5899911755
  0
LINE
  5
270
100
AcDbEntity
  8
0
100
AcDbLine
 62
7
  6
BYLAYER
 10
13.8492314024
 20
18.3433167625
 11
13.8492314024
 21
10.3007679538
  0
LINE
  5
271
100
AcDbEntity
  8
0
100
AcDbLine
 62
7
  6
BYLAYER
 10
13.8492314024
 20
7.8512607024
 11
13.8492314024
 21
5.4375633881
  0
LINE
  5
272
100
AcDbEntity
  8
0
100
AcDbLine
 62
7
  6
BYLAYER
 10
13.8492314024
 20
34.0303694516
 11
13.8492314024
 21
42.389312947
  0
LINE
  5
273
100
AcDbEntity
  8
0
100
AcDbLine
 62
7
  6
BYLAYER
 10
14.2027509374
 20
26.3508934746
 11
14.2027509374
 21
23.8954333736
  0
LINE
  5
274
100
AcDbEntity
  8
0
100
AcDbLine
 62
7
  6
BYLAYER
 10
15.3376849797
 20
34.0323958575
 11
15.3376849797
 21
33.813981461
  0
LINE
  5
275
100
AcDbEntity
  8
0
100
AcDbLine
 62
7
  6
BYLAYER
 10
15.3376849797
 20
29.0864324658
 11
15.3376849797
 21
28.8680180692
  0
LINE
  5
276
100
AcDbEntity
  8
0
100
AcDbLine
 62
7
  6
BYLAYER
 10
18.8342219674
 20
51.7401290037
 11
18.8315866536
 21
51.7246758509
  0
LINE
  5
277
100
AcDbEntity
  8
0
100
AcDbLine
 62
7
  6
BYLAYER
 10
22.9857548069
 20
58.46855538
 11
23.105579437
 21
58.8344564392
  0
LINE
  5
278
100
AcDbEntity
  8
0
100
AcDbLine
 62
7
  6
BYLAYER
 10
24.7533151641
 20
54.9190179962
 11
24.5710660884
 21
54.5629979071
  0
LINE
  5
279
100
AcDbEntity
  8
0
100
AcDbLine
 62
7
  6
BYLAYER
 10
9.9231280053
 20
30.6535233849
 11
10.8203905055
 21
31.6268661405
  0
LINE
  5
27A
100
AcDbEntity
  8
0
100
AcDbLine
 62
7
  6
BYLAYER
 10
12.0814394257
 20
38.6741482877
 11
9.9601279141
 21
37.4494158261
  0
LINE
  5
27B
100
AcDbEntity
  8
0
100
AcDbLine
 62
7
  6
BYLAYER
 10
35.8755159316
 20
52.2483598801
 11
35.8274310634
 21
52.2205982343
  0
LINE
  5
27C
100
AcDbEntity
  8
0
100
AcDbLine
 62
7
  6
BYLAYER
 10
30.1271792639
 20
23.0212726979
 11
29.96872952
 21
23.0354980136
  0
LINE
  5
27D
100
AcDbEntity
  8
0
100
AcDbLine
 62
7
  6
BYLAYER
 10
13.9528014087
 20
26.3611220447
 11
14.0651441459
 21
26.3386037148
  0
LINE
  5
27E
100
AcDbEntity
  8
0
100
AcDbLine
 62
7
  6
BYLAYER
 10
15.8644203009
 20
26.8961265456
 11
17.6322331043
 21
25.8755024372
  0
LINE
  5
27F
100
AcDbEntity
  8
0
100
AcDbLine
 62
7
  6
BYLAYER
 10
14.271852815
 20
28.1428427446
 11
9.9231280053
 21
30.6535233849
  0
LINE
  5
280
100
AcDbEntity
  8
0
100
AcDbLine
 62
7
  6
BYLAYER
 10
33.7733827426
 20
17.9663520684
 11
36.132627404
 21
16.6042723425
  0
LINE
  5
281
100
AcDbEntity
  8
0
100
AcDbLine
 62
7
  6
BYLAYER
 10
35.9462263153
 20
17.0162798755
 11
34.0369970655
 21
18.1185489602
  0
LINE
  5
282
100
AcDbEntity
  8
0
100
AcDbLine
 62
7
  6
BYLAYER
 10
10.8203905056
 20
31.6268661405
 11
15.1691153152
 21
29.1161855002
  0
LINE
  5
283
100
AcDbEntity
  8
0
100
AcDbLine
 62
7
  6
BYLAYER
 10
15.3024758852
 20
29.1642561109
 11
10.9537510756
 21
31.6749367512
  0
LINE
  5
284
100
AcDbEntity
  8
0
100
AcDbLine
 62
7
  6
BYLAYER
 10
26.2738238607
 20
11.2328177936
 11
26.3936484908
 21
11.0052774734
  0
LINE
  5
285
100
AcDbEntity
  8
0
100
AcDbLine
 62
7
  6
BYLAYER
 10
15.3376849797
 20
29.0864324658
 11
15.3024740413
 21
29.1642529172
  0
LINE
  5
286
100
AcDbEntity
  8
0
100
AcDbLine
 62
7
  6
BYLAYER
 10
16.0942860856
 20
29.3048393138
 11
16.0942860856
 21
34.4692171022
  0
LINE
  5
287
100
AcDbEntity
  8
0
100
AcDbLine
 62
7
  6
BYLAYER
 10
16.324062449
 20
25.1201658352
 11
16.324062449
 21
25.242703922
  0
LINE
  5
288
100
AcDbEntity
  8
0
100
AcDbLine
 62
7
  6
BYLAYER
 10
17.5968817396
 20
10.8314571351
 11
17.5968817396
 21
11.6479595522
  0
LINE
  5
289
100
AcDbEntity
  8
0
100
AcDbLine
 62
7
  6
BYLAYER
 10
17.5968817396
 20
45.3695093796
 11
17.5968817396
 21
46.1860117968
  0
LINE
  5
28A
100
AcDbEntity
  8
0
100
AcDbLine
 62
7
  6
BYLAYER
 10
17.6322331043
 20
21.9154657142
 11
17.6322331043
 21
24.4874483281
  0
LINE
  5
28B
100
AcDbEntity
  8
0
100
AcDbLine
 62
7
  6
BYLAYER
 10
17.6322331043
 20
25.8755024372
 11
17.6322331043
 21
27.9167676512
  0
LINE
  5
28C
100
AcDbEntity
  8
0
100
AcDbLine
 62
7
  6
BYLAYER
 10
23.9052853244
 20
59.1186052997
 11
24.0022580321
 21
59.4822429037
  0
LINE
  5
28D
100
AcDbEntity
  8
0
100
AcDbLine
 62
7
  6
BYLAYER
 10
25.6485991548
 20
55.2935834725
 11
25.4859734698
 21
54.9315057196
  0
LINE
  5
28E
100
AcDbEntity
  8
0
100
AcDbLine
 62
7
  6
BYLAYER
 10
14.0651441459
 20
26.3386037148
 11
15.0513079257
 21
26.4266786991
  0
LINE
  5
28F
100
AcDbEntity
  8
0
100
AcDbLine
 62
7
  6
BYLAYER
 10
16.0942860856
 20
29.3048393138
 11
11.7455612759
 21
31.8155199541
  0
LINE
  5
290
100
AcDbEntity
  8
0
100
AcDbLine
 62
7
  6
BYLAYER
 10
35.2391134248
 20
18.8125765667
 11
35.9462263153
 21
18.4043339846
  0
LINE
  5
291
100
AcDbEntity
  8
0
100
AcDbLine
 62
7
  6
BYLAYER
 10
30.1271792639
 20
23.0212726979
 11
29.9059733049
 21
23.1489831288
  0
LINE
  5
292
100
AcDbEntity
  8
0
100
AcDbLine
 62
7
  6
BYLAYER
 10
18.0918544257
 20
28.1821285608
 11
18.0918544257
 21
21.6501092237
  0
LINE
  5
293
100
AcDbEntity
  8
0
100
AcDbLine
 62
7
  6
BYLAYER
 10
24.8123226213
 20
59.8535303302
 11
24.8857053857
 21
60.2121369772
  0
LINE
  5
294
100
AcDbEntity
  8
0
100
AcDbLine
 62
7
  6
BYLAYER
 10
26.5512186755
 20
55.7630269896
 11
26.4094540608
 21
55.3976472032
  0
LINE
  5
295
100
AcDbEntity
  8
0
100
AcDbLine
 62
7
  6
BYLAYER
 10
16.0942860856
 20
34.4692171022
 11
15.3376849797
 21
34.0323958575
  0
LINE
  5
296
100
AcDbEntity
  8
0
100
AcDbLine
 62
7
  6
BYLAYER
 10
11.2279091067
 20
31.5166551189
 11
11.7455612759
 21
31.8155199541
  0
LINE
  5
297
100
AcDbEntity
  8
0
100
AcDbLine
 62
7
  6
BYLAYER
 10
14.0563437231
 20
33.5725833038
 11
9.7076189135
 21
36.0832639441
  0
LINE
  5
298
100
AcDbEntity
  8
0
100
AcDbLine
 62
7
  6
BYLAYER
 10
13.8492314024
 20
34.0303694516
 11
9.5005065927
 21
36.5410500919
  0
LINE
  5
299
100
AcDbEntity
  8
0
100
AcDbLine
 62
7
  6
BYLAYER
 10
27.1933543783
 20
11.6445439196
 11
27.290327086
 21
11.392880085
  0
LINE
  5
29A
100
AcDbEntity
  8
0
100
AcDbLine
 62
7
  6
BYLAYER
 10
14.7542964004
 20
47.4385112823
 11
14.6498841098
 21
47.8281887049
  0
LINE
  5
29B
100
AcDbEntity
  8
0
100
AcDbLine
 62
7
  6
BYLAYER
 10
25.6999635959
 20
60.6677372482
 11
25.7491979299
 21
61.0185837251
  0
LINE
  5
29C
100
AcDbEntity
  8
0
100
AcDbLine
 62
7
  6
BYLAYER
 10
14.6498841098
 20
5.7864007896
 11
14.7542964004
 21
6.2966424207
  0
LINE
  5
29D
100
AcDbEntity
  8
0
100
AcDbLine
 62
7
  6
BYLAYER
 10
28.3509828418
 20
56.9715622634
 11
28.2540101341
 21
56.6079246594
  0
LINE
  5
29E
100
AcDbEntity
  8
0
100
AcDbLine
 62
7
  6
BYLAYER
 10
27.4543042467
 20
56.3237757989
 11
27.3344796166
 21
55.9578747397
  0
LINE
  5
29F
100
AcDbEntity
  8
0
100
AcDbLine
 62
7
  6
BYLAYER
 10
15.1691153152
 20
29.1161855002
 11
14.271852815
 21
28.1428427446
  0
LINE
  5
2A0
100
AcDbEntity
  8
0
100
AcDbLine
 62
7
  6
BYLAYER
 10
9.7164193363
 20
21.3546979365
 11
10.702583116
 21
22.4053400024
  0
LINE
  5
2A1
100
AcDbEntity
  8
0
100
AcDbLine
 62
7
  6
BYLAYER
 10
15.3024740413
 20
29.1642529172
 11
15.2174773274
 21
29.1558363705
  0
LINE
  5
2A2
100
AcDbEntity
  8
0
100
AcDbLine
 62
7
  6
BYLAYER
 10
14.0563643519
 20
33.5726189765
 11
14.2718528149
 21
33.526861554
  0
LINE
  5
2A3
100
AcDbEntity
  8
0
100
AcDbLine
 62
7
  6
BYLAYER
 10
38.4432618796
 20
26.3771020199
 11
38.2039994569
 21
26.4498516414
  0
LINE
  5
2A4
100
AcDbEntity
  8
0
100
AcDbLine
 62
7
  6
BYLAYER
 10
9.9601279141
 20
37.4494158261
 11
13.3896100811
 21
35.4694481667
  0
LINE
  5
2A5
100
AcDbEntity
  8
0
100
AcDbLine
 62
7
  6
BYLAYER
 10
32.9864896913
 20
25.0938066244
 11
34.5320186409
 21
24.2015152556
  0
LINE
  5
2A6
100
AcDbEntity
  8
0
100
AcDbLine
 62
7
  6
BYLAYER
 10
35.3098328618
 20
24.6505838249
 11
34.0490136356
 21
25.3785016769
  0
LINE
  5
2A7
100
AcDbEntity
  8
0
100
AcDbLine
 62
7
  6
BYLAYER
 10
14.7256089441
 20
53.779991091
 11
14.6527049193
 21
54.0520764204
  0
LINE
  5
2A8
100
AcDbEntity
  8
0
100
AcDbLine
 62
7
  6
BYLAYER
 10
29.2344301953
 20
57.7014563369
 11
29.1610474309
 21
57.3428496899
  0
LINE
  5
2A9
100
AcDbEntity
  8
0
100
AcDbLine
 62
7
  6
BYLAYER
 10
15.3376849797
 20
28.8680180692
 11
16.0942860856
 21
29.3048393138
  0
LINE
  5
2AA
100
AcDbEntity
  8
0
100
AcDbLine
 62
7
  6
BYLAYER
 10
10.8687525178
 20
31.6665170108
 11
10.9537492317
 21
31.6749335575
  0
LINE
  5
2AB
100
AcDbEntity
  8
0
100
AcDbLine
 62
7
  6
BYLAYER
 10
13.3896100811
 20
37.9188926939
 11
12.0814394257
 21
38.6741482877
  0
LINE
  5
2AC
100
AcDbEntity
  8
0
100
AcDbLine
 62
7
  6
BYLAYER
 10
35.5561411346
 20
25.8542422659
 11
34.5320186409
 21
26.4455062872
  0
LINE
  5
2AD
100
AcDbEntity
  8
0
100
AcDbLine
 62
7
  6
BYLAYER
 10
34.5320186409
 20
26.8142832651
 11
35.8755159316
 21
26.0386322903
  0
LINE
  5
2AE
100
AcDbEntity
  8
0
100
AcDbLine
 62
7
  6
BYLAYER
 10
13.3896100811
 20
39.1437090438
 11
9.9601279141
 21
41.1236767032
  0
LINE
  5
2AF
100
AcDbEntity
  8
0
100
AcDbLine
 62
7
  6
BYLAYER
 10
18.9699214632
 20
51.6589878734
 11
19.0743337537
 21
51.2693104507
  0
LINE
  5
2B0
100
AcDbEntity
  8
0
100
AcDbLine
 62
7
  6
BYLAYER
 10
19.0743337537
 20
7.4541629337
 11
18.9699214632
 21
6.9439213026
  0
LINE
  5
2B1
100
AcDbEntity
  8
0
100
AcDbLine
 62
7
  6
BYLAYER
 10
18.0918544257
 20
28.1821285608
 11
15.0513079257
 21
26.4266786991
  0
LINE
  5
2B2
100
AcDbEntity
  8
0
100
AcDbLine
 62
7
  6
BYLAYER
 10
14.2718528149
 20
33.526861554
 11
15.1691153153
 21
33.589582106
  0
LINE
  5
2B3
100
AcDbEntity
  8
0
100
AcDbLine
 62
7
  6
BYLAYER
 10
34.5320186409
 20
28.5698227939
 11
38.2039994569
 21
26.4498516414
  0
LINE
  5
2B4
100
AcDbEntity
  8
0
100
AcDbLine
 62
7
  6
BYLAYER
 10
34.5320186409
 20
28.6352084365
 11
38.443261951
 21
26.3771021438
  0
LINE
  5
2B5
100
AcDbEntity
  8
0
100
AcDbLine
 62
7
  6
BYLAYER
 10
13.8492314024
 20
42.389312947
 11
13.665436442
 21
42.4954246163
  0
LINE
  5
2B6
100
AcDbEntity
  8
0
100
AcDbLine
 62
7
  6
BYLAYER
 10
30.0979227395
 20
58.5079030848
 11
30.0486884055
 21
58.1570566079
  0
LINE
  5
2B7
100
AcDbEntity
  8
0
100
AcDbLine
 62
7
  6
BYLAYER
 10
15.0513079257
 20
19.8946593621
 11
14.0651441459
 21
18.8440172962
  0
LINE
  5
2B8
100
AcDbEntity
  8
0
100
AcDbLine
 62
7
  6
BYLAYER
 10
13.743129616
 20
24.160789864
 11
10.702583116
 21
22.4053400024
  0
LINE
  5
2B9
100
AcDbEntity
  8
0
100
AcDbLine
 62
7
  6
BYLAYER
 10
14.2027509374
 20
23.8954333736
 11
16.324062449
 21
25.1201658352
  0
LINE
  5
2BA
100
AcDbEntity
  8
0
100
AcDbLine
 62
7
  6
BYLAYER
 10
13.8492314024
 20
44.8388201984
 11
13.665436442
 21
44.9449318677
  0
LINE
  5
2BB
100
AcDbEntity
  8
0
100
AcDbLine
 62
7
  6
BYLAYER
 10
23.1762229227
 20
54.1892604959
 11
23.1269885887
 21
54.4832564002
  0
LINE
  5
2BC
100
AcDbEntity
  8
0
100
AcDbLine
 62
7
  6
BYLAYER
 10
29.8651333153
 20
13.5870303939
 11
29.8651333153
 21
15.3016854699
  0
LINE
  5
2BD
100
AcDbEntity
  8
0
100
AcDbLine
 62
7
  6
BYLAYER
 10
29.8651333153
 20
23.264321688
 11
29.8651333153
 21
23.7254200517
  0
LINE
  5
2BE
100
AcDbEntity
  8
0
100
AcDbLine
 62
7
  6
BYLAYER
 10
23.8132727306
 20
9.3854137999
 11
23.9102454383
 21
9.7490514039
  0
LINE
  5
2BF
100
AcDbEntity
  8
0
100
AcDbLine
 62
7
  6
BYLAYER
 10
14.6454435887
 20
5.5067012005
 11
14.7060651146
 21
5.6117013462
  0
LINE
  5
2C0
100
AcDbEntity
  8
0
100
AcDbLine
 62
7
  6
BYLAYER
 10
9.9601279141
 20
16.0570524973
 11
12.0814394257
 21
17.8024437981
  0
LINE
  5
2C1
100
AcDbEntity
  8
0
100
AcDbLine
 62
7
  6
BYLAYER
 10
14.4563486294
 20
45.1893374005
 11
16.3939195022
 21
44.0707056424
  0
LINE
  5
2C2
100
AcDbEntity
  8
0
100
AcDbLine
 62
7
  6
BYLAYER
 10
16.705982942
 20
44.2508744779
 11
16.8897779024
 21
44.1447628086
  0
LINE
  5
2C3
100
AcDbEntity
  8
0
100
AcDbLine
 62
7
  6
BYLAYER
 10
9.5005065927
 20
49.7631981529
 11
13.8492314024
 21
47.2525175126
  0
LINE
  5
2C4
100
AcDbEntity
  8
0
100
AcDbLine
 62
7
  6
BYLAYER
 10
24.0638638973
 20
54.4000069711
 11
23.9904811329
 21
54.6738790062
  0
LINE
  5
2C5
100
AcDbEntity
  8
0
100
AcDbLine
 62
7
  6
BYLAYER
 10
24.7099513257
 20
10.0332002644
 11
24.8297759558
 21
10.3991013236
  0
LINE
  5
2C6
100
AcDbEntity
  8
0
100
AcDbLine
 62
7
  6
BYLAYER
 10
18.0918544257
 20
21.6501092237
 11
15.0513079257
 21
19.8946593621
  0
LINE
  5
2C7
100
AcDbEntity
  8
0
100
AcDbLine
 62
7
  6
BYLAYER
 10
17.5968817396
 20
45.3695093796
 11
17.5919993084
 21
45.3723281888
  0
LINE
  5
2C8
100
AcDbEntity
  8
0
100
AcDbLine
 62
7
  6
BYLAYER
 10
14.111277351
 20
47.7981492945
 11
9.7625525414
 21
50.3088299348
  0
LINE
  5
2C9
100
AcDbEntity
  8
0
100
AcDbLine
 62
7
  6
BYLAYER
 10
16.6936545026
 20
46.4810388382
 11
17.5968817396
 21
45.9595721469
  0
LINE
  5
2CA
100
AcDbEntity
  8
0
100
AcDbLine
 62
7
  6
BYLAYER
 10
15.1873072995
 20
47.3998315511
 11
14.6873140675
 21
47.6884962478
  0
LINE
  5
2CB
100
AcDbEntity
  8
0
100
AcDbLine
 62
7
  6
BYLAYER
 10
10.0235148358
 20
50.5402386146
 11
14.3722396454
 21
48.0295579743
  0
LINE
  5
2CC
100
AcDbEntity
  8
0
100
AcDbLine
 62
7
  6
BYLAYER
 10
17.5919993084
 20
46.188830606
 11
17.5968817396
 21
46.1860117968
  0
LINE
  5
2CD
100
AcDbEntity
  8
0
100
AcDbLine
 62
7
  6
BYLAYER
 10
14.7060651146
 20
48.0677599976
 11
10.2967187791
 21
50.6134414929
  0
LINE
  5
2CE
100
AcDbEntity
  8
0
100
AcDbLine
 62
7
  6
BYLAYER
 10
24.9709011941
 20
54.7124321437
 11
24.8739284864
 21
54.9640959783
  0
LINE
  5
2CF
100
AcDbEntity
  8
0
100
AcDbLine
 62
7
  6
BYLAYER
 10
34.5320186409
 20
52.53414913
 11
34.5320186409
 21
26.0399624565
  0
LINE
  5
2D0
100
AcDbEntity
  8
0
100
AcDbLine
 62
7
  6
BYLAYER
 10
25.6130368969
 20
10.5939490737
 11
25.7548015116
 21
10.9593288601
  0
LINE
  5
2D1
100
AcDbEntity
  8
0
100
AcDbLine
 62
7
  6
BYLAYER
 10
13.665436442
 20
7.9573723717
 11
13.2485246713
 21
7.503626434
  0
LINE
  5
2D2
100
AcDbEntity
  8
0
100
AcDbLine
 62
7
  6
BYLAYER
 10
35.9462263153
 20
17.0162798755
 11
35.9462263153
 21
18.4043339846
  0
LINE
  5
2D3
100
AcDbEntity
  8
0
100
AcDbLine
 62
7
  6
BYLAYER
 10
35.5561411346
 20
25.8542422659
 11
35.3098328618
 21
24.6505838249
  0
LINE
  5
2D4
100
AcDbEntity
  8
0
100
AcDbLine
 62
7
  6
BYLAYER
 10
26.5156564176
 20
11.0633925908
 11
26.6782821026
 21
11.4254703437
  0
LINE
  5
2D5
100
AcDbEntity
  8
0
100
AcDbLine
 62
7
  6
BYLAYER
 10
27.4109404083
 20
11.4379580671
 11
27.593189484
 21
11.7939781562
  0
LINE
  5
2D6
100
AcDbEntity
  8
0
100
AcDbLine
 62
7
  6
BYLAYER
 10
9.7479949965
 20
11.6887614295
 11
11.7986309171
 21
12.8726895631
  0
LINE
  5
2D7
100
AcDbEntity
  8
0
100
AcDbLine
 62
7
  6
BYLAYER
 10
12.1427307754
 20
12.5814530728
 11
9.7479949965
 21
11.1988599792
  0
LINE
  5
2D8
100
AcDbEntity
  8
0
100
AcDbLine
 62
7
  6
BYLAYER
 10
35.5561411346
 20
25.8542422659
 11
35.8755159316
 21
26.0386322903
  0
LINE
  5
2D9
100
AcDbEntity
  8
0
100
AcDbLine
 62
7
  6
BYLAYER
 10
14.4756099849
 20
53.1356514123
 11
18.8243347946
 21
50.624970772
  0
LINE
  5
2DA
100
AcDbEntity
  8
0
100
AcDbLine
 62
7
  6
BYLAYER
 10
19.0743337537
 20
51.2693104507
 11
14.7256089441
 21
53.779991091
  0
LINE
  5
2DB
100
AcDbEntity
  8
0
100
AcDbLine
 62
7
  6
BYLAYER
 10
14.5103039966
 20
54.1342897715
 11
18.8590288063
 21
51.6236091312
  0
LINE
  5
2DC
100
AcDbEntity
  8
0
100
AcDbLine
 62
7
  6
BYLAYER
 10
18.8315944144
 20
51.7261523158
 11
14.4828696048
 21
54.2368329561
  0
LINE
  5
2DD
100
AcDbEntity
  8
0
100
AcDbLine
 62
7
  6
BYLAYER
 10
18.8344679961
 20
51.7401949252
 11
14.4858017224
 21
54.2511616189
  0
LINE
  5
2DE
100
AcDbEntity
  8
0
100
AcDbLine
 62
7
  6
BYLAYER
 10
25.8904317117
 20
55.1241582697
 11
25.7706070816
 21
55.3516985899
  0
LINE
  5
2DF
100
AcDbEntity
  8
0
100
AcDbLine
 62
7
  6
BYLAYER
 10
38.7746416642
 20
56.4533184041
 11
38.7746416642
 21
56.1829391331
  0
LINE
  5
2E0
100
AcDbEntity
  8
0
100
AcDbLine
 62
7
  6
BYLAYER
 10
38.7746416642
 20
25.6446443073
 11
38.7746416642
 21
18.7309067327
  0
LINE
  5
2E1
100
AcDbEntity
  8
0
100
AcDbLine
 62
7
  6
BYLAYER
 10
34.5320186409
 20
24.2015152556
 11
35.3098328618
 21
24.6505838249
  0
LINE
  5
2E2
100
AcDbEntity
  8
0
100
AcDbLine
 62
7
  6
BYLAYER
 10
16.8897779024
 20
12.0562178154
 11
13.8492314024
 21
10.3007679538
  0
LINE
  5
2E3
100
AcDbEntity
  8
0
100
AcDbLine
 62
7
  6
BYLAYER
 10
19.1763698604
 20
52.241889473
 11
14.8276450507
 21
54.7525701133
  0
LINE
  5
2E4
100
AcDbEntity
  8
0
100
AcDbLine
 62
7
  6
BYLAYER
 10
24.8739284864
 20
54.9640959783
 11
24.8574805963
 21
54.9844088163
  0
LINE
  5
2E5
100
AcDbEntity
  8
0
100
AcDbLine
 62
7
  6
BYLAYER
 10
26.8154572675
 20
55.6320518646
 11
26.6736926527
 21
55.8337369512
  0
LINE
  5
2E6
100
AcDbEntity
  8
0
100
AcDbLine
 62
7
  6
BYLAYER
 10
13.665436442
 20
7.9573723717
 11
16.705982942
 21
9.7128222333
  0
LINE
  5
2E7
100
AcDbEntity
  8
0
100
AcDbLine
 62
7
  6
BYLAYER
 10
16.8897779024
 20
9.6067105641
 11
13.8492314024
 21
7.8512607024
  0
LINE
  5
2E8
100
AcDbEntity
  8
0
100
AcDbLine
 62
7
  6
BYLAYER
 10
18.0211078312
 20
56.5963057036
 11
22.3698326408
 21
54.0856250633
  0
LINE
  5
2E9
100
AcDbEntity
  8
0
100
AcDbLine
 62
7
  6
BYLAYER
 10
22.7947047054
 20
54.1293371679
 11
18.4459798957
 21
56.6400178082
  0
LINE
  5
2EA
100
AcDbEntity
  8
0
100
AcDbLine
 62
7
  6
BYLAYER
 10
25.7706070816
 20
55.3516985899
 11
25.7565177827
 21
55.3667899333
  0
LINE
  5
2EB
100
AcDbEntity
  8
0
100
AcDbLine
 62
7
  6
BYLAYER
 10
35.3098328618
 20
52.9832176993
 11
35.4859261343
 21
52.326019469
  0
LINE
  5
2EC
100
AcDbEntity
  8
0
100
AcDbLine
 62
7
  6
BYLAYER
 10
35.2391224781
 20
18.8125922479
 11
30.2186852339
 21
15.9140587554
  0
LINE
  5
2ED
100
AcDbEntity
  8
0
100
AcDbLine
 62
7
  6
BYLAYER
 10
18.8590655132
 20
51.623673008
 11
18.9340275337
 21
51.6310383139
  0
LINE
  5
2EE
100
AcDbEntity
  8
0
100
AcDbLine
 62
7
  6
BYLAYER
 10
18.6631758864
 20
56.9758607096
 11
23.0119006961
 21
54.4651800693
  0
LINE
  5
2EF
100
AcDbEntity
  8
0
100
AcDbLine
 62
7
  6
BYLAYER
 10
18.7586267966
 20
57.0261574542
 11
23.1073516062
 21
54.5154768139
  0
LINE
  5
2F0
100
AcDbEntity
  8
0
100
AcDbLine
 62
7
  6
BYLAYER
 10
23.6716949144
 20
54.2949283328
 11
19.3229701048
 21
56.8056089731
  0
LINE
  5
2F1
100
AcDbEntity
  8
0
100
AcDbLine
 62
7
  6
BYLAYER
 10
19.5234555456
 20
57.1528618704
 11
23.8721803552
 21
54.6421812301
  0
LINE
  5
2F2
100
AcDbEntity
  8
0
100
AcDbLine
 62
7
  6
BYLAYER
 10
19.623454489
 20
57.2105966819
 11
23.9721792987
 21
54.6999160416
  0
LINE
  5
2F3
100
AcDbEntity
  8
0
100
AcDbLine
 62
7
  6
BYLAYER
 10
24.5710660884
 20
54.5629979071
 11
20.2223412788
 21
57.0736785474
  0
LINE
  5
2F4
100
AcDbEntity
  8
0
100
AcDbLine
 62
7
  6
BYLAYER
 10
20.4045903545
 20
57.4296986365
 11
24.7533151641
 21
54.9190179962
  0
LINE
  5
2F5
100
AcDbEntity
  8
0
100
AcDbLine
 62
7
  6
BYLAYER
 10
20.5087568026
 20
57.4950912195
 11
24.8574816123
 21
54.9844105792
  0
LINE
  5
2F6
100
AcDbEntity
  8
0
100
AcDbLine
 62
7
  6
BYLAYER
 10
25.4859734698
 20
54.9315057196
 11
21.1372486601
 21
57.4421863599
  0
LINE
  5
2F7
100
AcDbEntity
  8
0
100
AcDbLine
 62
7
  6
BYLAYER
 10
21.2998743451
 20
57.8042641128
 11
25.6485991548
 21
55.2935834725
  0
LINE
  5
2F8
100
AcDbEntity
  8
0
100
AcDbLine
 62
7
  6
BYLAYER
 10
26.6736926527
 20
55.8337369512
 11
26.6624491498
 21
55.8441500955
  0
LINE
  5
2F9
100
AcDbEntity
  8
0
100
AcDbLine
 62
7
  6
BYLAYER
 10
27.7389378585
 20
56.2322475515
 11
27.5763121734
 21
56.4065424592
  0
LINE
  5
2FA
100
AcDbEntity
  8
0
100
AcDbLine
 62
7
  6
BYLAYER
 10
38.067537827
 20
17.5061601617
 11
36.5826197688
 21
16.6488474386
  0
LINE
  5
2FB
100
AcDbEntity
  8
0
100
AcDbLine
 62
7
  6
BYLAYER
 10
19.1763698604
 20
6.5994043554
 11
22.1596430513
 21
8.321787654
  0
LINE
  5
2FC
100
AcDbEntity
  8
0
100
AcDbLine
 62
7
  6
BYLAYER
 10
28.9439567653
 20
12.2386896223
 11
29.1580294781
 21
12.3622838229
  0
LINE
  5
2FD
100
AcDbEntity
  8
0
100
AcDbLine
 62
7
  6
BYLAYER
 10
21.4077960522
 20
57.8774758916
 11
25.7565208618
 21
55.3667952513
  0
LINE
  5
2FE
100
AcDbEntity
  8
0
100
AcDbLine
 62
7
  6
BYLAYER
 10
26.4094540608
 20
55.3976472032
 11
22.0607292511
 21
57.9083278435
  0
LINE
  5
2FF
100
AcDbEntity
  8
0
100
AcDbLine
 62
7
  6
BYLAYER
 10
22.2024938658
 20
58.2737076299
 11
26.5512186755
 21
55.7630269896
  0
LINE
  5
300
100
AcDbEntity
  8
0
100
AcDbLine
 62
7
  6
BYLAYER
 10
22.3137300061
 20
58.35484052
 11
26.6624548158
 21
55.8441598797
  0
LINE
  5
301
100
AcDbEntity
  8
0
100
AcDbLine
 62
7
  6
BYLAYER
 10
27.3344796166
 20
55.9578747397
 11
22.9857548069
 21
58.46855538
  0
LINE
  5
302
100
AcDbEntity
  8
0
100
AcDbLine
 62
7
  6
BYLAYER
 10
23.105579437
 20
58.8344564392
 11
27.4543042467
 21
56.3237757989
  0
LINE
  5
303
100
AcDbEntity
  8
0
100
AcDbLine
 62
7
  6
BYLAYER
 10
23.21966396
 20
58.9235520717
 11
27.5683887697
 21
56.4128714314
  0
LINE
  5
304
100
AcDbEntity
  8
0
100
AcDbLine
 62
7
  6
BYLAYER
 10
27.5763121734
 20
56.4065424592
 11
27.5683780353
 21
56.4128528907
  0
LINE
  5
305
100
AcDbEntity
  8
0
100
AcDbLine
 62
7
  6
BYLAYER
 10
28.6538452398
 20
56.9201774788
 11
28.4715961641
 21
57.0657557181
  0
LINE
  5
306
100
AcDbEntity
  8
0
100
AcDbLine
 62
7
  6
BYLAYER
 10
35.4859261343
 20
52.326019469
 11
35.5774753807
 21
52.1959036672
  0
LINE
  5
307
100
AcDbEntity
  8
0
100
AcDbLine
 62
7
  6
BYLAYER
 10
34.7617291877
 20
52.6667717844
 11
35.5774353052
 21
52.195834292
  0
LINE
  5
308
100
AcDbEntity
  8
0
100
AcDbLine
 62
7
  6
BYLAYER
 10
35.4859261343
 20
52.326019469
 11
34.8287202656
 21
52.7054488704
  0
LINE
  5
309
100
AcDbEntity
  8
0
100
AcDbLine
 62
7
  6
BYLAYER
 10
28.2540101341
 20
56.6079246594
 11
23.9052853244
 21
59.1186052997
  0
LINE
  5
30A
100
AcDbEntity
  8
0
100
AcDbLine
 62
7
  6
BYLAYER
 10
24.0022580321
 20
59.4822429037
 11
28.3509828418
 21
56.9715622634
  0
LINE
  5
30B
100
AcDbEntity
  8
0
100
AcDbLine
 62
7
  6
BYLAYER
 10
24.1187032096
 20
59.5792823084
 11
28.4674280192
 21
57.0686016681
  0
LINE
  5
30C
100
AcDbEntity
  8
0
100
AcDbLine
 62
7
  6
BYLAYER
 10
29.1610474309
 20
57.3428496899
 11
24.8123226213
 21
59.8535303302
  0
LINE
  5
30D
100
AcDbEntity
  8
0
100
AcDbLine
 62
7
  6
BYLAYER
 10
24.8857053857
 20
60.2121369772
 11
29.2344301953
 21
57.7014563369
  0
LINE
  5
30E
100
AcDbEntity
  8
0
100
AcDbLine
 62
7
  6
BYLAYER
 10
29.5532164138
 20
57.6906060843
 11
25.0040061633
 21
60.3170403573
  0
LINE
  5
30F
100
AcDbEntity
  8
0
100
AcDbLine
 62
7
  6
BYLAYER
 10
28.4715961641
 20
57.0657557181
 11
28.4674170792
 21
57.0685827196
  0
LINE
  5
310
100
AcDbEntity
  8
0
100
AcDbLine
 62
7
  6
BYLAYER
 10
30.4302066229
 20
58.5376699412
 11
30.2130106322
 21
58.6227180122
  0
LINE
  5
311
100
AcDbEntity
  8
0
100
AcDbLine
 62
7
  6
BYLAYER
 10
30.0486884055
 20
58.1570566079
 11
25.6999635959
 21
60.6677372482
  0
LINE
  5
312
100
AcDbEntity
  8
0
100
AcDbLine
 62
7
  6
BYLAYER
 10
25.7491979299
 20
61.0185837251
 11
30.0979227395
 21
58.5079030848
  0
LINE
  5
313
100
AcDbEntity
  8
0
100
AcDbLine
 62
7
  6
BYLAYER
 10
30.2130106322
 20
58.6227180122
 11
25.8642858225
 21
61.1333986525
  0
LINE
  5
314
100
AcDbEntity
  8
0
100
AcDbLine
 62
7
  6
BYLAYER
 10
26.0814818132
 20
61.0483505815
 11
30.4302066229
 21
58.5376699412
  0
LINE
  5
315
100
AcDbEntity
  8
0
100
AcDbLine
 62
7
  6
BYLAYER
 10
30.6079048037
 20
58.7215576342
 11
26.259179994
 21
61.2322382745
  0
LINE
  5
316
100
AcDbEntity
  8
0
100
AcDbLine
 62
7
  6
BYLAYER
 10
31.1406313556
 20
59.1494178355
 11
26.791906546
 21
61.6600984758
  0
LINE
  5
317
100
AcDbEntity
  8
0
100
AcDbLine
 62
7
  6
BYLAYER
 10
25.8642858225
 20
61.1333986525
 11
26.0814818132
 21
61.0483505815
  0
LINE
  5
318
100
AcDbEntity
  8
0
100
AcDbLine
 62
7
  6
BYLAYER
 10
38.2730245872
 20
57.411209222
 11
32.6645141848
 21
59.6437197547
  0
LINE
  5
319
100
AcDbEntity
  8
0
100
AcDbLine
 62
7
  6
BYLAYER
 10
28.3157893751
 20
62.154400395
 11
33.9242997775
 21
59.9218898623
  0
LINE
  5
31A
100
AcDbEntity
  8
0
100
AcDbLine
 62
7
  6
BYLAYER
 10
38.3603525131
 20
57.3687789078
 11
38.2730245872
 21
57.411209222
  0
LINE
  5
31B
100
AcDbEntity
  8
0
100
AcDbLine
 62
7
  6
BYLAYER
 10
33.9242997775
 20
59.9218898623
 11
34.0116277035
 21
59.8794595481
  0
LINE
  5
31C
100
AcDbEntity
  8
0
100
AcDbLine
 62
7
  6
BYLAYER
 10
27.4031987777
 20
62.0130261037
 11
31.7519235873
 21
59.5023454634
  0
LINE
  5
31D
100
AcDbEntity
  8
0
100
AcDbLine
 62
7
  6
BYLAYER
 10
32.6645141848
 20
59.6437197547
 11
28.3157893751
 21
62.154400395
  0
LINE
  5
31E
100
AcDbEntity
  8
0
100
AcDbLine
 62
7
  6
BYLAYER
 10
33.9242997775
 20
59.9218898623
 11
38.2730245872
 21
57.411209222
  0
LINE
  5
31F
100
AcDbEntity
  8
0
100
AcDbLine
 62
7
  6
BYLAYER
 10
34.0116922131
 20
59.87957134
 11
38.3604170227
 21
57.3688906997
  0
ARC
  5
320
100
AcDbEntity
  8
0
100
AcDbCircle
 62
7
  6
BYLAYER
 10
14.682531179
 20
73.9330936092
 40
22.0229051626
100
AcDbArc
 50
315.6480305445
 51
316.3133198455
  0
ARC
  5
321
100
AcDbEntity
  8
0
100
AcDbCircle
 62
7
  6
BYLAYER
 10
10.3724874977
 20
76.4063950969
 40
21.969115452
100
AcDbArc
 50
315.6472160801
 51
316.3141343099
  0
ARC
  5
322
100
AcDbEntity
  8
0
100
AcDbCircle
 62
7
  6
BYLAYER
 10
15.5994438792
 20
73.0089247495
 40
20.7209713739
100
AcDbArc
 50
312.3310353584
 51
314.2127540535
  0
ARC
  5
323
100
AcDbEntity
  8
0
100
AcDbCircle
 62
7
  6
BYLAYER
 10
11.3610297912
 20
75.4024313914
 40
20.56006406
100
AcDbArc
 50
312.3236713288
 51
314.2201180831
  0
ARC
  5
324
100
AcDbEntity
  8
0
100
AcDbCircle
 62
7
  6
BYLAYER
 10
35.7167410187
 20
-5.7229439655
 40
19.4631010634
100
AcDbArc
 50
128.8403433911
 51
132.5357068131
  0
ARC
  5
325
100
AcDbEntity
  8
0
100
AcDbCircle
 62
7
  6
BYLAYER
 10
16.785540597
 20
71.6776724968
 40
18.9378012003
100
AcDbArc
 50
308.8070123261
 51
310.8046256674
  0
ARC
  5
326
100
AcDbEntity
  8
0
100
AcDbCircle
 62
7
  6
BYLAYER
 10
12.5248625968
 20
74.0825371044
 40
18.8001677555
100
AcDbArc
 50
308.9149513842
 51
310.812252302
  0
ARC
  5
327
100
AcDbEntity
  8
0
100
AcDbCircle
 62
7
  6
BYLAYER
 10
17.9444058646
 20
70.2019788479
 40
17.0612499388
100
AcDbArc
 50
305.0352689546
 51
307.1763415778
  0
ARC
  5
328
100
AcDbEntity
  8
0
100
AcDbCircle
 62
7
  6
BYLAYER
 10
34.2198497077
 20
-3.8450027845
 40
17.0612499387
100
AcDbArc
 50
125.0352689546
 51
127.1763415778
  0
ARC
  5
329
100
AcDbEntity
  8
0
100
AcDbCircle
 62
7
  6
BYLAYER
 10
13.6546853848
 20
72.6312801215
 40
16.9607541095
100
AcDbArc
 50
305.2936827695
 51
307.1836440418
  0
ARC
  5
32A
100
AcDbEntity
  8
0
100
AcDbCircle
 62
7
  6
BYLAYER
 10
3.6964311486
 20
53.9999650166
 40
16.437511172
100
AcDbArc
 50
325.8701184742
 51
326.983996975
  0
ARC
  5
32B
100
AcDbEntity
  8
0
100
AcDbCircle
 62
7
  6
BYLAYER
 10
19.0146724996
 20
68.6346809962
 40
15.1631331633
100
AcDbArc
 50
300.9611880343
 51
303.2769509192
  0
ARC
  5
32C
100
AcDbEntity
  8
0
100
AcDbCircle
 62
7
  6
BYLAYER
 10
33.1495830727
 20
-2.2777049328
 40
15.1631331632
100
AcDbArc
 50
120.9611880344
 51
123.2769509192
  0
ARC
  5
32D
100
AcDbEntity
  8
0
100
AcDbCircle
 62
7
  6
BYLAYER
 10
14.693087842
 20
71.1010435499
 40
15.1111906464
100
AcDbArc
 50
301.4218654549
 51
303.283119139
  0
ARC
  5
32E
100
AcDbEntity
  8
0
100
AcDbCircle
 62
7
  6
BYLAYER
 10
15.594139853
 20
69.5490484851
 40
13.3162740847
100
AcDbArc
 50
297.2631031595
 51
299.0528076431
  0
ARC
  5
32F
100
AcDbEntity
  8
0
100
AcDbCircle
 62
7
  6
BYLAYER
 10
32.2180744286
 20
-0.6773134511
 40
13.3110984175
100
AcDbArc
 50
116.5234138847
 51
119.0488533294
  0
ARC
  5
330
100
AcDbEntity
  8
0
100
AcDbCircle
 62
7
  6
BYLAYER
 10
19.9461811437
 20
67.0342895144
 40
13.3110984175
100
AcDbArc
 50
296.5234138847
 51
299.0488533294
  0
ARC
  5
331
100
AcDbEntity
  8
0
100
AcDbCircle
 62
7
  6
BYLAYER
 10
16.3266980955
 20
68.0330268547
 40
11.6321665704
100
AcDbArc
 50
292.7841473798
 51
294.4284045222
  0
ARC
  5
332
100
AcDbEntity
  8
0
100
AcDbCircle
 62
7
  6
BYLAYER
 10
31.4610303831
 20
0.8956075285
 40
11.5651498919
100
AcDbArc
 50
111.6546812119
 51
114.4279303451
  0
ARC
  5
333
100
AcDbEntity
  8
0
100
AcDbCircle
 62
7
  6
BYLAYER
 10
20.7032251893
 20
65.4613685349
 40
11.5651498919
100
AcDbArc
 50
291.6546812119
 51
294.4279303451
  0
ARC
  5
334
100
AcDbEntity
  8
0
100
AcDbCircle
 62
7
  6
BYLAYER
 10
16.8754204503
 20
66.6091459714
 40
10.1057913112
100
AcDbArc
 50
287.9721513054
 51
289.3409222468
  0
ARC
  5
335
100
AcDbEntity
  8
0
100
AcDbCircle
 62
7
  6
BYLAYER
 10
21.2667727473
 20
63.9747775167
 40
9.9749661605
100
AcDbArc
 50
286.2847414655
 51
289.3451852907
  0
ARC
  5
336
100
AcDbEntity
  8
0
100
AcDbCircle
 62
7
  6
BYLAYER
 10
17.2421152652
 20
65.3276659176
 40
8.7724233498
100
AcDbArc
 50
282.8502672643
 51
283.7215829869
  0
ARC
  5
337
100
AcDbEntity
  8
0
100
AcDbCircle
 62
7
  6
BYLAYER
 10
21.6355158429
 20
62.6280279111
 40
8.5782616999
100
AcDbArc
 50
280.3468099706
 51
283.7310724293
  0
ARC
  5
338
100
AcDbEntity
  8
0
100
AcDbCircle
 62
7
  6
BYLAYER
 10
21.8222634984
 20
61.4945646398
 40
7.429146493
100
AcDbArc
 50
274.2268484778
 51
277.5213379264
  0
ARC
  5
339
100
AcDbEntity
  8
0
100
AcDbCircle
 62
7
  6
BYLAYER
 10
17.4825121305
 20
63.9180253951
 40
7.3415028822
100
AcDbArc
 50
274.2071779848
 51
277.5410084194
  0
ARC
  5
33A
100
AcDbEntity
  8
0
100
AcDbCircle
 62
7
  6
BYLAYER
 10
14.6966134353
 20
11.4825483461
 40
2.9002690724
100
AcDbArc
 50
0.0416980316
 51
3.325306357
  0
ARC
  5
33B
100
AcDbEntity
  8
0
100
AcDbCircle
 62
7
  6
BYLAYER
 10
14.6966134353
 20
46.0206005907
 40
2.9002690724
100
AcDbArc
 50
0.0416980316
 51
3.325306357
  0
ARC
  5
33C
100
AcDbEntity
  8
0
100
AcDbCircle
 62
7
  6
BYLAYER
 10
14.9801242369
 20
10.9940537099
 40
2.6167575974
100
AcDbArc
 50
356.499374015
 51
0.015412581
  0
ARC
  5
33D
100
AcDbEntity
  8
0
100
AcDbCircle
 62
7
  6
BYLAYER
 10
14.9801242369
 20
45.5321059545
 40
2.6167575974
100
AcDbArc
 50
356.499374015
 51
0.015412581
  0
ARC
  5
33E
100
AcDbEntity
  8
0
100
AcDbCircle
 62
7
  6
BYLAYER
 10
16.987331275
 20
11.6479700794
 40
0.597705722
100
AcDbArc
 50
41.2206711333
 51
53.2568852864
  0
ARC
  5
33F
100
AcDbEntity
  8
0
100
AcDbCircle
 62
7
  6
BYLAYER
 10
16.987331275
 20
46.1860223239
 40
0.5977057221
100
AcDbArc
 50
41.2206711279
 51
53.2568852872
  0
ARC
  5
340
100
AcDbEntity
  8
0
100
AcDbCircle
 62
7
  6
BYLAYER
 10
25.8057696776
 20
55.2228962795
 40
0.1723347107
100
AcDbArc
 50
145.1780450405
 51
155.7842433136
  0
ARC
  5
341
100
AcDbEntity
  8
0
100
AcDbCircle
 62
7
  6
BYLAYER
 10
24.9063797163
 20
54.8407031514
 40
0.1719359533
100
AcDbArc
 50
143.2445141382
 51
152.9036321643
  0
ARC
  5
342
100
AcDbEntity
  8
0
100
AcDbCircle
 62
7
  6
BYLAYER
 10
24.018871986
 20
54.5576592787
 40
0.1692997189
100
AcDbArc
 50
141.2569251222
 51
150.0499717147
  0
ARC
  5
343
100
AcDbEntity
  8
0
100
AcDbCircle
 62
7
  6
BYLAYER
 10
23.1504614882
 20
54.3758290627
 40
0.1648717547
100
AcDbArc
 50
139.2195186291
 51
147.1840304003
  0
SPLINE
  5
344
100
AcDbEntity
  8
0
100
AcDbSpline
 62
7
  6
BYLAYER
 70
0
 71
3
 72
15
 73
11
 74
0
 42
0.0000001
 43
0.0000001
 44
0.0000000001
 40
0.0
 40
0.0
 40
0.0
 40
0.0
 40
0.1080115942
 40
0.2180661562
 40
0.332002388
 40
0.4513387659
 40
0.5772455935
 40
0.7105262128
 40
0.8515201999
 40
1.0
 40
1.0
 40
1.0
 40
1.0
 10
10.3486303496
 20
13.0163221988
 30
0.0
 10
10.3961753296
 20
13.0437721437
 30
0.0
 10
10.4971137441
 20
13.0910730389
 30
0.0
 10
10.6604689321
 20
13.1361882092
 30
0.0
 10
10.8345755146
 20
13.1556376457
 30
0.0
 10
11.0176124789
 20
13.1492861217
 30
0.0
 10
11.2078462409
 20
13.1173826669
 30
0.0
 10
11.4035222278
 20
13.0603241058
 30
0.0
 10
11.6026823916
 20
12.9787622043
 30
0.0
 10
11.7332544879
 20
12.9104542671
 30
0.0
 10
11.7986131995
 20
12.872720251
 30
0.0
  0
SPLINE
  5
345
100
AcDbEntity
  8
0
100
AcDbSpline
 62
7
  6
BYLAYER
 70
0
 71
3
 72
9
 73
5
 74
0
 42
0.0000001
 43
0.0000001
 44
0.0000000001
 40
0.0
 40
0.0
 40
0.0
 40
0.0
 40
0.4865456945
 40
1.0
 40
1.0
 40
1.0
 40
1.0
 10
17.4369119025
 20
12.0418347638
 30
0.0
 10
17.4825158896
 20
11.9898054054
 30
0.0
 10
17.5580854971
 20
11.8656229055
 30
0.0
 10
17.5877812458
 20
11.7236693515
 30
0.0
 10
17.5919993084
 20
11.6507783614
 30
0.0
  0
SPLINE
  5
346
100
AcDbEntity
  8
0
100
AcDbSpline
 62
7
  6
BYLAYER
 70
0
 71
3
 72
15
 73
11
 74
0
 42
0.0000001
 43
0.0000001
 44
0.0000000001
 40
0.0
 40
0.0
 40
0.0
 40
0.0
 40
0.1080115942
 40
0.2180661562
 40
0.332002388
 40
0.4513387659
 40
0.5772455935
 40
0.7105262128
 40
0.8515201999
 40
1.0
 40
1.0
 40
1.0
 40
1.0
 10
10.3486303496
 20
47.5543744434
 30
0.0
 10
10.3961753296
 20
47.5818243883
 30
0.0
 10
10.4971137441
 20
47.6291252835
 30
0.0
 10
10.6604689321
 20
47.6742404538
 30
0.0
 10
10.8345755146
 20
47.6936898902
 30
0.0
 10
11.0176124789
 20
47.6873383663
 30
0.0
 10
11.2078462409
 20
47.6554349115
 30
0.0
 10
11.4035222278
 20
47.5983763504
 30
0.0
 10
11.6026823916
 20
47.5168144489
 30
0.0
 10
11.7332544879
 20
47.4485065117
 30
0.0
 10
11.7986131995
 20
47.4107724956
 30
0.0
  0
SPLINE
  5
347
100
AcDbEntity
  8
0
100
AcDbSpline
 62
7
  6
BYLAYER
 70
0
 71
3
 72
14
 73
10
 74
0
 42
0.0000001
 43
0.0000001
 44
0.0000000001
 40
0.0
 40
0.0
 40
0.0
 40
0.0
 40
0.1173429265
 40
0.2456227969
 40
0.3793370136
 40
0.5138940773
 40
0.6456705012
 40
0.7719239107
 40
1.0
 40
1.0
 40
1.0
 40
1.0
 10
16.705982942
 20
9.7128222333
 30
0.0
 10
16.7559949337
 20
9.7416964978
 30
0.0
 10
16.8577682867
 20
9.8072313546
 30
0.0
 10
17.0068070647
 20
9.919905317
 30
0.0
 10
17.1532740144
 20
10.049213225
 30
0.0
 10
17.2894313826
 20
10.1917426974
 30
0.0
 10
17.4082227375
 20
10.3448528199
 30
0.0
 10
17.5302270553
 20
10.5506030883
 30
0.0
 10
17.5850521776
 20
10.7222464728
 30
0.0
 10
17.5919993084
 20
10.8342759443
 30
0.0
  0
SPLINE
  5
348
100
AcDbEntity
  8
0
100
AcDbSpline
 62
7
  6
BYLAYER
 70
0
 71
3
 72
10
 73
6
 74
0
 42
0.0000001
 43
0.0000001
 44
0.0000000001
 40
0.0
 40
0.0
 40
0.0
 40
0.0
 40
0.2783301333
 40
0.5377103182
 40
1.0
 40
1.0
 40
1.0
 40
1.0
 10
16.8897779024
 20
12.0562178154
 30
0.0
 10
16.9195882424
 20
12.0734287205
 30
0.0
 10
16.9791462946
 20
12.1035521715
 30
0.0
 10
17.0957733932
 20
12.1449206505
 30
0.0
 10
17.186739414
 20
12.1560593168
 30
0.0
 10
17.2436802431
 20
12.1509140817
 30
0.0
  0
SPLINE
  5
349
100
AcDbEntity
  8
0
100
AcDbSpline
 62
7
  6
BYLAYER
 70
0
 71
3
 72
9
 73
5
 74
0
 42
0.0000001
 43
0.0000001
 44
0.0000000001
 40
0.0
 40
0.0
 40
0.0
 40
0.0
 40
0.5080252874
 40
1.0
 40
1.0
 40
1.0
 40
1.0
 10
17.2436802431
 20
12.1509140817
 30
0.0
 10
17.2696232175
 20
12.1485698464
 30
0.0
 10
17.3204102669
 20
12.1389205204
 30
0.0
 10
17.3679207133
 20
12.1183540115
 30
0.0
 10
17.389766924
 20
12.1057413786
 30
0.0
  0
SPLINE
  5
34A
100
AcDbEntity
  8
0
100
AcDbSpline
 62
7
  6
BYLAYER
 70
0
 71
3
 72
11
 73
7
 74
0
 42
0.0000001
 43
0.0000001
 44
0.0000000001
 40
0.0
 40
0.0
 40
0.0
 40
0.0
 40
0.2372423294
 40
0.4999983821
 40
0.7627553152
 40
1.0
 40
1.0
 40
1.0
 40
1.0
 10
15.2174773274
 20
33.6057745439
 30
0.0
 10
15.234543606
 20
33.6156277056
 30
0.0
 10
15.2668377311
 20
33.6428099307
 30
0.0
 10
15.3045302124
 20
33.6943186369
 30
0.0
 10
15.3302915942
 20
33.7527159509
 30
0.0
 10
15.3376849797
 20
33.7942748536
 30
0.0
 10
15.3376849797
 20
33.813981461
 30
0.0
  0
SPLINE
  5
34B
100
AcDbEntity
  8
0
100
AcDbSpline
 62
7
  6
BYLAYER
 70
0
 71
3
 72
9
 73
5
 74
0
 42
0.0000001
 43
0.0000001
 44
0.0000000001
 40
0.0
 40
0.0
 40
0.0
 40
0.0
 40
0.2290783529
 40
1.0
 40
1.0
 40
1.0
 40
1.0
 10
15.1691153153
 20
33.589582106
 30
0.0
 10
15.1730198371
 20
33.5898550404
 30
0.0
 10
15.1899798513
 20
33.5922952098
 30
0.0
 10
15.206070003
 20
33.5991885614
 30
0.0
 10
15.2174773274
 20
33.6057745439
 30
0.0
  0
SPLINE
  5
34C
100
AcDbEntity
  8
0
100
AcDbSpline
 62
7
  6
BYLAYER
 70
0
 71
3
 72
10
 73
6
 74
0
 42
0.0000001
 43
0.0000001
 44
0.0000000001
 40
0.0
 40
0.0
 40
0.0
 40
0.0
 40
0.2783301333
 40
0.5377103182
 40
1.0
 40
1.0
 40
1.0
 40
1.0
 10
16.8897779024
 20
46.59427006
 30
0.0
 10
16.9195882424
 20
46.6114809651
 30
0.0
 10
16.9791462946
 20
46.641604416
 30
0.0
 10
17.0957733932
 20
46.6829728951
 30
0.0
 10
17.186739414
 20
46.6941115614
 30
0.0
 10
17.2436802431
 20
46.6889663263
 30
0.0
  0
SPLINE
  5
34D
100
AcDbEntity
  8
0
100
AcDbSpline
 62
7
  6
BYLAYER
 70
0
 71
3
 72
9
 73
5
 74
0
 42
0.0000001
 43
0.0000001
 44
0.0000000001
 40
0.0
 40
0.0
 40
0.0
 40
0.0
 40
0.5080252874
 40
1.0
 40
1.0
 40
1.0
 40
1.0
 10
17.2436802431
 20
46.6889663263
 30
0.0
 10
17.2696232175
 20
46.686622091
 30
0.0
 10
17.3204102669
 20
46.676972765
 30
0.0
 10
17.3679207133
 20
46.656406256
 30
0.0
 10
17.389766924
 20
46.6437936232
 30
0.0
  0
SPLINE
  5
34E
100
AcDbEntity
  8
0
100
AcDbSpline
 62
7
  6
BYLAYER
 70
0
 71
3
 72
15
 73
11
 74
0
 42
0.0000001
 43
0.0000001
 44
0.0000000001
 40
0.0
 40
0.0
 40
0.0
 40
0.0
 40
0.1368492043
 40
0.2826959786
 40
0.4299097819
 40
0.5716103407
 40
0.7015819707
 40
0.8155735727
 40
0.9133883281
 40
1.0
 40
1.0
 40
1.0
 40
1.0
 10
14.6498841098
 20
47.8281887049
 30
0.0
 10
14.6597825635
 20
47.8359641852
 30
0.0
 10
14.6785703246
 20
47.8541860142
 30
0.0
 10
14.702196678
 20
47.8860786844
 30
0.0
 10
14.720809906
 20
47.9216612786
 30
0.0
 10
14.7330906421
 20
47.9583647032
 30
0.0
 10
14.7382832686
 20
47.9936813759
 30
0.0
 10
14.7358690494
 20
48.0253692622
 30
0.0
 10
14.7255712955
 20
48.0514077031
 30
0.0
 10
14.7129641859
 20
48.063776703
 30
0.0
 10
14.7060651146
 20
48.0677599976
 30
0.0
  0
SPLINE
  5
34F
100
AcDbEntity
  8
0
100
AcDbSpline
 62
7
  6
BYLAYER
 70
0
 71
3
 72
9
 73
5
 74
0
 42
0.0000001
 43
0.0000001
 44
0.0000000001
 40
0.0
 40
0.0
 40
0.0
 40
0.0
 40
0.2368460488
 40
1.0
 40
1.0
 40
1.0
 40
1.0
 10
18.9340275337
 20
51.6310383139
 30
0.0
 10
18.9371428845
 20
51.6328369518
 30
0.0
 10
18.9500052367
 20
51.6409329687
 30
0.0
 10
18.9616950681
 20
51.6508222022
 30
0.0
 10
18.9699214632
 20
51.6589878734
 30
0.0
  0
SPLINE
  5
350
100
AcDbEntity
  8
0
100
AcDbSpline
 62
7
  6
BYLAYER
 70
0
 71
3
 72
9
 73
5
 74
0
 42
0.0000001
 43
0.0000001
 44
0.0000000001
 40
0.0
 40
0.0
 40
0.0
 40
0.0
 40
0.5346283732
 40
1.0
 40
1.0
 40
1.0
 40
1.0
 10
23.1269885887
 20
54.4832564002
 30
0.0
 10
23.1258501912
 20
54.490054181
 30
0.0
 10
23.121869969
 20
54.5026682314
 30
0.0
 10
23.112549994
 20
54.5124812313
 30
0.0
 10
23.1073547488
 20
54.5154819692
 30
0.0
  0
SPLINE
  5
351
100
AcDbEntity
  8
0
100
AcDbSpline
 62
7
  6
BYLAYER
 70
0
 71
3
 72
9
 73
5
 74
0
 42
0.0000001
 43
0.0000001
 44
0.0000000001
 40
0.0
 40
0.0
 40
0.0
 40
0.0
 40
0.526874883
 40
1.0
 40
1.0
 40
1.0
 40
1.0
 10
23.9904811329
 20
54.6738790062
 30
0.0
 10
23.9890058493
 20
54.6793849167
 30
0.0
 10
23.9846959992
 20
54.6895702418
 30
0.0
 10
23.9766127676
 20
54.69735767
 30
0.0
 10
23.9721812882
 20
54.6999193747
 30
0.0
  0
SPLINE
  5
352
100
AcDbEntity
  8
0
100
AcDbSpline
 62
7
  6
BYLAYER
 70
0
 71
3
 72
14
 73
10
 74
0
 42
0.0000001
 43
0.0000001
 44
0.0000000001
 40
0.0
 40
0.0
 40
0.0
 40
0.0
 40
0.2892273718
 40
0.4225292742
 40
0.5484660507
 40
0.6678245545
 40
0.7817859973
 40
0.8919078528
 40
1.0
 40
1.0
 40
1.0
 40
1.0
 10
38.7746416642
 20
56.4533184041
 30
0.0
 10
38.7746416642
 20
56.5546740918
 30
0.0
 10
38.7628005111
 20
56.7034702437
 30
0.0
 10
38.7170665779
 20
56.8904898602
 30
0.0
 10
38.6705320885
 20
57.0151127908
 30
0.0
 10
38.6112286495
 20
57.1266174561
 30
0.0
 10
38.5396039011
 20
57.223927873
 30
0.0
 10
38.4562863722
 20
57.3059337985
 30
0.0
 10
38.3932068917
 20
57.3499255874
 30
0.0
 10
38.360405955
 20
57.3688714598
 30
0.0
  0
SPLINE
  5
353
100
AcDbEntity
  8
0
100
AcDbSpline
 62
7
  6
BYLAYER
 70
0
 71
3
 72
12
 73
8
 74
0
 42
0.0000001
 43
0.0000001
 44
0.0000000001
 40
0.0
 40
0.0
 40
0.0
 40
0.0
 40
0.260116799
 40
0.5214609702
 40
0.7715619551
 40
0.8891089481
 40
1.0
 40
1.0
 40
1.0
 40
1.0
 10
38.0232960913
 20
54.3066393065
 30
0.0
 10
38.1380542987
 20
54.4432076235
 30
0.0
 10
38.3455842537
 20
54.7366522705
 30
0.0
 10
38.582328566
 20
55.211931876
 30
0.0
 10
38.7119354056
 20
55.6258783296
 30
0.0
 10
38.7651791095
 20
55.9501354852
 30
0.0
 10
38.7746416642
 20
56.1068923955
 30
0.0
 10
38.7746416642
 20
56.1829391331
 30
0.0
  0
SPLINE
  5
354
100
AcDbEntity
  8
0
100
AcDbSpline
 62
7
  6
BYLAYER
 70
0
 71
3
 72
9
 73
5
 74
0
 42
0.0000001
 43
0.0000001
 44
0.0000000001
 40
0.0
 40
0.0
 40
0.0
 40
0.0
 40
0.4869145385
 40
1.0
 40
1.0
 40
1.0
 40
1.0
 10
35.8755159316
 20
52.2483598801
 30
0.0
 10
36.2621485307
 20
52.5388467333
 30
0.0
 10
37.0176199239
 20
53.187783513
 30
0.0
 10
37.6954627947
 20
53.9165003998
 30
0.0
 10
38.0232960913
 20
54.3066393065
 30
0.0
  0
SPLINE
  5
355
100
AcDbEntity
  8
0
100
AcDbSpline
 62
7
  6
BYLAYER
 70
0
 71
3
 72
13
 73
9
 74
0
 42
0.0000001
 43
0.0000001
 44
0.0000000001
 40
0.0
 40
0.0
 40
0.0
 40
0.0
 40
0.114175582
 40
0.23756922
 40
0.49999856
 40
0.7624286893
 40
0.8858231943
 40
1.0
 40
1.0
 40
1.0
 40
1.0
 10
34.1784667223
 20
25.427589171
 30
0.0
 10
34.2026528338
 20
25.4415529457
 30
0.0
 10
34.2504515952
 20
25.4750931663
 30
0.0
 10
34.3399977948
 20
25.558824035
 30
0.0
 10
34.4344967969
 20
25.6880176184
 30
0.0
 10
34.4991314773
 20
25.8344534667
 30
0.0
 10
34.5268713078
 20
25.9538689308
 30
0.0
 10
34.5320186409
 20
26.012034483
 30
0.0
 10
34.5320186409
 20
26.0399624565
 30
0.0
  0
SPLINE
  5
356
100
AcDbEntity
  8
0
100
AcDbSpline
 62
7
  6
BYLAYER
 70
0
 71
3
 72
9
 73
5
 74
0
 42
0.0000001
 43
0.0000001
 44
0.0000000001
 40
0.0
 40
0.0
 40
0.0
 40
0.0
 40
0.2366979575
 40
1.0
 40
1.0
 40
1.0
 40
1.0
 10
34.0869607523
 20
25.3886693126
 30
0.0
 10
34.0945516264
 20
25.3907032285
 30
0.0
 10
34.1262887926
 20
25.4005314446
 30
0.0
 10
34.1565194552
 20
25.4149179861
 30
0.0
 10
34.1784667223
 20
25.427589171
 30
0.0
  0
SPLINE
  5
357
100
AcDbEntity
  8
0
100
AcDbSpline
 62
7
  6
BYLAYER
 70
0
 71
3
 72
9
 73
5
 74
0
 42
0.0000001
 43
0.0000001
 44
0.0000000001
 40
0.0
 40
0.0
 40
0.0
 40
0.0
 40
0.2638121517
 40
1.0
 40
1.0
 40
1.0
 40
1.0
 10
30.2186852339
 20
24.3377933372
 30
0.0
 10
30.2262697626
 20
24.3421722407
 30
0.0
 10
30.2554652496
 20
24.3579614143
 30
0.0
 10
30.2865844811
 20
24.3703879573
 30
0.0
 10
30.3101912038
 20
24.3767131956
 30
0.0
  0
SPLINE
  5
358
100
AcDbEntity
  8
0
100
AcDbSpline
 62
7
  6
BYLAYER
 70
0
 71
3
 72
13
 73
9
 74
0
 42
0.0000001
 43
0.0000001
 44
0.0000000001
 40
0.0
 40
0.0
 40
0.0
 40
0.0
 40
0.114176888
 40
0.2375715548
 40
0.5000017735
 40
0.762431024
 40
0.8858245003
 40
1.0
 40
1.0
 40
1.0
 40
1.0
 10
29.8651333153
 20
23.7254200517
 30
0.0
 10
29.8651333153
 20
23.7533480454
 30
0.0
 10
29.8702806808
 20
23.811513655
 30
0.0
 10
29.8980205143
 20
23.9309292008
 30
0.0
 10
29.9626552637
 20
24.0773650708
 30
0.0
 10
30.0571542816
 20
24.2065585836
 30
0.0
 10
30.1467004119
 20
24.2902894087
 30
0.0
 10
30.1944991399
 20
24.3238295727
 30
0.0
 10
30.2186852339
 20
24.3377933372
 30
0.0
  0
SPLINE
  5
359
100
AcDbEntity
  8
0
100
AcDbSpline
 62
7
  6
BYLAYER
 70
0
 71
3
 72
13
 73
9
 74
0
 42
0.0000001
 43
0.0000001
 44
0.0000000001
 40
0.0
 40
0.0
 40
0.0
 40
0.0
 40
0.2893056318
 40
0.5483437345
 40
0.6677644571
 40
0.781746555
 40
0.8918644945
 40
1.0
 40
1.0
 40
1.0
 40
1.0
 10
38.7746416642
 20
25.6446443073
 30
0.0
 10
38.7746416642
 20
25.7257136742
 30
0.0
 10
38.7623923093
 20
25.8798280946
 30
0.0
 10
38.7088703852
 20
26.0611321415
 30
0.0
 10
38.6438777888
 20
26.1833380943
 30
0.0
 10
38.5865710478
 20
26.2611587651
 30
0.0
 10
38.5199361543
 20
26.3267386165
 30
0.0
 10
38.4695060541
 20
26.3619546954
 30
0.0
 10
38.4432602215
 20
26.3770991474
 30
0.0
  0
SPLINE
  5
35A
100
AcDbEntity
  8
0
100
AcDbSpline
 62
7
  6
BYLAYER
 70
0
 71
3
 72
15
 73
11
 74
0
 42
0.0000001
 43
0.0000001
 44
0.0000000001
 40
0.0
 40
0.0
 40
0.0
 40
0.0
 40
0.1141229605
 40
0.2373462928
 40
0.366971064
 40
0.4999983279
 40
0.633025824
 40
0.762651271
 40
0.8858756957
 40
1.0
 40
1.0
 40
1.0
 40
1.0
 10
38.067537827
 20
17.5061601617
 30
0.0
 10
38.1159312683
 20
17.5340999613
 30
0.0
 10
38.2115384132
 20
17.6011462584
 30
0.0
 10
38.3431160215
 20
17.7242034528
 30
0.0
 10
38.4643447743
 20
17.8697230924
 30
0.0
 10
38.5707066649
 20
18.0321496857
 30
0.0
 10
38.6581905943
 20
18.2054757939
 30
0.0
 10
38.7235995422
 20
18.3832239704
 30
0.0
 10
38.7643812919
 20
18.5587036962
 30
0.0
 10
38.7746416642
 20
18.6750262253
 30
0.0
 10
38.7746416642
 20
18.7309067327
 30
0.0
  0
SPLINE
  5
35B
100
AcDbEntity
  8
0
100
AcDbSpline
 62
7
  6
BYLAYER
 70
0
 71
3
 72
11
 73
7
 74
0
 42
0.0000001
 43
0.0000001
 44
0.0000000001
 40
0.0
 40
0.0
 40
0.0
 40
0.0
 40
0.289702809
 40
0.549088757
 40
0.7822160314
 40
1.0
 40
1.0
 40
1.0
 40
1.0
 10
35.2391224781
 20
18.8125922479
 30
0.0
 10
35.2830006795
 20
18.837925188
 30
0.0
 10
35.3702885589
 20
18.8794505671
 30
0.0
 10
35.5044519112
 20
18.9118498021
 30
0.0
 10
35.6303365275
 20
18.9086635024
 30
0.0
 10
35.7061259441
 20
18.8811596035
 30
0.0
 10
35.7391114997
 20
18.8621158111
 30
0.0
  0
SPLINE
  5
35C
100
AcDbEntity
  8
0
100
AcDbSpline
 62
7
  6
BYLAYER
 70
0
 71
3
 72
13
 73
9
 74
0
 42
0.0000001
 43
0.0000001
 44
0.0000000001
 40
0.0
 40
0.0
 40
0.0
 40
0.0
 40
0.114176888
 40
0.2375715548
 40
0.5000017735
 40
0.762431024
 40
0.8858245003
 40
1.0
 40
1.0
 40
1.0
 40
1.0
 10
29.8651333153
 20
15.3016854699
 30
0.0
 10
29.8651333153
 20
15.3296134636
 30
0.0
 10
29.8702806808
 20
15.3877790732
 30
0.0
 10
29.8980205143
 20
15.507194619
 30
0.0
 10
29.9626552637
 20
15.6536304889
 30
0.0
 10
30.0571542816
 20
15.7828240018
 30
0.0
 10
30.1467004119
 20
15.8665548269
 30
0.0
 10
30.1944991399
 20
15.9000949909
 30
0.0
 10
30.2186852339
 20
15.9140587554
 30
0.0
  0
SPLINE
  5
35D
100
AcDbEntity
  8
0
100
AcDbSpline
 62
7
  6
BYLAYER
 70
0
 71
3
 72
15
 73
11
 74
0
 42
0.0000001
 43
0.0000001
 44
0.0000000001
 40
0.0
 40
0.0
 40
0.0
 40
0.0
 40
0.1141229605
 40
0.2373462928
 40
0.366971064
 40
0.4999983279
 40
0.633025824
 40
0.762651271
 40
0.8858756957
 40
1.0
 40
1.0
 40
1.0
 40
1.0
 10
29.1580294781
 20
12.3622838229
 30
0.0
 10
29.2064229194
 20
12.3902236225
 30
0.0
 10
29.3020300643
 20
12.4572699196
 30
0.0
 10
29.4336076726
 20
12.580327114
 30
0.0
 10
29.5548364254
 20
12.7258467536
 30
0.0
 10
29.661198316
 20
12.8882733469
 30
0.0
 10
29.7486822454
 20
13.0615994552
 30
0.0
 10
29.8140911933
 20
13.2393476316
 30
0.0
 10
29.854872943
 20
13.4148273574
 30
0.0
 10
29.8651333153
 20
13.5311498866
 30
0.0
 10
29.8651333153
 20
13.5870303939
 30
0.0
  0
SPLINE
  5
35E
100
AcDbEntity
  8
0
100
AcDbSpline
 62
7
  6
BYLAYER
 70
0
 71
3
 72
9
 73
5
 74
0
 42
0.0000001
 43
0.0000001
 44
0.0000000001
 40
0.0
 40
0.0
 40
0.0
 40
0.0
 40
0.235432843
 40
1.0
 40
1.0
 40
1.0
 40
1.0
 10
28.5448794881
 20
12.0746520125
 30
0.0
 10
28.5778899399
 20
12.0824983445
 30
0.0
 10
28.7166501067
 20
12.121907988
 30
0.0
 10
28.8485310095
 20
12.1835958654
 30
0.0
 10
28.9439567653
 20
12.2386896223
 30
0.0
  0
SPLINE
  5
35F
100
AcDbEntity
  8
0
100
AcDbSpline
 62
7
  6
BYLAYER
 70
0
 71
3
 72
9
 73
5
 74
0
 42
0.0000001
 43
0.0000001
 44
0.0000000001
 40
0.0
 40
0.0
 40
0.0
 40
0.0
 40
0.2550508565
 40
1.0
 40
1.0
 40
1.0
 40
1.0
 10
27.593189484
 20
11.7939781562
 30
0.0
 10
27.6728070837
 20
11.8219136479
 30
0.0
 10
27.9862940092
 20
11.9276132027
 30
0.0
 10
28.305114447
 20
12.0176616961
 30
0.0
 10
28.5448794881
 20
12.0746520125
 30
0.0
  0
SPLINE
  5
360
100
AcDbEntity
  8
0
100
AcDbSpline
 62
7
  6
BYLAYER
 70
0
 71
3
 72
9
 73
5
 74
0
 42
0.0000001
 43
0.0000001
 44
0.0000000001
 40
0.0
 40
0.0
 40
0.0
 40
0.0
 40
0.4747253092
 40
1.0
 40
1.0
 40
1.0
 40
1.0
 10
27.3567731118
 20
11.3775182726
 30
0.0
 10
27.3680024733
 20
11.3840015087
 30
0.0
 10
27.3889583136
 20
11.4023234416
 30
0.0
 10
27.4044027731
 20
11.4251869217
 30
0.0
 10
27.4109404083
 20
11.4379580671
 30
0.0
  0
SPLINE
  5
361
100
AcDbEntity
  8
0
100
AcDbSpline
 62
7
  6
BYLAYER
 70
0
 71
3
 72
9
 73
5
 74
0
 42
0.0000001
 43
0.0000001
 44
0.0000000001
 40
0.0
 40
0.0
 40
0.0
 40
0.0
 40
0.4756545489
 40
1.0
 40
1.0
 40
1.0
 40
1.0
 10
26.4577338622
 20
10.9951336004
 30
0.0
 10
26.4701647227
 20
11.0023105182
 30
0.0
 10
26.4930078198
 20
11.0230486841
 30
0.0
 10
26.5091733692
 20
11.0489584158
 30
0.0
 10
26.5156564176
 20
11.0633925908
 30
0.0
  0
SPLINE
  5
362
100
AcDbEntity
  8
0
100
AcDbSpline
 62
7
  6
BYLAYER
 70
0
 71
3
 72
9
 73
5
 74
0
 42
0.0000001
 43
0.0000001
 44
0.0000000001
 40
0.0
 40
0.0
 40
0.0
 40
0.0
 40
0.4772211404
 40
1.0
 40
1.0
 40
1.0
 40
1.0
 10
25.5517999083
 20
10.517768972
 30
0.0
 10
25.5654407915
 20
10.5256444926
 30
0.0
 10
25.5900858112
 20
10.5488577039
 30
0.0
 10
25.606795492
 20
10.5778626673
 30
0.0
 10
25.6130368969
 20
10.5939490737
 30
0.0
  0
SPLINE
  5
363
100
AcDbEntity
  8
0
100
AcDbSpline
 62
7
  6
BYLAYER
 70
0
 71
3
 72
10
 73
6
 74
0
 42
0.0000001
 43
0.0000001
 44
0.0000000001
 40
0.0
 40
0.0
 40
0.0
 40
0.0
 40
0.2289051496
 40
0.4805992715
 40
1.0
 40
1.0
 40
1.0
 40
1.0
 10
24.6458659543
 20
9.9490574203
 30
0.0
 10
24.6529759939
 20
9.9531623791
 30
0.0
 10
24.6668152593
 20
9.9637204113
 30
0.0
 10
24.690852153
 20
9.9904704472
 30
0.0
 10
24.7041537172
 20
10.0154964659
 30
0.0
 10
24.7099513257
 20
10.0332002644
 30
0.0
  0
SPLINE
  5
364
100
AcDbEntity
  8
0
100
AcDbSpline
 62
7
  6
BYLAYER
 70
0
 71
3
 72
10
 73
6
 74
0
 42
0.0000001
 43
0.0000001
 44
0.0000000001
 40
0.0
 40
0.0
 40
0.0
 40
0.0
 40
0.2299642295
 40
0.4835915267
 40
1.0
 40
1.0
 40
1.0
 40
1.0
 10
23.7468267048
 20
9.2933271837
 30
0.0
 10
23.754514037
 20
9.2977654405
 30
0.0
 10
23.7694068243
 20
9.3093651538
 30
0.0
 10
23.7946778543
 20
9.3386788403
 30
0.0
 10
23.808136552
 20
9.3661536625
 30
0.0
 10
23.8132727306
 20
9.3854137999
 30
0.0
  0
SPLINE
  5
365
100
AcDbEntity
  8
0
100
AcDbSpline
 62
7
  6
BYLAYER
 70
0
 71
3
 72
9
 73
5
 74
0
 42
0.0000001
 43
0.0000001
 44
0.0000000001
 40
0.0
 40
0.0
 40
0.0
 40
0.0
 40
0.2386599626
 40
1.0
 40
1.0
 40
1.0
 40
1.0
 10
22.1596430513
 20
8.321787654
 30
0.0
 10
22.1939459606
 20
8.3415923297
 30
0.0
 10
22.3350505013
 20
8.4291028704
 30
0.0
 10
22.4655913811
 20
8.5331626751
 30
0.0
 10
22.5587203285
 20
8.6185620404
 30
0.0
  0
SPLINE
  5
366
100
AcDbEntity
  8
0
100
AcDbSpline
 62
7
  6
BYLAYER
 70
0
 71
3
 72
9
 73
5
 74
0
 42
0.0000001
 43
0.0000001
 44
0.0000000001
 40
0.0
 40
0.0
 40
0.0
 40
0.0
 40
0.5324907192
 40
1.0
 40
1.0
 40
1.0
 40
1.0
 10
15.0042953595
 20
6.7296557235
 30
0.0
 10
15.0325425467
 20
6.7547039562
 30
0.0
 10
15.0896919848
 20
6.7974219621
 30
0.0
 10
15.1552904539
 20
6.82673842
 30
0.0
 10
15.1873072995
 20
6.8353170856
 30
0.0
  0
SPLINE
  5
367
100
AcDbEntity
  8
0
100
AcDbSpline
 62
7
  6
BYLAYER
 70
0
 71
3
 72
11
 73
7
 74
0
 42
0.0000001
 43
0.0000001
 44
0.0000000001
 40
0.0
 40
0.0
 40
0.0
 40
0.0
 40
0.2441854351
 40
0.5000011029
 40
0.7558161972
 40
1.0
 40
1.0
 40
1.0
 40
1.0
 10
14.7542964004
 20
6.2966424207
 30
0.0
 10
14.7625784469
 20
6.3371150977
 30
0.0
 10
14.7873045938
 20
6.4184984932
 30
0.0
 10
14.8429880996
 20
6.53411181
 30
0.0
 10
14.915269733
 20
6.6401419315
 30
0.0
 10
14.9733862737
 20
6.7022470483
 30
0.0
 10
15.0042953595
 20
6.7296557235
 30
0.0
  0
SPLINE
  5
368
100
AcDbEntity
  8
0
100
AcDbSpline
 62
7
  6
BYLAYER
 70
0
 71
3
 72
13
 73
9
 74
0
 42
0.0000001
 43
0.0000001
 44
0.0000000001
 40
0.0
 40
0.0
 40
0.0
 40
0.0
 40
0.3062810368
 40
0.5829109595
 40
0.7037222269
 40
0.8118913526
 40
0.9091710052
 40
1.0
 40
1.0
 40
1.0
 40
1.0
 10
14.7060651146
 20
5.6117013462
 30
0.0
 10
14.7156941467
 20
5.6283794115
 30
0.0
 10
14.7305953688
 20
5.6622162969
 30
0.0
 10
14.7385110534
 20
5.706430944
 30
0.0
 10
14.7359665273
 20
5.7382981098
 30
0.0
 10
14.730095032
 20
5.7581465949
 30
0.0
 10
14.7202735558
 20
5.7742760742
 30
0.0
 10
14.7110076181
 20
5.7820487288
 30
0.0
 10
14.7060629765
 20
5.7849065327
 30
0.0
  0
SPLINE
  5
369
100
AcDbEntity
  8
0
100
AcDbSpline
 62
7
  6
BYLAYER
 70
0
 71
3
 72
9
 73
5
 74
0
 42
0.0000001
 43
0.0000001
 44
0.0000000001
 40
0.0
 40
0.0
 40
0.0
 40
0.0
 40
0.4885873359
 40
1.0
 40
1.0
 40
1.0
 40
1.0
 10
14.5186491974
 20
5.3489663111
 30
0.0
 10
14.5433878553
 20
5.3709033506
 30
0.0
 10
14.5899038973
 20
5.4205532849
 30
0.0
 10
14.6281392817
 20
5.4767290952
 30
0.0
 10
14.6454435887
 20
5.5067012005
 30
0.0
  0
SPLINE
  5
36A
100
AcDbEntity
  8
0
100
AcDbSpline
 62
7
  6
BYLAYER
 70
0
 71
3
 72
9
 73
5
 74
0
 42
0.0000001
 43
0.0000001
 44
0.0000000001
 40
0.0
 40
0.0
 40
0.0
 40
0.0
 40
0.4675092808
 40
1.0
 40
1.0
 40
1.0
 40
1.0
 10
14.3722396455
 20
5.2644372215
 30
0.0
 10
14.3978531219
 20
5.2713001539
 30
0.0
 10
14.4503318972
 20
5.2947533202
 30
0.0
 10
14.4960514477
 20
5.3289277249
 30
0.0
 10
14.5186491974
 20
5.3489663111
 30
0.0
  0
SPLINE
  5
36B
100
AcDbEntity
  8
0
100
AcDbSpline
 62
7
  6
BYLAYER
 70
0
 71
3
 72
15
 73
11
 74
0
 42
0.0000001
 43
0.0000001
 44
0.0000000001
 40
0.0
 40
0.0
 40
0.0
 40
0.0
 40
0.1109190487
 40
0.2288111843
 40
0.352338455
 40
0.4801361176
 40
0.6105550012
 40
0.7418448552
 40
0.8723119212
 40
1.0
 40
1.0
 40
1.0
 40
1.0
 10
11.7986131995
 20
12.872720251
 30
0.0
 10
11.8996720003
 20
12.8143752451
 30
0.0
 10
12.1005765392
 20
12.6806122621
 30
0.0
 10
12.3858014103
 20
12.4429490765
 30
0.0
 10
12.6591389501
 20
12.1661588853
 30
0.0
 10
12.9150221754
 20
11.855971984
 30
0.0
 10
13.1484898149
 20
11.5186326525
 30
0.0
 10
13.3547789001
 20
11.1607711345
 30
0.0
 10
13.5296087951
 20
10.7897389684
 30
0.0
 10
13.6244085351
 20
10.5347947437
 30
0.0
 10
13.665436442
 20
10.4068796231
 30
0.0
  0
SPLINE
  5
36C
100
AcDbEntity
  8
0
100
AcDbSpline
 62
7
  6
BYLAYER
 70
0
 71
3
 72
11
 73
7
 74
0
 42
0.0000001
 43
0.0000001
 44
0.0000000001
 40
0.0
 40
0.0
 40
0.0
 40
0.0
 40
0.2289868868
 40
0.4808752395
 40
0.7427799866
 40
1.0
 40
1.0
 40
1.0
 40
1.0
 10
9.5005065927
 20
20.8539974028
 30
0.0
 10
9.5005065927
 20
20.8964595737
 30
0.0
 10
9.5123125764
 20
20.9857303712
 30
0.0
 10
9.5564255251
 20
21.1169035518
 30
0.0
 10
9.6244373788
 20
21.2433848782
 30
0.0
 10
9.683776097
 20
21.3199203864
 30
0.0
 10
9.7164193363
 20
21.3546979365
 30
0.0
  0
SPLINE
  5
36D
100
AcDbEntity
  8
0
100
AcDbSpline
 62
7
  6
BYLAYER
 70
0
 71
3
 72
9
 73
5
 74
0
 42
0.0000001
 43
0.0000001
 44
0.0000000001
 40
0.0
 40
0.0
 40
0.0
 40
0.0
 40
0.4865456945
 40
1.0
 40
1.0
 40
1.0
 40
1.0
 10
17.4369119025
 20
46.5798870083
 30
0.0
 10
17.4825158896
 20
46.52785765
 30
0.0
 10
17.5580854971
 20
46.4036751501
 30
0.0
 10
17.5877812458
 20
46.261721596
 30
0.0
 10
17.5919993084
 20
46.188830606
 30
0.0
  0
SPLINE
  5
36E
100
AcDbEntity
  8
0
100
AcDbSpline
 62
7
  6
BYLAYER
 70
0
 71
3
 72
11
 73
7
 74
0
 42
0.0000001
 43
0.0000001
 44
0.0000000001
 40
0.0
 40
0.0
 40
0.0
 40
0.0
 40
0.2176746257
 40
0.4508262044
 40
0.7104504926
 40
1.0
 40
1.0
 40
1.0
 40
1.0
 10
18.9264008582
 20
6.5746868757
 30
0.0
 10
18.9428851287
 20
6.5651711685
 30
0.0
 10
18.9807520024
 20
6.5513857271
 30
0.0
 10
19.0437124217
 20
6.5497491133
 30
0.0
 10
19.1107914649
 20
6.5659941206
 30
0.0
 10
19.1544434066
 20
6.586745187
 30
0.0
 10
19.1763698604
 20
6.5994043554
 30
0.0
  0
SPLINE
  5
36F
100
AcDbEntity
  8
0
100
AcDbSpline
 62
7
  6
BYLAYER
 70
0
 71
3
 72
11
 73
7
 74
0
 42
0.0000001
 43
0.0000001
 44
0.0000000001
 40
0.0
 40
0.0
 40
0.0
 40
0.0
 40
0.217901775
 40
0.4510306955
 40
0.7104357529
 40
1.0
 40
1.0
 40
1.0
 40
1.0
 10
23.6968291392
 20
9.2883771319
 30
0.0
 10
23.7001309569
 20
9.2864743341
 30
0.0
 10
23.7077082848
 20
9.2837158997
 30
0.0
 10
23.720301154
 20
9.2834004192
 30
0.0
 10
23.7337127943
 20
9.2866469112
 30
0.0
 10
23.7424410118
 20
9.2907951178
 30
0.0
 10
23.7468267048
 20
9.2933271837
 30
0.0
  0
SPLINE
  5
370
100
AcDbEntity
  8
0
100
AcDbSpline
 62
7
  6
BYLAYER
 70
0
 71
3
 72
11
 73
7
 74
0
 42
0.0000001
 43
0.0000001
 44
0.0000000001
 40
0.0
 40
0.0
 40
0.0
 40
0.0
 40
0.2179399207
 40
0.451033167
 40
0.7105497128
 40
1.0
 40
1.0
 40
1.0
 40
1.0
 10
24.595870507
 20
9.9441109955
 30
0.0
 10
24.5991714209
 20
9.9422053835
 30
0.0
 10
24.6067479607
 20
9.9394426145
 30
0.0
 10
24.6193433854
 20
9.9391307644
 30
0.0
 10
24.6327526871
 20
9.9423812698
 30
0.0
 10
24.6414820379
 20
9.9465263801
 30
0.0
 10
24.6458659543
 20
9.9490574203
 30
0.0
  0
SPLINE
  5
371
100
AcDbEntity
  8
0
100
AcDbSpline
 62
7
  6
BYLAYER
 70
0
 71
3
 72
11
 73
7
 74
0
 42
0.0000001
 43
0.0000001
 44
0.0000000001
 40
0.0
 40
0.0
 40
0.0
 40
0.0
 40
0.2178896478
 40
0.4510014495
 40
0.7106601585
 40
1.0
 40
1.0
 40
1.0
 40
1.0
 10
25.5018046814
 20
10.5128229547
 30
0.0
 10
25.5051024811
 20
10.5109137614
 30
0.0
 10
25.5126808929
 20
10.5081547415
 30
0.0
 10
25.5252774603
 20
10.5078412535
 30
0.0
 10
25.5386864574
 20
10.5110975832
 30
0.0
 10
25.5474176928
 20
10.5152389138
 30
0.0
 10
25.5517999083
 20
10.517768972
 30
0.0
  0
SPLINE
  5
372
100
AcDbEntity
  8
0
100
AcDbSpline
 62
7
  6
BYLAYER
 70
0
 71
3
 72
11
 73
7
 74
0
 42
0.0000001
 43
0.0000001
 44
0.0000000001
 40
0.0
 40
0.0
 40
0.0
 40
0.0
 40
0.2178046114
 40
0.4509702044
 40
0.7107813668
 40
1.0
 40
1.0
 40
1.0
 40
1.0
 10
26.4077368067
 20
10.9901844298
 30
0.0
 10
26.4110320665
 20
10.9882738219
 30
0.0
 10
26.4186126669
 20
10.9855206788
 30
0.0
 10
26.4312106009
 20
10.9852056688
 30
0.0
 10
26.444619973
 20
10.9884677113
 30
0.0
 10
26.453353484
 20
10.992604603
 30
0.0
 10
26.4577338622
 20
10.9951336004
 30
0.0
  0
SPLINE
  5
373
100
AcDbEntity
  8
0
100
AcDbSpline
 62
7
  6
BYLAYER
 70
0
 71
3
 72
11
 73
7
 74
0
 42
0.0000001
 43
0.0000001
 44
0.0000000001
 40
0.0
 40
0.0
 40
0.0
 40
0.0
 40
0.2177348863
 40
0.4510035134
 40
0.710938958
 40
1.0
 40
1.0
 40
1.0
 40
1.0
 10
27.3067736299
 20
11.3725649174
 30
0.0
 10
27.3100690787
 20
11.3706571241
 30
0.0
 10
27.317649846
 20
11.3679042079
 30
0.0
 10
27.3302511346
 20
11.3675935847
 30
0.0
 10
27.3436603276
 20
11.3708581174
 30
0.0
 10
27.3523951526
 20
11.3749906718
 30
0.0
 10
27.3567731118
 20
11.3775182726
 30
0.0
  0
SPLINE
  5
374
100
AcDbEntity
  8
0
100
AcDbSpline
 62
7
  6
BYLAYER
 70
0
 71
3
 72
11
 73
7
 74
0
 42
0.0000001
 43
0.0000001
 44
0.0000000001
 40
0.0
 40
0.0
 40
0.0
 40
0.0
 40
0.2177839237
 40
0.4509111717
 40
0.7102971901
 40
1.0
 40
1.0
 40
1.0
 40
1.0
 10
36.1326296494
 20
16.6042762317
 30
0.0
 10
36.1623166512
 20
16.587136836
 30
0.0
 10
36.2305271006
 20
16.5623833058
 30
0.0
 10
36.3438232613
 20
16.5595156372
 30
0.0
 10
36.46457028
 20
16.5886749599
 30
0.0
 10
36.5431293876
 20
16.6260477925
 30
0.0
 10
36.5826197688
 20
16.6488474386
 30
0.0
  0
SPLINE
  5
375
100
AcDbEntity
  8
0
100
AcDbSpline
 62
7
  6
BYLAYER
 70
0
 71
3
 72
11
 73
7
 74
0
 42
0.0000001
 43
0.0000001
 44
0.0000000001
 40
0.0
 40
0.0
 40
0.0
 40
0.0
 40
0.2176732262
 40
0.4508319884
 40
0.7104838574
 40
1.0
 40
1.0
 40
1.0
 40
1.0
 10
29.9686952038
 20
23.0354385748
 30
0.0
 10
29.9522105245
 20
23.0449557858
 30
0.0
 10
29.9213514293
 20
23.0708816836
 30
0.0
 10
29.8884765838
 20
23.1246066439
 30
0.0
 10
29.8690063749
 20
23.1908238011
 30
0.0
 10
29.8651333153
 20
23.2390045217
 30
0.0
 10
29.8651333153
 20
23.264321688
 30
0.0
  0
SPLINE
  5
376
100
AcDbEntity
  8
0
100
AcDbSpline
 62
7
  6
BYLAYER
 70
0
 71
3
 72
11
 73
7
 74
0
 42
0.0000001
 43
0.0000001
 44
0.0000000001
 40
0.0
 40
0.0
 40
0.0
 40
0.0
 40
0.2176746342
 40
0.4508340055
 40
0.7104853484
 40
1.0
 40
1.0
 40
1.0
 40
1.0
 10
35.5774410672
 20
52.1958442332
 30
0.0
 10
35.593925192
 20
52.1863273238
 30
0.0
 10
35.6318060309
 20
52.1725665336
 30
0.0
 10
35.6947682384
 20
52.1709588813
 30
0.0
 10
35.7618462935
 20
52.1872050799
 30
0.0
 10
35.805506703
 20
52.2079402744
 30
0.0
 10
35.8274310634
 20
52.2205982343
 30
0.0
  0
SPLINE
  5
377
100
AcDbEntity
  8
0
100
AcDbSpline
 62
7
  6
BYLAYER
 70
0
 71
3
 72
11
 73
7
 74
0
 42
0.0000001
 43
0.0000001
 44
0.0000000001
 40
0.0
 40
0.0
 40
0.0
 40
0.0
 40
0.286581192
 40
0.5463185987
 40
0.7817791946
 40
1.0
 40
1.0
 40
1.0
 40
1.0
 10
27.4031987777
 20
62.0130261037
 30
0.0
 10
27.4820514103
 20
62.0585514206
 30
0.0
 10
27.6390122189
 20
62.1347244837
 30
0.0
 10
27.8799224866
 20
62.2016577766
 30
0.0
 10
28.1085027579
 20
62.2125316386
 30
0.0
 10
28.251373226
 20
62.1800417367
 30
0.0
 10
28.3157893751
 20
62.154400395
 30
0.0
  0
SPLINE
  5
378
100
AcDbEntity
  8
0
100
AcDbSpline
 62
7
  6
BYLAYER
 70
0
 71
3
 72
9
 73
5
 74
0
 42
0.0000001
 43
0.0000001
 44
0.0000000001
 40
0.0
 40
0.0
 40
0.0
 40
0.0
 40
0.5187826787
 40
1.0
 40
1.0
 40
1.0
 40
1.0
 10
26.259179994
 20
61.2322382745
 30
0.0
 10
26.3409965053
 20
61.3178930146
 30
0.0
 10
26.5087430966
 20
61.4737930753
 30
0.0
 10
26.6967526966
 20
61.6051617032
 30
0.0
 10
26.791906546
 20
61.6600984758
 30
0.0
  0
SPLINE
  5
379
100
AcDbEntity
  8
0
100
AcDbSpline
 62
7
  6
BYLAYER
 70
0
 71
3
 72
9
 73
5
 74
0
 42
0.0000001
 43
0.0000001
 44
0.0000000001
 40
0.0
 40
0.0
 40
0.0
 40
0.0
 40
0.547345973
 40
1.0
 40
1.0
 40
1.0
 40
1.0
 10
25.818834064
 20
61.1262597519
 30
0.0
 10
25.82628727
 20
61.1305628367
 30
0.0
 10
25.8410857948
 20
61.1368374748
 30
0.0
 10
25.8576584767
 20
61.1359937417
 30
0.0
 10
25.8642858225
 20
61.1333986525
 30
0.0
  0
SPLINE
  5
37A
100
AcDbEntity
  8
0
100
AcDbSpline
 62
7
  6
BYLAYER
 70
0
 71
3
 72
11
 73
7
 74
0
 42
0.0000001
 43
0.0000001
 44
0.0000000001
 40
0.0
 40
0.0
 40
0.0
 40
0.0
 40
0.247021443
 40
0.5098903477
 40
0.7674452003
 40
1.0
 40
1.0
 40
1.0
 40
1.0
 10
25.7491979299
 20
61.0185837251
 30
0.0
 10
25.7507068027
 20
61.029336033
 30
0.0
 10
25.756810971
 20
61.0511392901
 30
0.0
 10
25.7722940514
 20
61.0813392237
 30
0.0
 10
25.7930319752
 20
61.1073950089
 30
0.0
 10
25.8099817207
 20
61.1211488796
 30
0.0
 10
25.818834064
 20
61.1262597519
 30
0.0
  0
SPLINE
  5
37B
100
AcDbEntity
  8
0
100
AcDbSpline
 62
7
  6
BYLAYER
 70
0
 71
3
 72
11
 73
7
 74
0
 42
0.0000001
 43
0.0000001
 44
0.0000000001
 40
0.0
 40
0.0
 40
0.0
 40
0.0
 40
0.289705657
 40
0.549058792
 40
0.782282421
 40
1.0
 40
1.0
 40
1.0
 40
1.0
 10
24.9540063715
 20
60.3120879385
 30
0.0
 10
24.9583943076
 20
60.3146212994
 30
0.0
 10
24.9671230228
 20
60.3187724016
 30
0.0
 10
24.9805401388
 20
60.3220168038
 30
0.0
 10
24.9931286696
 20
60.3216927453
 30
0.0
 10
25.0007086007
 20
60.3189442604
 30
0.0
 10
25.0040061633
 20
60.3170403573
 30
0.0
  0
SPLINE
  5
37C
100
AcDbEntity
  8
0
100
AcDbSpline
 62
7
  6
BYLAYER
 70
0
 71
3
 72
11
 73
7
 74
0
 42
0.0000001
 43
0.0000001
 44
0.0000000001
 40
0.0
 40
0.0
 40
0.0
 40
0.0
 40
0.2513128437
 40
0.5139507077
 40
0.7691579849
 40
1.0
 40
1.0
 40
1.0
 40
1.0
 10
24.8857053857
 20
60.2121369772
 30
0.0
 10
24.8877891388
 20
60.2223198549
 30
0.0
 10
24.8944988139
 20
60.2426742778
 30
0.0
 10
24.909950588
 20
60.270677953
 30
0.0
 10
24.9298164119
 20
60.294655626
 30
0.0
 10
24.9457381954
 20
60.3073143332
 30
0.0
 10
24.9540063715
 20
60.3120879385
 30
0.0
  0
SPLINE
  5
37D
100
AcDbEntity
  8
0
100
AcDbSpline
 62
7
  6
BYLAYER
 70
0
 71
3
 72
11
 73
7
 74
0
 42
0.0000001
 43
0.0000001
 44
0.0000000001
 40
0.0
 40
0.0
 40
0.0
 40
0.0
 40
0.2895642471
 40
0.5489693045
 40
0.782098225
 40
1.0
 40
1.0
 40
1.0
 40
1.0
 10
24.0687040579
 20
59.5743295199
 30
0.0
 10
24.0730897509
 20
59.5768615858
 30
0.0
 10
24.0818179684
 20
59.5810097924
 30
0.0
 10
24.0952296087
 20
59.5842562844
 30
0.0
 10
24.107822478
 20
59.5839408039
 30
0.0
 10
24.1153998059
 20
59.5811823695
 30
0.0
 10
24.1187016236
 20
59.5792795717
 30
0.0
  0
SPLINE
  5
37E
100
AcDbEntity
  8
0
100
AcDbSpline
 62
7
  6
BYLAYER
 70
0
 71
3
 72
10
 73
6
 74
0
 42
0.0000001
 43
0.0000001
 44
0.0000000001
 40
0.0
 40
0.0
 40
0.0
 40
0.0
 40
0.5164070938
 40
0.7700351109
 40
1.0
 40
1.0
 40
1.0
 40
1.0
 10
24.0022580321
 20
59.4822429037
 30
0.0
 10
24.0073941969
 20
59.5015029894
 30
0.0
 10
24.020852856
 20
59.5289778012
 30
0.0
 10
24.0461238946
 20
59.5582914774
 30
0.0
 10
24.0610167038
 20
59.5698912504
 30
0.0
 10
24.0687040579
 20
59.5743295199
 30
0.0
  0
SPLINE
  5
37F
100
AcDbEntity
  8
0
100
AcDbSpline
 62
7
  6
BYLAYER
 70
0
 71
3
 72
11
 73
7
 74
0
 42
0.0000001
 43
0.0000001
 44
0.0000000001
 40
0.0
 40
0.0
 40
0.0
 40
0.0
 40
0.2894502872
 40
0.548966833
 40
0.7820600793
 40
1.0
 40
1.0
 40
1.0
 40
1.0
 10
23.1696648084
 20
58.9185992833
 30
0.0
 10
23.1740487249
 20
58.9211303235
 30
0.0
 10
23.1827780756
 20
58.9252754338
 30
0.0
 10
23.1961873773
 20
58.9285259391
 30
0.0
 10
23.208782802
 20
58.9282140891
 30
0.0
 10
23.2163593418
 20
58.9254513201
 30
0.0
 10
23.2196602558
 20
58.9235457081
 30
0.0
  0
SPLINE
  5
380
100
AcDbEntity
  8
0
100
AcDbSpline
 62
7
  6
BYLAYER
 70
0
 71
3
 72
10
 73
6
 74
0
 42
0.0000001
 43
0.0000001
 44
0.0000000001
 40
0.0
 40
0.0
 40
0.0
 40
0.0
 40
0.5193996995
 40
0.7710943654
 40
1.0
 40
1.0
 40
1.0
 40
1.0
 10
23.105579437
 20
58.8344564392
 30
0.0
 10
23.111377034
 20
58.8521602025
 30
0.0
 10
23.1246785729
 20
58.8771862144
 30
0.0
 10
23.1487154719
 20
58.9039362437
 30
0.0
 10
23.1625547538
 20
58.9144943158
 30
0.0
 10
23.1696648084
 20
58.9185992833
 30
0.0
  0
SPLINE
  5
381
100
AcDbEntity
  8
0
100
AcDbSpline
 62
7
  6
BYLAYER
 70
0
 71
3
 72
11
 73
7
 74
0
 42
0.0000001
 43
0.0000001
 44
0.0000000001
 40
0.0
 40
0.0
 40
0.0
 40
0.0
 40
0.2044397697
 40
0.4326998122
 40
0.6984291811
 40
1.0
 40
1.0
 40
1.0
 40
1.0
 10
14.5103120784
 20
54.1343040449
 30
0.0
 10
14.5037593879
 20
54.1380823183
 30
0.0
 10
14.4917065836
 20
54.149509499
 30
0.0
 10
14.4813045448
 20
54.1737220316
 30
0.0
 10
14.4781801503
 20
54.2033039685
 30
0.0
 10
14.4805860422
 20
54.2243128155
 30
0.0
 10
14.4828279828
 20
54.2352428773
 30
0.0
  0
SPLINE
  5
382
100
AcDbEntity
  8
0
100
AcDbSpline
 62
7
  6
BYLAYER
 70
0
 71
3
 72
11
 73
7
 74
0
 42
0.0000001
 43
0.0000001
 44
0.0000000001
 40
0.0
 40
0.0
 40
0.0
 40
0.0
 40
0.2893398415
 40
0.5489985506
 40
0.7821103522
 40
1.0
 40
1.0
 40
1.0
 40
1.0
 10
22.2637308545
 20
58.3498877316
 30
0.0
 10
22.2681130699
 20
58.3524177897
 30
0.0
 10
22.2768443053
 20
58.3565591204
 30
0.0
 10
22.2902533025
 20
58.3598154501
 30
0.0
 10
22.3028498698
 20
58.3595019621
 30
0.0
 10
22.3104282817
 20
58.3567429422
 30
0.0
 10
22.3137260813
 20
58.3548337489
 30
0.0
  0
SPLINE
  5
383
100
AcDbEntity
  8
0
100
AcDbSpline
 62
7
  6
BYLAYER
 70
0
 71
3
 72
9
 73
5
 74
0
 42
0.0000001
 43
0.0000001
 44
0.0000000001
 40
0.0
 40
0.0
 40
0.0
 40
0.0
 40
0.5227788596
 40
1.0
 40
1.0
 40
1.0
 40
1.0
 10
22.2024938658
 20
58.2737076299
 30
0.0
 10
22.2087352708
 20
58.2897940363
 30
0.0
 10
22.2254449516
 20
58.3187989997
 30
0.0
 10
22.2500899713
 20
58.342012211
 30
0.0
 10
22.2637308545
 20
58.3498877316
 30
0.0
  0
SPLINE
  5
384
100
AcDbEntity
  8
0
100
AcDbSpline
 62
7
  6
BYLAYER
 70
0
 71
3
 72
11
 73
7
 74
0
 42
0.0000001
 43
0.0000001
 44
0.0000000001
 40
0.0
 40
0.0
 40
0.0
 40
0.0
 40
0.2892186259
 40
0.5490292289
 40
0.7821947791
 40
1.0
 40
1.0
 40
1.0
 40
1.0
 10
21.3577969005
 20
57.8725231032
 30
0.0
 10
21.3621772788
 20
57.8750521006
 30
0.0
 10
21.370910775
 20
57.8791890017
 30
0.0
 10
21.384320139
 20
57.8824510351
 30
0.0
 10
21.3969180724
 20
57.882136032
 30
0.0
 10
21.404498684
 20
57.8793828825
 30
0.0
 10
21.40779395
 20
57.8774722637
 30
0.0
  0
SPLINE
  5
385
100
AcDbEntity
  8
0
100
AcDbSpline
 62
7
  6
BYLAYER
 70
0
 71
3
 72
9
 73
5
 74
0
 42
0.0000001
 43
0.0000001
 44
0.0000000001
 40
0.0
 40
0.0
 40
0.0
 40
0.0
 40
0.5243454511
 40
1.0
 40
1.0
 40
1.0
 40
1.0
 10
21.2998743451
 20
57.8042641128
 30
0.0
 10
21.3063573935
 20
57.8186982877
 30
0.0
 10
21.3225229429
 20
57.8446080195
 30
0.0
 10
21.3453660401
 20
57.8653461854
 30
0.0
 10
21.3577969005
 20
57.8725231032
 30
0.0
  0
SPLINE
  5
386
100
AcDbEntity
  8
0
100
AcDbSpline
 62
7
  6
BYLAYER
 70
0
 71
3
 72
10
 73
6
 74
0
 42
0.0000001
 43
0.0000001
 44
0.0000000001
 40
0.0
 40
0.0
 40
0.0
 40
0.0
 40
0.2329340637
 40
0.4739170854
 40
1.0
 40
1.0
 40
1.0
 40
1.0
 10
14.8458002968
 20
47.3083169693
 30
0.0
 10
14.8348546799
 20
47.3146362812
 30
0.0
 10
14.8139866506
 20
47.3301189194
 30
0.0
 10
14.7784534664
 20
47.371572231
 30
0.0
 10
14.7616842648
 20
47.4109390115
 30
0.0
 10
14.7542964004
 20
47.4385112823
 30
0.0
  0
SPLINE
  5
387
100
AcDbEntity
  8
0
100
AcDbSpline
 62
7
  6
BYLAYER
 70
0
 71
3
 72
11
 73
7
 74
0
 42
0.0000001
 43
0.0000001
 44
0.0000000001
 40
0.0
 40
0.0
 40
0.0
 40
0.0
 40
0.2890611757
 40
0.5489960195
 40
0.7822644462
 40
1.0
 40
1.0
 40
1.0
 40
1.0
 10
20.458757651
 20
57.490138431
 30
0.0
 10
20.4631356125
 20
57.4926660332
 30
0.0
 10
20.4718704229
 20
57.4967985999
 30
0.0
 10
20.4852796084
 20
57.500063133
 30
0.0
 10
20.497880892
 20
57.4997524951
 30
0.0
 10
20.5054616748
 20
57.4969995878
 30
0.0
 10
20.5087571289
 20
57.4950917797
 30
0.0
  0
SPLINE
  5
388
100
AcDbEntity
  8
0
100
AcDbSpline
 62
7
  6
BYLAYER
 70
0
 71
3
 72
9
 73
5
 74
0
 42
0.0000001
 43
0.0000001
 44
0.0000000001
 40
0.0
 40
0.0
 40
0.0
 40
0.0
 40
0.5252746908
 40
1.0
 40
1.0
 40
1.0
 40
1.0
 10
20.4045903545
 20
57.4296986365
 30
0.0
 10
20.4111279896
 20
57.4424697819
 30
0.0
 10
20.4265724492
 20
57.465333262
 30
0.0
 10
20.4475282895
 20
57.4836551949
 30
0.0
 10
20.458757651
 20
57.490138431
 30
0.0
  0
SPLINE
  5
389
100
AcDbEntity
  8
0
100
AcDbSpline
 62
7
  6
BYLAYER
 70
0
 71
3
 72
11
 73
7
 74
0
 42
0.0000001
 43
0.0000001
 44
0.0000000001
 40
0.0
 40
0.0
 40
0.0
 40
0.0
 40
0.2888693954
 40
0.5488950506
 40
0.7823057035
 40
1.0
 40
1.0
 40
1.0
 40
1.0
 10
19.5734553374
 20
57.2056438935
 30
0.0
 10
19.5778302893
 20
57.2081697581
 30
0.0
 10
19.5865652955
 20
57.2122979475
 30
0.0
 10
19.5999737559
 20
57.2155613991
 30
0.0
 10
19.612579204
 20
57.2152611844
 30
0.0
 10
19.6201605133
 20
57.2125053176
 30
0.0
 10
19.6234564766
 20
57.2106000132
 30
0.0
  0
SPLINE
  5
38A
100
AcDbEntity
  8
0
100
AcDbSpline
 62
7
  6
BYLAYER
 70
0
 71
3
 72
9
 73
5
 74
0
 42
0.0000001
 43
0.0000001
 44
0.0000000001
 40
0.0
 40
0.0
 40
0.0
 40
0.0
 40
0.5255675519
 40
1.0
 40
1.0
 40
1.0
 40
1.0
 10
19.5234555456
 20
57.1528618704
 30
0.0
 10
19.5298755463
 20
57.1639816996
 30
0.0
 10
19.5444232274
 20
57.1838688984
 30
0.0
 10
19.5634174111
 20
57.1998485286
 30
0.0
 10
19.5734553374
 20
57.2056438935
 30
0.0
  0
SPLINE
  5
38B
100
AcDbEntity
  8
0
100
AcDbSpline
 62
7
  6
BYLAYER
 70
0
 71
3
 72
12
 73
8
 74
0
 42
0.0000001
 43
0.0000001
 44
0.0000000001
 40
0.0
 40
0.0
 40
0.0
 40
0.0
 40
0.1081659565
 40
0.2183283483
 40
0.4512744856
 40
0.7105724379
 40
1.0
 40
1.0
 40
1.0
 40
1.0
 10
9.7076217542
 20
36.083268812
 30
0.0
 10
9.6912282749
 20
36.0927387075
 30
0.0
 10
9.6597167258
 20
36.1147418048
 30
0.0
 10
9.6031659389
 20
36.1703339011
 30
0.0
 10
9.5471468306
 20
36.2616608545
 30
0.0
 10
9.5082318581
 20
36.3940122538
 30
0.0
 10
9.5005065927
 20
36.4903920396
 30
0.0
 10
9.5005065927
 20
36.5410500919
 30
0.0
  0
SPLINE
  5
38C
100
AcDbEntity
  8
0
100
AcDbSpline
 62
7
  6
BYLAYER
 70
0
 71
3
 72
11
 73
7
 74
0
 42
0.0000001
 43
0.0000001
 44
0.0000000001
 40
0.0
 40
0.0
 40
0.0
 40
0.0
 40
0.2886465976
 40
0.548731522
 40
0.7823194038
 40
1.0
 40
1.0
 40
1.0
 40
1.0
 10
18.7086276449
 20
57.0212046657
 30
0.0
 10
18.712999046
 20
57.0237284802
 30
0.0
 10
18.7217331771
 20
57.0278521866
 30
0.0
 10
18.7351405685
 20
57.0311113097
 30
0.0
 10
18.7477504347
 20
57.0308262138
 30
0.0
 10
18.755333634
 20
57.0280665363
 30
0.0
 10
18.7586299395
 20
57.0261626102
 30
0.0
  0
SPLINE
  5
38D
100
AcDbEntity
  8
0
100
AcDbSpline
 62
7
  6
BYLAYER
 70
0
 71
3
 72
9
 73
5
 74
0
 42
0.0000001
 43
0.0000001
 44
0.0000000001
 40
0.0
 40
0.0
 40
0.0
 40
0.0
 40
0.5252211557
 40
1.0
 40
1.0
 40
1.0
 40
1.0
 10
18.6631758864
 20
56.9758607096
 30
0.0
 10
18.6693205826
 20
56.985362048
 30
0.0
 10
18.6828007808
 20
57.0023643532
 30
0.0
 10
18.699769538
 20
57.0160904658
 30
0.0
 10
18.7086276449
 20
57.0212046657
 30
0.0
  0
SPLINE
  5
38E
100
AcDbEntity
  8
0
100
AcDbSpline
 62
7
  6
BYLAYER
 70
0
 71
3
 72
11
 73
7
 74
0
 42
0.0000001
 43
0.0000001
 44
0.0000000001
 40
0.0
 40
0.0
 40
0.0
 40
0.0
 40
0.2514296391
 40
0.5139041419
 40
0.7690331228
 40
1.0
 40
1.0
 40
1.0
 40
1.0
 10
14.4855919755
 20
54.2511054188
 30
0.0
 10
14.4959037731
 20
54.3022216607
 30
0.0
 10
14.5294903508
 20
54.4043290497
 30
0.0
 10
14.6069289452
 20
54.5447217653
 30
0.0
 10
14.7062369088
 20
54.6652042907
 30
0.0
 10
14.7861605991
 20
54.7286191969
 30
0.0
 10
14.8276450507
 20
54.7525701133
 30
0.0
  0
SPLINE
  5
38F
100
AcDbEntity
  8
0
100
AcDbSpline
 62
7
  6
BYLAYER
 70
0
 71
3
 72
14
 73
10
 74
0
 42
0.0000001
 43
0.0000001
 44
0.0000000001
 40
0.0
 40
0.0
 40
0.0
 40
0.0
 40
0.1280112736
 40
0.2618463712
 40
0.532235824
 40
0.6625464299
 40
0.7852955277
 40
0.8982906108
 40
1.0
 40
1.0
 40
1.0
 40
1.0
 10
14.4756099849
 20
53.1356514123
 30
0.0
 10
14.4986085337
 20
53.1560454076
 30
0.0
 10
14.5427783582
 20
53.2010960143
 30
0.0
 10
14.6208408857
 20
53.3025220818
 30
0.0
 10
14.6815730027
 20
53.4171366731
 30
0.0
 10
14.7203424013
 20
53.5369475043
 30
0.0
 10
14.7364751835
 20
53.6236605558
 30
0.0
 10
14.7393334361
 20
53.7049506315
 30
0.0
 10
14.7319299243
 20
53.7564005417
 30
0.0
 10
14.7256089441
 20
53.779991091
 30
0.0
  0
SPLINE
  5
390
100
AcDbEntity
  8
0
100
AcDbSpline
 62
7
  6
BYLAYER
 70
0
 71
3
 72
11
 73
7
 74
0
 42
0.0000001
 43
0.0000001
 44
0.0000000001
 40
0.0
 40
0.0
 40
0.0
 40
0.0
 40
0.2177310465
 40
0.4508559663
 40
0.7103638015
 40
1.0
 40
1.0
 40
1.0
 40
1.0
 10
9.6040645999
 20
28.8717819055
 30
0.0
 10
9.5875776801
 20
28.881306052
 30
0.0
 10
9.5567125988
 20
28.9072304796
 30
0.0
 10
9.5238628954
 20
28.9609582845
 30
0.0
 10
9.5043585976
 20
29.0271599852
 30
0.0
 10
9.5005065927
 20
29.075343682
 30
0.0
 10
9.5005065927
 20
29.1006718158
 30
0.0
  0
SPLINE
  5
391
100
AcDbEntity
  8
0
100
AcDbSpline
 62
7
  6
BYLAYER
 70
0
 71
3
 72
10
 73
6
 74
0
 42
0.0000001
 43
0.0000001
 44
0.0000000001
 40
0.0
 40
0.0
 40
0.0
 40
0.0
 40
0.5264015059
 40
0.7670656442
 40
1.0
 40
1.0
 40
1.0
 40
1.0
 10
10.1699243877
 20
50.6247677042
 30
0.0
 10
10.1919958566
 20
50.6306815832
 30
0.0
 10
10.225982375
 20
50.6348736654
 30
0.0
 10
10.2688999532
 20
50.6267461813
 30
0.0
 10
10.287962277
 20
50.6184972062
 30
0.0
 10
10.2967187791
 20
50.6134414928
 30
0.0
  0
SPLINE
  5
392
100
AcDbEntity
  8
0
100
AcDbSpline
 62
7
  6
BYLAYER
 70
0
 71
3
 72
9
 73
5
 74
0
 42
0.0000001
 43
0.0000001
 44
0.0000000001
 40
0.0
 40
0.0
 40
0.0
 40
0.0
 40
0.5324907192
 40
1.0
 40
1.0
 40
1.0
 40
1.0
 10
10.0235148358
 20
50.5402386146
 30
0.0
 10
10.0461125855
 20
50.5602772008
 30
0.0
 10
10.091832136
 20
50.5944516055
 30
0.0
 10
10.1443109112
 20
50.6179047718
 30
0.0
 10
10.1699243877
 20
50.6247677042
 30
0.0
  0
SPLINE
  5
393
100
AcDbEntity
  8
0
100
AcDbSpline
 62
7
  6
BYLAYER
 70
0
 71
3
 72
11
 73
7
 74
0
 42
0.0000001
 43
0.0000001
 44
0.0000000001
 40
0.0
 40
0.0
 40
0.0
 40
0.0
 40
0.2309837786
 40
0.486057365
 40
0.7485170102
 40
1.0
 40
1.0
 40
1.0
 40
1.0
 10
9.5005065927
 20
49.7631981529
 30
0.0
 10
9.5005065927
 20
49.8109653571
 30
0.0
 10
9.5154055902
 20
49.9115860287
 30
0.0
 10
9.5697601071
 20
50.0574462252
 30
0.0
 10
9.652188516
 20
50.1944493395
 30
0.0
 10
9.723641187
 20
50.2743252369
 30
0.0
 10
9.7625525414
 20
50.3088299348
 30
0.0
  0
SPLINE
  5
394
100
AcDbEntity
  8
0
100
AcDbSpline
 62
7
  6
BYLAYER
 70
0
 71
3
 72
11
 73
7
 74
0
 42
0.0000001
 43
0.0000001
 44
0.0000000001
 40
0.0
 40
0.0
 40
0.0
 40
0.0
 40
0.2176732262
 40
0.4508319884
 40
0.7104838574
 40
1.0
 40
1.0
 40
1.0
 40
1.0
 10
9.6040684813
 20
7.7193609153
 30
0.0
 10
9.587583802
 20
7.7288781262
 30
0.0
 10
9.5567247067
 20
7.754804024
 30
0.0
 10
9.5238498613
 20
7.8085289844
 30
0.0
 10
9.5043796523
 20
7.8747461415
 30
0.0
 10
9.5005065927
 20
7.9229268621
 30
0.0
 10
9.5005065927
 20
7.9482440284
 30
0.0
  0
SPLINE
  5
395
100
AcDbEntity
  8
0
100
AcDbSpline
 62
7
  6
BYLAYER
 70
0
 71
3
 72
9
 73
5
 74
0
 42
0.0000001
 43
0.0000001
 44
0.0000000001
 40
0.0
 40
0.0
 40
0.0
 40
0.0
 40
0.2644203965
 40
1.0
 40
1.0
 40
1.0
 40
1.0
 10
10.8203905055
 20
31.6268661405
 30
0.0
 10
10.8241341398
 20
31.6309272032
 30
0.0
 10
10.8387774671
 20
31.6458146695
 30
0.0
 10
10.855445953
 20
31.6588345079
 30
0.0
 10
10.8687525178
 20
31.6665170108
 30
0.0
  0
SPLINE
  5
396
100
AcDbEntity
  8
0
100
AcDbSpline
 62
7
  6
BYLAYER
 70
0
 71
3
 72
12
 73
8
 74
0
 42
0.0000001
 43
0.0000001
 44
0.0000000001
 40
0.0
 40
0.0
 40
0.0
 40
0.0
 40
0.110967455
 40
0.2290975392
 40
0.4806081037
 40
0.7423534993
 40
1.0
 40
1.0
 40
1.0
 40
1.0
 10
9.5005065927
 20
29.6620172276
 30
0.0
 10
9.5005065927
 20
29.7026879091
 30
0.0
 10
9.5059586942
 20
29.7867102033
 30
0.0
 10
9.5362702382
 20
29.9604875891
 30
0.0
 10
9.6097820301
 20
30.1814311321
 30
0.0
 10
9.742872827
 20
30.4319166828
 30
0.0
 10
9.859124533
 20
30.5840929606
 30
0.0
 10
9.9231280053
 20
30.6535233849
 30
0.0
  0
SPLINE
  5
397
100
AcDbEntity
  8
0
100
AcDbSpline
 62
7
  6
BYLAYER
 70
0
 71
3
 72
15
 73
11
 74
0
 42
0.0000001
 43
0.0000001
 44
0.0000000001
 40
0.0
 40
0.0
 40
0.0
 40
0.0
 40
0.1109190487
 40
0.2288111843
 40
0.352338455
 40
0.4801361176
 40
0.6105550012
 40
0.7418448552
 40
0.8723119212
 40
1.0
 40
1.0
 40
1.0
 40
1.0
 10
11.7986131995
 20
47.4107724956
 30
0.0
 10
11.8996720003
 20
47.3524274897
 30
0.0
 10
12.1005765392
 20
47.2186645067
 30
0.0
 10
12.3858014103
 20
46.9810013211
 30
0.0
 10
12.6591389501
 20
46.7042111299
 30
0.0
 10
12.9150221754
 20
46.3940242286
 30
0.0
 10
13.1484898149
 20
46.0566848971
 30
0.0
 10
13.3547789001
 20
45.698823379
 30
0.0
 10
13.5296087951
 20
45.327791213
 30
0.0
 10
13.6244085351
 20
45.0728469883
 30
0.0
 10
13.665436442
 20
44.9449318677
 30
0.0
  0
SPLINE
  5
398
100
AcDbEntity
  8
0
100
AcDbSpline
 62
7
  6
BYLAYER
 70
0
 71
3
 72
14
 73
10
 74
0
 42
0.0000001
 43
0.0000001
 44
0.0000000001
 40
0.0
 40
0.0
 40
0.0
 40
0.0
 40
0.1173429265
 40
0.2456227969
 40
0.3793370136
 40
0.5138940773
 40
0.6456705012
 40
0.7719239107
 40
1.0
 40
1.0
 40
1.0
 40
1.0
 10
16.705982942
 20
44.2508744779
 30
0.0
 10
16.7559949337
 20
44.2797487424
 30
0.0
 10
16.8577682867
 20
44.3452835992
 30
0.0
 10
17.0068070647
 20
44.4579575616
 30
0.0
 10
17.1532740144
 20
44.5872654696
 30
0.0
 10
17.2894313826
 20
44.729794942
 30
0.0
 10
17.4082227375
 20
44.8829050645
 30
0.0
 10
17.5302270553
 20
45.0886553329
 30
0.0
 10
17.5850521776
 20
45.2602987174
 30
0.0
 10
17.5919993084
 20
45.3723281888
 30
0.0
  0
SPLINE
  5
399
100
AcDbEntity
  8
0
100
AcDbSpline
 62
7
  6
BYLAYER
 70
0
 71
3
 72
11
 73
7
 74
0
 42
0.0000001
 43
0.0000001
 44
0.0000000001
 40
0.0
 40
0.0
 40
0.0
 40
0.0
 40
0.2179399207
 40
0.451033167
 40
0.7105497128
 40
1.0
 40
1.0
 40
1.0
 40
1.0
 10
27.5683850654
 20
56.4128650678
 30
0.0
 10
27.5650841515
 20
56.4147706798
 30
0.0
 10
27.5575076117
 20
56.4175334488
 30
0.0
 10
27.544912187
 20
56.4178452988
 30
0.0
 10
27.5315028853
 20
56.4145947935
 30
0.0
 10
27.5227735345
 20
56.4104496832
 30
0.0
 10
27.5183896181
 20
56.407918643
 30
0.0
  0
SPLINE
  5
39A
100
AcDbEntity
  8
0
100
AcDbSpline
 62
7
  6
BYLAYER
 70
0
 71
3
 72
11
 73
7
 74
0
 42
0.0000001
 43
0.0000001
 44
0.0000000001
 40
0.0
 40
0.0
 40
0.0
 40
0.0
 40
0.2897042895
 40
0.5490907647
 40
0.7822174449
 40
1.0
 40
1.0
 40
1.0
 40
1.0
 10
35.9462263153
 20
17.0162798755
 30
0.0
 10
35.9462263153
 20
16.9706783397
 30
0.0
 10
35.9531401407
 20
16.8839539748
 30
0.0
 10
35.9882623805
 20
16.7647993644
 30
0.0
 10
36.0473966016
 20
16.6681124195
 30
0.0
 10
36.102941658
 20
16.6214161988
 30
0.0
 10
36.1326296494
 20
16.6042762317
 30
0.0
  0
SPLINE
  5
39B
100
AcDbEntity
  8
0
100
AcDbSpline
 62
7
  6
BYLAYER
 70
0
 71
3
 72
11
 73
7
 74
0
 42
0.0000001
 43
0.0000001
 44
0.0000000001
 40
0.0
 40
0.0
 40
0.0
 40
0.0
 40
0.2178896478
 40
0.4510014494
 40
0.7106601585
 40
1.0
 40
1.0
 40
1.0
 40
1.0
 10
26.662450891
 20
55.8441531086
 30
0.0
 10
26.6591530914
 20
55.8460623019
 30
0.0
 10
26.6515746795
 20
55.8488213218
 30
0.0
 10
26.6389781121
 20
55.8491348098
 30
0.0
 10
26.625569115
 20
55.8458784801
 30
0.0
 10
26.6168378796
 20
55.8417371494
 30
0.0
 10
26.6124556641
 20
55.8392070913
 30
0.0
  0
SPLINE
  5
39C
100
AcDbEntity
  8
0
100
AcDbSpline
 62
7
  6
BYLAYER
 70
0
 71
3
 72
11
 73
7
 74
0
 42
0.0000001
 43
0.0000001
 44
0.0000000001
 40
0.0
 40
0.0
 40
0.0
 40
0.0
 40
0.2760966621
 40
0.534492117
 40
0.7751699775
 40
1.0
 40
1.0
 40
1.0
 40
1.0
 10
15.5462635367
 20
9.8107987969
 30
0.0
 10
15.6272273333
 20
9.7640553846
 30
0.0
 10
15.7887836603
 20
9.6815165267
 30
0.0
 10
16.0357534278
 20
9.5905447831
 30
0.0
 10
16.2760600992
 20
9.5381270093
 30
0.0
 10
16.4343551068
 20
9.5293378076
 30
0.0
 10
16.5104294357
 20
9.5322261426
 30
0.0
  0
SPLINE
  5
39D
100
AcDbEntity
  8
0
100
AcDbSpline
 62
7
  6
BYLAYER
 70
0
 71
3
 72
11
 73
7
 74
0
 42
0.0000001
 43
0.0000001
 44
0.0000000001
 40
0.0
 40
0.0
 40
0.0
 40
0.0
 40
0.2178046114
 40
0.4509702044
 40
0.7107813668
 40
1.0
 40
1.0
 40
1.0
 40
1.0
 10
25.7565187657
 20
55.3667916335
 30
0.0
 10
25.7532235059
 20
55.3687022414
 30
0.0
 10
25.7456429055
 20
55.3714553845
 30
0.0
 10
25.7330449715
 20
55.3717703945
 30
0.0
 10
25.7196355994
 20
55.368508352
 30
0.0
 10
25.7109020884
 20
55.3643714603
 30
0.0
 10
25.7065217102
 20
55.3618424629
 30
0.0
  0
SPLINE
  5
39E
100
AcDbEntity
  8
0
100
AcDbSpline
 62
7
  6
BYLAYER
 70
0
 71
3
 72
12
 73
8
 74
0
 42
0.0000001
 43
0.0000001
 44
0.0000000001
 40
0.0
 40
0.0
 40
0.0
 40
0.0
 40
0.2894275621
 40
0.5487255144
 40
0.7816716517
 40
0.8918340435
 40
1.0
 40
1.0
 40
1.0
 40
1.0
 10
13.8492314024
 20
34.0303694516
 30
0.0
 10
13.8492314024
 20
33.9797113993
 30
0.0
 10
13.8569566678
 20
33.8833316135
 30
0.0
 10
13.8958716402
 20
33.7509802142
 30
0.0
 10
13.9518907485
 20
33.6596532608
 30
0.0
 10
14.0084415355
 20
33.6040611645
 30
0.0
 10
14.0399530846
 20
33.5820580672
 30
0.0
 10
14.0563465638
 20
33.5725881717
 30
0.0
  0
SPLINE
  5
39F
100
AcDbEntity
  8
0
100
AcDbSpline
 62
7
  6
BYLAYER
 70
0
 71
3
 72
11
 73
7
 74
0
 42
0.0000001
 43
0.0000001
 44
0.0000000001
 40
0.0
 40
0.0
 40
0.0
 40
0.0
 40
0.2177348863
 40
0.4510035134
 40
0.710938958
 40
1.0
 40
1.0
 40
1.0
 40
1.0
 10
24.8574819425
 20
54.9844111459
 30
0.0
 10
24.8541864937
 20
54.9863189391
 30
0.0
 10
24.8466057264
 20
54.9890718554
 30
0.0
 10
24.8340044378
 20
54.9893824786
 30
0.0
 10
24.8205952448
 20
54.9861179459
 30
0.0
 10
24.8118604198
 20
54.9819853915
 30
0.0
 10
24.8074824606
 20
54.9794577907
 30
0.0
  0
SPLINE
  5
3A0
100
AcDbEntity
  8
0
100
AcDbSpline
 62
7
  6
BYLAYER
 70
0
 71
3
 72
15
 73
11
 74
0
 42
0.0000001
 43
0.0000001
 44
0.0000000001
 40
0.0
 40
0.0
 40
0.0
 40
0.0
 40
0.1141242661
 40
0.2373486253
 40
0.3669740476
 40
0.5000015346
 40
0.6330288076
 40
0.7626536034
 40
0.8858770013
 40
1.0
 40
1.0
 40
1.0
 40
1.0
 10
17.5968817396
 20
45.3695093796
 30
0.0
 10
17.5968817396
 20
45.313628891
 30
0.0
 10
17.5866213894
 20
45.1973064112
 30
0.0
 10
17.5458396514
 20
45.0218267469
 30
0.0
 10
17.4804307415
 20
44.8440786094
 30
0.0
 10
17.3929468378
 20
44.6707525014
 30
0.0
 10
17.2865849598
 20
44.5083258857
 30
0.0
 10
17.1653561923
 20
44.3628061937
 30
0.0
 10
17.0337785366
 20
44.2397489584
 30
0.0
 10
16.93817136
 20
44.1727026176
 30
0.0
 10
16.8897779024
 20
44.1447628086
 30
0.0
  0
SPLINE
  5
3A1
100
AcDbEntity
  8
0
100
AcDbSpline
 62
7
  6
BYLAYER
 70
0
 71
3
 72
11
 73
7
 74
0
 42
0.0000001
 43
0.0000001
 44
0.0000000001
 40
0.0
 40
0.0
 40
0.0
 40
0.0
 40
0.2176935865
 40
0.4511046604
 40
0.7111309302
 40
1.0
 40
1.0
 40
1.0
 40
1.0
 10
23.9721812882
 20
54.6999193747
 30
0.0
 10
23.968885333
 20
54.7018246671
 30
0.0
 10
23.9613040373
 20
54.7045805516
 30
0.0
 10
23.9486985808
 20
54.7048807254
 30
0.0
 10
23.9352901128
 20
54.7016172882
 30
0.0
 10
23.9265550933
 20
54.6974891145
 30
0.0
 10
23.9221801471
 20
54.6949632532
 30
0.0
  0
SPLINE
  5
3A2
100
AcDbEntity
  8
0
100
AcDbSpline
 62
7
  6
BYLAYER
 70
0
 71
3
 72
11
 73
7
 74
0
 42
0.0000001
 43
0.0000001
 44
0.0000000001
 40
0.0
 40
0.0
 40
0.0
 40
0.0
 40
0.2654999714
 40
0.5221247304
 40
0.7676949497
 40
1.0
 40
1.0
 40
1.0
 40
1.0
 10
14.5502142018
 20
10.6839670217
 30
0.0
 10
14.6249257967
 20
10.5928808995
 30
0.0
 10
14.7787281981
 20
10.4192484869
 30
0.0
 10
15.0248129096
 20
10.1831353936
 30
0.0
 10
15.2792645639
 20
9.978802279
 30
0.0
 10
15.4569949644
 20
9.8623368652
 30
0.0
 10
15.5462635367
 20
9.8107987969
 30
0.0
  0
SPLINE
  5
3A3
100
AcDbEntity
  8
0
100
AcDbSpline
 62
7
  6
BYLAYER
 70
0
 71
3
 72
11
 73
7
 74
0
 42
0.0000001
 43
0.0000001
 44
0.0000000001
 40
0.0
 40
0.0
 40
0.0
 40
0.0
 40
0.2514829898
 40
0.513942635
 40
0.7690162214
 40
1.0
 40
1.0
 40
1.0
 40
1.0
 10
14.111277351
 20
47.7981492945
 30
0.0
 10
14.0723659967
 20
47.7636445966
 30
0.0
 10
14.0009133257
 20
47.6837686992
 30
0.0
 10
13.9184849167
 20
47.5467655849
 30
0.0
 10
13.8641303998
 20
47.4009053884
 30
0.0
 10
13.8492314024
 20
47.3002847168
 30
0.0
 10
13.8492314024
 20
47.2525175126
 30
0.0
  0
SPLINE
  5
3A4
100
AcDbEntity
  8
0
100
AcDbSpline
 62
7
  6
BYLAYER
 70
0
 71
3
 72
9
 73
5
 74
0
 42
0.0000001
 43
0.0000001
 44
0.0000000001
 40
0.0
 40
0.0
 40
0.0
 40
0.0
 40
0.4675092808
 40
1.0
 40
1.0
 40
1.0
 40
1.0
 10
14.5186491974
 20
48.1140870639
 30
0.0
 10
14.4930357209
 20
48.1072241315
 30
0.0
 10
14.4405569456
 20
48.0837709652
 30
0.0
 10
14.3948373952
 20
48.0495965604
 30
0.0
 10
14.3722396454
 20
48.0295579743
 30
0.0
  0
SPLINE
  5
3A5
100
AcDbEntity
  8
0
100
AcDbSpline
 62
7
  6
BYLAYER
 70
0
 71
3
 72
9
 73
5
 74
0
 42
0.0000001
 43
0.0000001
 44
0.0000000001
 40
0.0
 40
0.0
 40
0.0
 40
0.0
 40
0.4861728752
 40
1.0
 40
1.0
 40
1.0
 40
1.0
 10
14.6454435888
 20
48.1027608525
 30
0.0
 10
14.6337347824
 20
48.1095211283
 30
0.0
 10
14.6073488972
 20
48.1197244179
 30
0.0
 10
14.5792554736
 20
48.1219206708
 30
0.0
 10
14.5649770249
 20
48.1213635207
 30
0.0
  0
SPLINE
  5
3A6
100
AcDbEntity
  8
0
100
AcDbSpline
 62
7
  6
BYLAYER
 70
0
 71
3
 72
9
 73
5
 74
0
 42
0.0000001
 43
0.0000001
 44
0.0000000001
 40
0.0
 40
0.0
 40
0.0
 40
0.0
 40
0.2412459452
 40
1.0
 40
1.0
 40
1.0
 40
1.0
 10
14.5649770249
 20
48.1213635207
 30
0.0
 10
14.5612042719
 20
48.1212163065
 30
0.0
 10
14.5455858115
 20
48.1201205917
 30
0.0
 10
14.5301194842
 20
48.1171604383
 30
0.0
 10
14.5186491974
 20
48.1140870639
 30
0.0
  0
SPLINE
  5
3A7
100
AcDbEntity
  8
0
100
AcDbSpline
 62
7
  6
BYLAYER
 70
0
 71
3
 72
11
 73
7
 74
0
 42
0.0000001
 43
0.0000001
 44
0.0000000001
 40
0.0
 40
0.0
 40
0.0
 40
0.0
 40
0.2176798628
 40
0.45126845
 40
0.7113539759
 40
1.0
 40
1.0
 40
1.0
 40
1.0
 10
23.1073547488
 20
54.5154819692
 30
0.0
 10
23.1040584544
 20
54.5173858863
 30
0.0
 10
23.0964752636
 20
54.5201455868
 30
0.0
 10
23.0838653861
 20
54.5204306102
 30
0.0
 10
23.0704579874
 20
54.5171715203
 30
0.0
 10
23.0617238455
 20
54.5130478341
 30
0.0
 10
23.0573524546
 20
54.5105240254
 30
0.0
  0
SPLINE
  5
3A8
100
AcDbEntity
  8
0
100
AcDbSpline
 62
7
  6
BYLAYER
 70
0
 71
3
 72
10
 73
6
 74
0
 42
0.0000001
 43
0.0000001
 44
0.0000000001
 40
0.0
 40
0.0
 40
0.0
 40
0.0
 40
0.5260807597
 40
0.7670645305
 40
1.0
 40
1.0
 40
1.0
 40
1.0
 10
15.0042953595
 20
47.2941701891
 30
0.0
 10
14.9767247012
 20
47.2867828449
 30
0.0
 10
14.9342499172
 20
47.2816226786
 30
0.0
 10
14.8805866622
 20
47.2916679092
 30
0.0
 10
14.8567453758
 20
47.3019979681
 30
0.0
 10
14.8458002968
 20
47.3083169693
 30
0.0
  0
SPLINE
  5
3A9
100
AcDbEntity
  8
0
100
AcDbSpline
 62
7
  6
BYLAYER
 70
0
 71
3
 72
9
 73
5
 74
0
 42
0.0000001
 43
0.0000001
 44
0.0000000001
 40
0.0
 40
0.0
 40
0.0
 40
0.0
 40
0.5324907192
 40
1.0
 40
1.0
 40
1.0
 40
1.0
 10
15.1873072995
 20
47.3998315511
 30
0.0
 10
15.1590601123
 20
47.3747833184
 30
0.0
 10
15.1019106742
 20
47.3320653125
 30
0.0
 10
15.0363122052
 20
47.3027488546
 30
0.0
 10
15.0042953595
 20
47.2941701891
 30
0.0
  0
SPLINE
  5
3AA
100
AcDbEntity
  8
0
100
AcDbSpline
 62
7
  6
BYLAYER
 70
0
 71
3
 72
14
 73
10
 74
0
 42
0.0000001
 43
0.0000001
 44
0.0000000001
 40
0.0
 40
0.0
 40
0.0
 40
0.0
 40
0.1017094659
 40
0.2147046982
 40
0.3374538887
 40
0.4677645076
 40
0.7381538894
 40
0.8719888128
 40
1.0
 40
1.0
 40
1.0
 40
1.0
 10
19.0743337537
 20
51.2693104507
 30
0.0
 10
19.0806547387
 20
51.2457198837
 30
0.0
 10
19.0880582266
 20
51.194269915
 30
0.0
 10
19.0851999886
 20
51.1129797633
 30
0.0
 10
19.069067154
 20
51.0262666571
 30
0.0
 10
19.0302977255
 20
50.9064558279
 30
0.0
 10
18.9695655927
 20
50.7918413119
 30
0.0
 10
18.8915031261
 20
50.690415298
 30
0.0
 10
18.8473333278
 20
50.6453647535
 30
0.0
 10
18.8243347946
 20
50.624970772
 30
0.0
  0
SPLINE
  5
3AB
100
AcDbEntity
  8
0
100
AcDbSpline
 62
7
  6
BYLAYER
 70
0
 71
3
 72
11
 73
7
 74
0
 42
0.0000001
 43
0.0000001
 44
0.0000000001
 40
0.0
 40
0.0
 40
0.0
 40
0.0
 40
0.3015974329
 40
0.5673601454
 40
0.7955970112
 40
1.0
 40
1.0
 40
1.0
 40
1.0
 10
18.8315866536
 20
51.7246758509
 30
0.0
 10
18.8293421921
 20
51.7137334991
 30
0.0
 10
18.8269186507
 20
51.6927045666
 30
0.0
 10
18.8300097303
 20
51.6630854245
 30
0.0
 10
18.840415491
 20
51.6388435245
 30
0.0
 10
18.8524789699
 20
51.6274055737
 30
0.0
 10
18.8590372769
 20
51.6236240792
 30
0.0
  0
SPLINE
  5
3AC
100
AcDbEntity
  8
0
100
AcDbSpline
 62
7
  6
BYLAYER
 70
0
 71
3
 72
11
 73
7
 74
0
 42
0.0000001
 43
0.0000001
 44
0.0000000001
 40
0.0
 40
0.0
 40
0.0
 40
0.0
 40
0.2309896048
 40
0.4861426619
 40
0.7486026093
 40
1.0
 40
1.0
 40
1.0
 40
1.0
 10
19.1763698604
 20
52.241889473
 30
0.0
 10
19.134860596
 20
52.2179242311
 30
0.0
 10
19.0548943182
 20
52.1544628715
 30
0.0
 10
18.955553882
 20
52.0338973784
 30
0.0
 10
18.8781063936
 20
51.8934215335
 30
0.0
 10
18.8445375942
 20
51.7912642273
 30
0.0
 10
18.8342219674
 20
51.7401290037
 30
0.0
  0
SPLINE
  5
3AD
100
AcDbEntity
  8
0
100
AcDbSpline
 62
7
  6
BYLAYER
 70
0
 71
3
 72
13
 73
9
 74
0
 42
0.0000001
 43
0.0000001
 44
0.0000000001
 40
0.0
 40
0.0
 40
0.0
 40
0.0
 40
0.1178599131
 40
0.2465781441
 40
0.5180921701
 40
0.779535415
 40
0.8965680611
 40
1.0
 40
1.0
 40
1.0
 40
1.0
 10
18.9340275337
 20
6.9304243698
 30
0.0
 10
18.9255807771
 20
6.9255476617
 30
0.0
 10
18.9089590012
 20
6.9134914112
 30
0.0
 10
18.8784661704
 20
6.883169055
 30
0.0
 10
18.848214155
 20
6.8367728014
 30
0.0
 10
18.8304453503
 20
6.7851469913
 30
0.0
 10
18.8271665103
 20
6.7452246302
 30
0.0
 10
18.8293294088
 20
6.7269008151
 30
0.0
 10
18.8315511382
 20
6.7186347052
 30
0.0
  0
SPLINE
  5
3AE
100
AcDbEntity
  8
0
100
AcDbSpline
 62
7
  6
BYLAYER
 70
0
 71
3
 72
9
 73
5
 74
0
 42
0.0000001
 43
0.0000001
 44
0.0000000001
 40
0.0
 40
0.0
 40
0.0
 40
0.0
 40
0.2324089118
 40
1.0
 40
1.0
 40
1.0
 40
1.0
 10
18.9699214632
 20
6.9439213026
 30
0.0
 10
18.9669795544
 20
6.943444492
 30
0.0
 10
18.9544365014
 20
6.9406802454
 30
0.0
 10
18.9425520178
 20
6.9353459536
 30
0.0
 10
18.9340275337
 20
6.9304243698
 30
0.0
  0
SPLINE
  5
3AF
100
AcDbEntity
  8
0
100
AcDbSpline
 62
7
  6
BYLAYER
 70
0
 71
3
 72
9
 73
5
 74
0
 42
0.0000001
 43
0.0000001
 44
0.0000000001
 40
0.0
 40
0.0
 40
0.0
 40
0.0
 40
0.2336056092
 40
1.0
 40
1.0
 40
1.0
 40
1.0
 10
23.0573524546
 20
54.5105240254
 30
0.0
 10
23.054534813
 20
54.508897269
 30
0.0
 10
23.0428375659
 20
54.5013062493
 30
0.0
 10
23.0325955216
 20
54.4915944078
 30
0.0
 10
23.0256176923
 20
54.4835171406
 30
0.0
  0
SPLINE
  5
3B0
100
AcDbEntity
  8
0
100
AcDbSpline
 62
7
  6
BYLAYER
 70
0
 71
3
 72
9
 73
5
 74
0
 42
0.0000001
 43
0.0000001
 44
0.0000000001
 40
0.0
 40
0.0
 40
0.0
 40
0.0
 40
0.2323392026
 40
1.0
 40
1.0
 40
1.0
 40
1.0
 10
23.9221801471
 20
54.6949632532
 30
0.0
 10
23.9190004871
 20
54.6931274866
 30
0.0
 10
23.9057823635
 20
54.6844222766
 30
0.0
 10
23.8944236185
 20
54.6730682682
 30
0.0
 10
23.8868249552
 20
54.6636119873
 30
0.0
  0
SPLINE
  5
3B1
100
AcDbEntity
  8
0
100
AcDbSpline
 62
7
  6
BYLAYER
 70
0
 71
3
 72
15
 73
11
 74
0
 42
0.0000001
 43
0.0000001
 44
0.0000000001
 40
0.0
 40
0.0
 40
0.0
 40
0.0
 40
0.1484803481
 40
0.2894747676
 40
0.4227556535
 40
0.5486625662
 40
0.6679988372
 40
0.7819347831
 40
0.8919889139
 40
1.0
 40
1.0
 40
1.0
 40
1.0
 10
9.7479949965
 20
11.6887614295
 30
0.0
 10
9.7479949965
 20
11.7642330428
 30
0.0
 10
9.7541234056
 20
11.9114702684
 30
0.0
 10
9.7830677233
 20
12.1247355923
 30
0.0
 10
9.8314912948
 20
12.3227313516
 30
0.0
 10
9.8989795058
 20
12.5034358126
 30
0.0
 10
9.984998738
 20
12.6651309259
 30
0.0
 10
10.0888977959
 20
12.8061907507
 30
0.0
 10
10.2096490491
 20
12.925105713
 30
0.0
 10
10.3010843192
 20
12.9888716476
 30
0.0
 10
10.3486303496
 20
13.0163221988
 30
0.0
  0
SPLINE
  5
3B2
100
AcDbEntity
  8
0
100
AcDbSpline
 62
7
  6
BYLAYER
 70
0
 71
3
 72
15
 73
11
 74
0
 42
0.0000001
 43
0.0000001
 44
0.0000000001
 40
0.0
 40
0.0
 40
0.0
 40
0.0
 40
0.1141465952
 40
0.2373352439
 40
0.366975646
 40
0.4999989181
 40
0.6330223406
 40
0.7626631822
 40
0.8858525235
 40
1.0
 40
1.0
 40
1.0
 40
1.0
 10
11.7986131995
 20
7.6471047814
 30
0.0
 10
11.6582421594
 20
7.7281462057
 30
0.0
 10
11.3809652641
 20
7.9225347075
 30
0.0
 10
10.999424229
 20
8.2794502527
 30
0.0
 10
10.6478574775
 20
8.7014120767
 30
0.0
 10
10.3394237771
 20
9.1724746685
 30
0.0
 10
10.0856857926
 20
9.675116735
 30
0.0
 10
9.8960361777
 20
10.190564085
 30
0.0
 10
9.777704893
 20
10.6994481002
 30
0.0
 10
9.7479949965
 20
11.0367731289
 30
0.0
 10
9.7479949965
 20
11.1988599792
 30
0.0
  0
SPLINE
  5
3B3
100
AcDbEntity
  8
0
100
AcDbSpline
 62
7
  6
BYLAYER
 70
0
 71
3
 72
9
 73
5
 74
0
 42
0.0000001
 43
0.0000001
 44
0.0000000001
 40
0.0
 40
0.0
 40
0.0
 40
0.0
 40
0.2312470083
 40
1.0
 40
1.0
 40
1.0
 40
1.0
 10
24.8074824606
 20
54.9794577907
 30
0.0
 10
24.8039386404
 20
54.9774117774
 30
0.0
 10
24.7891984184
 20
54.9675596775
 30
0.0
 10
24.7767711166
 20
54.9544848093
 30
0.0
 10
24.7686252285
 20
54.9435898519
 30
0.0
  0
SPLINE
  5
3B4
100
AcDbEntity
  8
0
100
AcDbSpline
 62
7
  6
BYLAYER
 70
0
 71
3
 72
15
 73
11
 74
0
 42
0.0000001
 43
0.0000001
 44
0.0000000001
 40
0.0
 40
0.0
 40
0.0
 40
0.0
 40
0.1079977314
 40
0.2180516263
 40
0.3319912955
 40
0.4513306691
 40
0.5772408714
 40
0.7105292388
 40
0.8515258585
 40
1.0
 40
1.0
 40
1.0
 40
1.0
 10
13.2486050504
 20
42.0415394558
 30
0.0
 10
13.2010658962
 20
42.0140935831
 30
0.0
 10
13.1001260454
 20
41.9668113118
 30
0.0
 10
12.9367749496
 20
41.9217116253
 30
0.0
 10
12.7626685221
 20
41.9022370453
 30
0.0
 10
12.5796258227
 20
41.9085901922
 30
0.0
 10
12.389384529
 20
41.9404905857
 30
0.0
 10
12.1937039144
 20
41.9975587063
 30
0.0
 10
11.994541136
 20
42.0791191193
 30
0.0
 10
11.8639693783
 20
42.1474244722
 30
0.0
 10
11.7986131995
 20
42.185157026
 30
0.0
  0
SPLINE
  5
3B5
100
AcDbEntity
  8
0
100
AcDbSpline
 62
7
  6
BYLAYER
 70
0
 71
3
 72
9
 73
5
 74
0
 42
0.0000001
 43
0.0000001
 44
0.0000000001
 40
0.0
 40
0.0
 40
0.0
 40
0.0
 40
0.2303289719
 40
1.0
 40
1.0
 40
1.0
 40
1.0
 10
25.7065217102
 20
55.3618424629
 30
0.0
 10
25.7026119037
 20
55.3595851485
 30
0.0
 10
25.686353281
 20
55.3485566337
 30
0.0
 10
25.6729082453
 20
55.3336898854
 30
0.0
 10
25.6642948645
 20
55.3213042555
 30
0.0
  0
SPLINE
  5
3B6
100
AcDbEntity
  8
0
100
AcDbSpline
 62
7
  6
BYLAYER
 70
0
 71
3
 72
11
 73
7
 74
0
 42
0.0000001
 43
0.0000001
 44
0.0000000001
 40
0.0
 40
0.0
 40
0.0
 40
0.0
 40
0.2177825102
 40
0.4509091639
 40
0.7102957096
 40
1.0
 40
1.0
 40
1.0
 40
1.0
 10
17.389766924
 20
46.6437936232
 30
0.0
 10
17.4227535653
 20
46.624749204
 30
0.0
 10
17.4844703008
 20
46.5728645507
 30
0.0
 10
17.5501749932
 20
46.4654346055
 30
0.0
 10
17.5891996942
 20
46.3330405861
 30
0.0
 10
17.5968817396
 20
46.2366801699
 30
0.0
 10
17.5968817396
 20
46.1860117968
 30
0.0
  0
SPLINE
  5
3B7
100
AcDbEntity
  8
0
100
AcDbSpline
 62
7
  6
BYLAYER
 70
0
 71
3
 72
11
 73
7
 74
0
 42
0.0000001
 43
0.0000001
 44
0.0000000001
 40
0.0
 40
0.0
 40
0.0
 40
0.0
 40
0.2895161426
 40
0.5491680116
 40
0.7823267738
 40
1.0
 40
1.0
 40
1.0
 40
1.0
 10
13.8492314024
 20
5.4375633881
 30
0.0
 10
13.8492314024
 20
5.4122462218
 30
0.0
 10
13.853104462
 20
5.3640655012
 30
0.0
 10
13.8725746709
 20
5.2978483441
 30
0.0
 10
13.9054495164
 20
5.2441233837
 30
0.0
 10
13.9363086117
 20
5.2181974859
 30
0.0
 10
13.9527932909
 20
5.208680275
 30
0.0
  0
SPLINE
  5
3B8
100
AcDbEntity
  8
0
100
AcDbSpline
 62
7
  6
BYLAYER
 70
0
 71
3
 72
9
 73
5
 74
0
 42
0.0000001
 43
0.0000001
 44
0.0000000001
 40
0.0
 40
0.0
 40
0.0
 40
0.0
 40
0.474783189
 40
1.0
 40
1.0
 40
1.0
 40
1.0
 10
26.6124556641
 20
55.8392070913
 30
0.0
 10
26.6035969453
 20
55.8340925381
 30
0.0
 10
26.5866300044
 20
55.820363016
 30
0.0
 10
26.5731433323
 20
55.8033635933
 30
0.0
 10
26.5670020832
 20
55.7938593306
 30
0.0
  0
SPLINE
  5
3B9
100
AcDbEntity
  8
0
100
AcDbSpline
 62
7
  6
BYLAYER
 70
0
 71
3
 72
9
 73
5
 74
0
 42
0.0000001
 43
0.0000001
 44
0.0000000001
 40
0.0
 40
0.0
 40
0.0
 40
0.0
 40
0.2517941917
 40
1.0
 40
1.0
 40
1.0
 40
1.0
 10
26.5670020832
 20
55.7938593306
 30
0.0
 10
26.5654228143
 20
55.7914152371
 30
0.0
 10
26.559401772
 20
55.7815493432
 30
0.0
 10
26.5543464143
 20
55.771088328
 30
0.0
 10
26.5512186755
 20
55.7630269896
 30
0.0
  0
SPLINE
  5
3BA
100
AcDbEntity
  8
0
100
AcDbSpline
 62
7
  6
BYLAYER
 70
0
 71
3
 72
12
 73
8
 74
0
 42
0.0000001
 43
0.0000001
 44
0.0000000001
 40
0.0
 40
0.0
 40
0.0
 40
0.0
 40
0.1009699176
 40
0.2053080961
 40
0.4334615048
 40
0.6984216396
 40
1.0
 40
1.0
 40
1.0
 40
1.0
 10
18.9828234011
 20
7.7956723097
 30
0.0
 10
18.9937678382
 20
7.7893542427
 30
0.0
 10
19.01461003
 20
7.7738812666
 30
0.0
 10
19.0502091509
 20
7.732442393
 30
0.0
 10
19.0801023838
 20
7.6619919072
 30
0.0
 10
19.0902430768
 20
7.5620959662
 30
0.0
 10
19.0819008075
 20
7.4911415867
 30
0.0
 10
19.0743337537
 20
7.4541629337
 30
0.0
  0
SPLINE
  5
3BB
100
AcDbEntity
  8
0
100
AcDbSpline
 62
7
  6
BYLAYER
 70
0
 71
3
 72
15
 73
11
 74
0
 42
0.0000001
 43
0.0000001
 44
0.0000000001
 40
0.0
 40
0.0
 40
0.0
 40
0.0
 40
0.1141242661
 40
0.2373486253
 40
0.3669740476
 40
0.5000015346
 40
0.6330288076
 40
0.7626536034
 40
0.8858770013
 40
1.0
 40
1.0
 40
1.0
 40
1.0
 10
17.5968817396
 20
10.8314571351
 30
0.0
 10
17.5968817396
 20
10.7755766464
 30
0.0
 10
17.5866213894
 20
10.6592541667
 30
0.0
 10
17.5458396514
 20
10.4837745023
 30
0.0
 10
17.4804307415
 20
10.3060263648
 30
0.0
 10
17.3929468378
 20
10.1327002568
 30
0.0
 10
17.2865849598
 20
9.9702736411
 30
0.0
 10
17.1653561923
 20
9.8247539492
 30
0.0
 10
17.0337785366
 20
9.7016967138
 30
0.0
 10
16.93817136
 20
9.634650373
 30
0.0
 10
16.8897779024
 20
9.6067105641
 30
0.0
  0
SPLINE
  5
3BC
100
AcDbEntity
  8
0
100
AcDbSpline
 62
7
  6
BYLAYER
 70
0
 71
3
 72
15
 73
11
 74
0
 42
0.0000001
 43
0.0000001
 44
0.0000000001
 40
0.0
 40
0.0
 40
0.0
 40
0.0
 40
0.1079977314
 40
0.2180516263
 40
0.3319912955
 40
0.4513306691
 40
0.5772408714
 40
0.7105292388
 40
0.8515258585
 40
1.0
 40
1.0
 40
1.0
 40
1.0
 10
13.2486050504
 20
7.5034872112
 30
0.0
 10
13.2010658962
 20
7.4760413386
 30
0.0
 10
13.1001260454
 20
7.4287590672
 30
0.0
 10
12.9367749496
 20
7.3836593807
 30
0.0
 10
12.7626685221
 20
7.3641848007
 30
0.0
 10
12.5796258227
 20
7.3705379476
 30
0.0
 10
12.389384529
 20
7.4024383411
 30
0.0
 10
12.1937039144
 20
7.4595064617
 30
0.0
 10
11.994541136
 20
7.5410668747
 30
0.0
 10
11.8639693783
 20
7.6093722276
 30
0.0
 10
11.7986131995
 20
7.6471047814
 30
0.0
  0
SPLINE
  5
3BD
100
AcDbEntity
  8
0
100
AcDbSpline
 62
7
  6
BYLAYER
 70
0
 71
3
 72
9
 73
5
 74
0
 42
0.0000001
 43
0.0000001
 44
0.0000000001
 40
0.0
 40
0.0
 40
0.0
 40
0.0
 40
0.4745024134
 40
1.0
 40
1.0
 40
1.0
 40
1.0
 10
27.5183896181
 20
56.407918643
 30
0.0
 10
27.5087566655
 20
56.4023570884
 30
0.0
 10
27.4904536287
 20
56.3871563867
 30
0.0
 10
27.4762440403
 20
56.3682742619
 30
0.0
 10
27.4699066885
 20
56.3577108704
 30
0.0
  0
SPLINE
  5
3BE
100
AcDbEntity
  8
0
100
AcDbSpline
 62
7
  6
BYLAYER
 70
0
 71
3
 72
9
 73
5
 74
0
 42
0.0000001
 43
0.0000001
 44
0.0000000001
 40
0.0
 40
0.0
 40
0.0
 40
0.0
 40
0.253640704
 40
1.0
 40
1.0
 40
1.0
 40
1.0
 10
27.4699066885
 20
56.3577108704
 30
0.0
 10
27.4682802746
 20
56.3549998884
 30
0.0
 10
27.4621673778
 20
56.3441363662
 30
0.0
 10
27.4571994152
 20
56.3326165961
 30
0.0
 10
27.4543042467
 20
56.3237757989
 30
0.0
  0
SPLINE
  5
3BF
100
AcDbEntity
  8
0
100
AcDbSpline
 62
7
  6
BYLAYER
 70
0
 71
3
 72
9
 73
5
 74
0
 42
0.0000001
 43
0.0000001
 44
0.0000000001
 40
0.0
 40
0.0
 40
0.0
 40
0.0
 40
0.4744867507
 40
1.0
 40
1.0
 40
1.0
 40
1.0
 10
28.4174288676
 20
57.0636488796
 30
0.0
 10
28.4070079276
 20
57.057632383
 30
0.0
 10
28.3873800896
 20
57.0409033149
 30
0.0
 10
28.3725133262
 20
57.0200738663
 30
0.0
 10
28.3660449072
 20
57.0084217947
 30
0.0
  0
SPLINE
  5
3C0
100
AcDbEntity
  8
0
100
AcDbSpline
 62
7
  6
BYLAYER
 70
0
 71
3
 72
9
 73
5
 74
0
 42
0.0000001
 43
0.0000001
 44
0.0000000001
 40
0.0
 40
0.0
 40
0.0
 40
0.0
 40
0.2557644844
 40
1.0
 40
1.0
 40
1.0
 40
1.0
 10
28.3660449072
 20
57.0084217947
 30
0.0
 10
28.3643950121
 20
57.0054497089
 30
0.0
 10
28.3582956381
 20
56.9936404487
 30
0.0
 10
28.3535315858
 20
56.9811197892
 30
0.0
 10
28.3509828418
 20
56.9715622634
 30
0.0
  0
SPLINE
  5
3C1
100
AcDbEntity
  8
0
100
AcDbSpline
 62
7
  6
BYLAYER
 70
0
 71
3
 72
11
 73
7
 74
0
 42
0.0000001
 43
0.0000001
 44
0.0000000001
 40
0.0
 40
0.0
 40
0.0
 40
0.0
 40
0.2572200134
 40
0.5191247605
 40
0.7710131132
 40
1.0
 40
1.0
 40
1.0
 40
1.0
 10
14.0651441459
 20
18.8440172962
 30
0.0
 10
14.0325009067
 20
18.8092397461
 30
0.0
 10
13.9731621884
 20
18.7327042379
 30
0.0
 10
13.9051503347
 20
18.6062229115
 30
0.0
 10
13.861037386
 20
18.4750497309
 30
0.0
 10
13.8492314024
 20
18.3857789334
 30
0.0
 10
13.8492314024
 20
18.3433167625
 30
0.0
  0
SPLINE
  5
3C2
100
AcDbEntity
  8
0
100
AcDbSpline
 62
7
  6
BYLAYER
 70
0
 71
3
 72
9
 73
5
 74
0
 42
0.0000001
 43
0.0000001
 44
0.0000000001
 40
0.0
 40
0.0
 40
0.0
 40
0.0
 40
0.4747538672
 40
1.0
 40
1.0
 40
1.0
 40
1.0
 10
29.3027311812
 20
57.8014072982
 30
0.0
 10
29.2915176997
 20
57.7949332303
 30
0.0
 10
29.270595716
 20
57.7766393217
 30
0.0
 10
29.2551475783
 20
57.7538264831
 30
0.0
 10
29.2486202924
 20
57.741074676
 30
0.0
  0
SPLINE
  5
3C3
100
AcDbEntity
  8
0
100
AcDbSpline
 62
7
  6
BYLAYER
 70
0
 71
3
 72
9
 73
5
 74
0
 42
0.0000001
 43
0.0000001
 44
0.0000000001
 40
0.0
 40
0.0
 40
0.0
 40
0.0
 40
0.2581578437
 40
1.0
 40
1.0
 40
1.0
 40
1.0
 10
29.2486202924
 20
57.741074676
 30
0.0
 10
29.2469675297
 20
57.7378458131
 30
0.0
 10
29.2409737875
 20
57.7251383772
 30
0.0
 10
29.2365198551
 20
57.7116680794
 30
0.0
 10
29.2344301953
 20
57.7014563369
 30
0.0
  0
SPLINE
  5
3C4
100
AcDbEntity
  8
0
100
AcDbSpline
 62
7
  6
BYLAYER
 70
0
 71
3
 72
11
 73
7
 74
0
 42
0.0000001
 43
0.0000001
 44
0.0000000001
 40
0.0
 40
0.0
 40
0.0
 40
0.0
 40
0.217717579
 40
0.450941208
 40
0.710294343
 40
1.0
 40
1.0
 40
1.0
 40
1.0
 10
29.352730973
 20
57.806359717
 30
0.0
 10
29.3494334103
 20
57.8082636201
 30
0.0
 10
29.3418534793
 20
57.811012105
 30
0.0
 10
29.3292649485
 20
57.8113361635
 30
0.0
 10
29.3158478324
 20
57.8080917613
 30
0.0
 10
29.3071191173
 20
57.8039406591
 30
0.0
 10
29.3027311812
 20
57.8014072982
 30
0.0
  0
SPLINE
  5
3C5
100
AcDbEntity
  8
0
100
AcDbSpline
 62
7
  6
BYLAYER
 70
0
 71
3
 72
11
 73
7
 74
0
 42
0.0000001
 43
0.0000001
 44
0.0000000001
 40
0.0
 40
0.0
 40
0.0
 40
0.0
 40
0.2325536529
 40
0.49010733
 40
0.7529774038
 40
1.0
 40
1.0
 40
1.0
 40
1.0
 10
30.1675588736
 20
58.6155791116
 30
0.0
 10
30.1587065739
 20
58.6104682645
 30
0.0
 10
30.1417568657
 20
58.596714516
 30
0.0
 10
30.1210189749
 20
58.5706587583
 30
0.0
 10
30.1055358796
 20
58.5404587839
 30
0.0
 10
30.0994316194
 20
58.5186554429
 30
0.0
 10
30.0979227395
 20
58.5079030848
 30
0.0
  0
SPLINE
  5
3C6
100
AcDbEntity
  8
0
100
AcDbSpline
 62
7
  6
BYLAYER
 70
0
 71
3
 72
9
 73
5
 74
0
 42
0.0000001
 43
0.0000001
 44
0.0000000001
 40
0.0
 40
0.0
 40
0.0
 40
0.0
 40
0.452654027
 40
1.0
 40
1.0
 40
1.0
 40
1.0
 10
30.2130106322
 20
58.6227180122
 30
0.0
 10
30.2063832864
 20
58.6253131014
 30
0.0
 10
30.1898106045
 20
58.6261568345
 30
0.0
 10
30.1750120796
 20
58.6198821964
 30
0.0
 10
30.1675588736
 20
58.6155791116
 30
0.0
  0
SPLINE
  5
3C7
100
AcDbEntity
  8
0
100
AcDbSpline
 62
7
  6
BYLAYER
 70
0
 71
3
 72
9
 73
5
 74
0
 42
0.0000001
 43
0.0000001
 44
0.0000000001
 40
0.0
 40
0.0
 40
0.0
 40
0.0
 40
0.4812173213
 40
1.0
 40
1.0
 40
1.0
 40
1.0
 10
31.1406313556
 20
59.1494178355
 30
0.0
 10
31.0454775062
 20
59.0944810629
 30
0.0
 10
30.8574679062
 20
58.963112435
 30
0.0
 10
30.689721315
 20
58.8072123743
 30
0.0
 10
30.6079048037
 20
58.7215576342
 30
0.0
  0
SPLINE
  5
3C8
100
AcDbEntity
  8
0
100
AcDbSpline
 62
7
  6
BYLAYER
 70
0
 71
3
 72
11
 73
7
 74
0
 42
0.0000001
 43
0.0000001
 44
0.0000000001
 40
0.0
 40
0.0
 40
0.0
 40
0.0
 40
0.2177825102
 40
0.4509091639
 40
0.7102957096
 40
1.0
 40
1.0
 40
1.0
 40
1.0
 10
35.7391114997
 20
18.8621158111
 30
0.0
 10
35.772098141
 20
18.8430713919
 30
0.0
 10
35.8338148765
 20
18.7911867385
 30
0.0
 10
35.8995195688
 20
18.6837567934
 30
0.0
 10
35.9385442699
 20
18.551362774
 30
0.0
 10
35.9462263153
 20
18.4550023577
 30
0.0
 10
35.9462263153
 20
18.4043339846
 30
0.0
  0
SPLINE
  5
3C9
100
AcDbEntity
  8
0
100
AcDbSpline
 62
7
  6
BYLAYER
 70
0
 71
3
 72
11
 73
7
 74
0
 42
0.0000001
 43
0.0000001
 44
0.0000000001
 40
0.0
 40
0.0
 40
0.0
 40
0.0
 40
0.2182208054
 40
0.4536814013
 40
0.713418808
 40
1.0
 40
1.0
 40
1.0
 40
1.0
 10
32.6645141848
 20
59.6437197547
 30
0.0
 10
32.6000980357
 20
59.6693610964
 30
0.0
 10
32.4572275676
 20
59.7018509983
 30
0.0
 10
32.2286472963
 20
59.6909771363
 30
0.0
 10
31.9877370286
 20
59.6240438434
 30
0.0
 10
31.8307762199
 20
59.5478707803
 30
0.0
 10
31.7519235873
 20
59.5023454634
 30
0.0
  0
SPLINE
  5
3CA
100
AcDbEntity
  8
0
100
AcDbSpline
 62
7
  6
BYLAYER
 70
0
 71
3
 72
15
 73
11
 74
0
 42
0.0000001
 43
0.0000001
 44
0.0000000001
 40
0.0
 40
0.0
 40
0.0
 40
0.0
 40
0.1484803481
 40
0.2894747676
 40
0.4227556535
 40
0.5486625662
 40
0.6679988372
 40
0.7819347831
 40
0.8919889139
 40
1.0
 40
1.0
 40
1.0
 40
1.0
 10
9.7479949965
 20
46.226813674
 30
0.0
 10
9.7479949965
 20
46.3022852874
 30
0.0
 10
9.7541234056
 20
46.449522513
 30
0.0
 10
9.7830677233
 20
46.6627878369
 30
0.0
 10
9.8314912948
 20
46.8607835962
 30
0.0
 10
9.8989795058
 20
47.0414880572
 30
0.0
 10
9.984998738
 20
47.2031831705
 30
0.0
 10
10.0888977959
 20
47.3442429953
 30
0.0
 10
10.2096490491
 20
47.4631579576
 30
0.0
 10
10.3010843192
 20
47.5269238922
 30
0.0
 10
10.3486303496
 20
47.5543744434
 30
0.0
  0
SPLINE
  5
3CB
100
AcDbEntity
  8
0
100
AcDbSpline
 62
7
  6
BYLAYER
 70
0
 71
3
 72
15
 73
11
 74
0
 42
0.0000001
 43
0.0000001
 44
0.0000000001
 40
0.0
 40
0.0
 40
0.0
 40
0.0
 40
0.1141465952
 40
0.2373352439
 40
0.366975646
 40
0.4999989181
 40
0.6330223406
 40
0.7626631822
 40
0.8858525235
 40
1.0
 40
1.0
 40
1.0
 40
1.0
 10
11.7986131995
 20
42.185157026
 30
0.0
 10
11.6582421594
 20
42.2661984503
 30
0.0
 10
11.3809652641
 20
42.4605869521
 30
0.0
 10
10.999424229
 20
42.8175024973
 30
0.0
 10
10.6478574775
 20
43.2394643213
 30
0.0
 10
10.3394237771
 20
43.7105269131
 30
0.0
 10
10.0856857926
 20
44.2131689796
 30
0.0
 10
9.8960361777
 20
44.7286163295
 30
0.0
 10
9.777704893
 20
45.2375003448
 30
0.0
 10
9.7479949965
 20
45.5748253735
 30
0.0
 10
9.7479949965
 20
45.7369122238
 30
0.0
  0
SPLINE
  5
3CC
100
AcDbEntity
  8
0
100
AcDbSpline
 62
7
  6
BYLAYER
 70
0
 71
3
 72
11
 73
7
 74
0
 42
0.0000001
 43
0.0000001
 44
0.0000000001
 40
0.0
 40
0.0
 40
0.0
 40
0.0
 40
0.2896361985
 40
0.5491440337
 40
0.7822689535
 40
1.0
 40
1.0
 40
1.0
 40
1.0
 10
13.8492314024
 20
26.5899911755
 30
0.0
 10
13.8492314024
 20
26.5646630417
 30
0.0
 10
13.8530834072
 20
26.5164793449
 30
0.0
 10
13.872587705
 20
26.4502776442
 30
0.0
 10
13.9054374084
 20
26.3965498393
 30
0.0
 10
13.9363024897
 20
26.3706254117
 30
0.0
 10
13.9527894096
 20
26.3611012652
 30
0.0
  0
SPLINE
  5
3CD
100
AcDbEntity
  8
0
100
AcDbSpline
 62
7
  6
BYLAYER
 70
0
 71
3
 72
12
 73
8
 74
0
 42
0.0000001
 43
0.0000001
 44
0.0000000001
 40
0.0
 40
0.0
 40
0.0
 40
0.0
 40
0.2576465007
 40
0.5193918963
 40
0.7709024608
 40
0.889032545
 40
1.0
 40
1.0
 40
1.0
 40
1.0
 10
14.271852815
 20
28.1428427446
 30
0.0
 10
14.2078493427
 20
28.0734123203
 30
0.0
 10
14.0915976366
 20
27.9212360425
 30
0.0
 10
13.9585068398
 20
27.6707504918
 30
0.0
 10
13.8849950479
 20
27.4498069488
 30
0.0
 10
13.8546835038
 20
27.276029563
 30
0.0
 10
13.8492314024
 20
27.1920072688
 30
0.0
 10
13.8492314024
 20
27.1513365873
 30
0.0
  0
SPLINE
  5
3CE
100
AcDbEntity
  8
0
100
AcDbSpline
 62
7
  6
BYLAYER
 70
0
 71
3
 72
9
 73
5
 74
0
 42
0.0000001
 43
0.0000001
 44
0.0000000001
 40
0.0
 40
0.0
 40
0.0
 40
0.0
 40
0.2349676349
 40
1.0
 40
1.0
 40
1.0
 40
1.0
 10
15.2174773274
 20
29.1558363705
 30
0.0
 10
15.2132260767
 20
29.1533819244
 30
0.0
 10
15.1956154721
 20
29.1421045675
 30
0.0
 10
15.1799483632
 20
29.1279370989
 30
0.0
 10
15.1691153152
 20
29.1161855002
 30
0.0
  0
SPLINE
  5
3CF
100
AcDbEntity
  8
0
100
AcDbSpline
 62
7
  6
BYLAYER
 70
0
 71
3
 72
11
 73
7
 74
0
 42
0.0000001
 43
0.0000001
 44
0.0000000001
 40
0.0
 40
0.0
 40
0.0
 40
0.0
 40
0.2313460244
 40
0.4742209156
 40
0.7301497666
 40
1.0
 40
1.0
 40
1.0
 40
1.0
 10
38.2039994569
 20
26.4498516414
 30
0.0
 10
38.0207305432
 20
26.4648006347
 30
0.0
 10
37.6424757354
 20
26.4684510912
 30
0.0
 10
37.0648688413
 20
26.3996801579
 30
0.0
 10
36.4694299792
 20
26.257658389
 30
0.0
 10
36.0744250045
 20
26.1188659141
 30
0.0
 10
35.8755159316
 20
26.0386322903
 30
0.0
  0
SPLINE
  5
3D0
100
AcDbEntity
  8
0
100
AcDbSpline
 62
7
  6
BYLAYER
 70
0
 71
3
 72
11
 73
7
 74
0
 42
0.0000001
 43
0.0000001
 44
0.0000000001
 40
0.0
 40
0.0
 40
0.0
 40
0.0
 40
0.2177825102
 40
0.4509091639
 40
0.7102957096
 40
1.0
 40
1.0
 40
1.0
 40
1.0
 10
17.389766924
 20
12.1057413786
 30
0.0
 10
17.4227535653
 20
12.0866969594
 30
0.0
 10
17.4844703008
 20
12.0348123061
 30
0.0
 10
17.5501749932
 20
11.9273823609
 30
0.0
 10
17.5891996942
 20
11.7949883416
 30
0.0
 10
17.5968817396
 20
11.6986279253
 30
0.0
 10
17.5968817396
 20
11.6479595522
 30
0.0
  0
SPLINE
  5
3D1
100
AcDbEntity
  8
0
100
AcDbSpline
 62
7
  6
BYLAYER
 70
0
 71
3
 72
11
 73
7
 74
0
 42
0.0000001
 43
0.0000001
 44
0.0000000001
 40
0.0
 40
0.0
 40
0.0
 40
0.0
 40
0.217901775
 40
0.4510306955
 40
0.7104357529
 40
1.0
 40
1.0
 40
1.0
 40
1.0
 10
28.4674264332
 20
57.0685989314
 30
0.0
 10
28.4641246155
 20
57.0705017292
 30
0.0
 10
28.4565472876
 20
57.0732601636
 30
0.0
 10
28.4439544184
 20
57.0735756441
 30
0.0
 10
28.4305427781
 20
57.0703291521
 30
0.0
 10
28.4218145606
 20
57.0661809455
 30
0.0
 10
28.4174288676
 20
57.0636488796
 30
0.0
  0
ELLIPSE
  5
3D2
100
AcDbEntity
  8
0
100
AcDbEllipse
 62
7
  6
BYLAYER
 10
20.8913681708
 20
49.8026872297
 30
0.0
 11
6.4579127864
 21
5.8943204638
 31
0.0
 40
0.2589889637
 41
2.7085028353
 42
3.6649799722
  0
ENDSEC
  0
SECTION
  2
OBJECTS
  0
DICTIONARY
  5
C
100
AcDbDictionary
280
0
281
1
  3
ACAD_GROUP
350
D
  3
ACAD_MLINESTYLE
350
17
  3
ACAD_LAYOUT
350
1A
  3
ACAD_PLOTSETTINGS
350
19
  3
ACAD_PLOTSTYLENAME
350
E
  0
DICTIONARY
  5
D
102
{ACAD_REACTORS
330
C
102
}
100
AcDbDictionary
280
0
281
1
  0
ACDBDICTIONARYWDFLT
  5
E
102
{ACAD_REACTORS
330
C
102
}
100
AcDbDictionary
281
1
  3
Normal
350
F
100
AcDbDictionaryWithDefault
340
F
  0
DICTIONARY
  5
17
102
{ACAD_REACTORS
330
C
102
}
100
AcDbDictionary
280
0
281
1
  3
Standard
350
18
  0
DICTIONARY
  5
19
102
{ACAD_REACTORS
330
C
102
}
100
AcDbDictionary
281
1
  0
DICTIONARY
  5
1A
102
{ACAD_REACTORS
330
C
102
}
100
AcDbDictionary
281
1
  3
Model
350
3D3
  3
Layout1
350
3D4
  0
ACDBPLACEHOLDER
  5
F
102
{ACAD_REACTORS
330
E
102
}
  0
MLINESTYLE
  5
18
102
{ACAD_REACTORS
330
17
102
}
100
AcDbMlineStyle
  2
STANDARD
 70
0
  3

 62
256
 51
90.0
 52
90.0
 71
2
 49
0.5
 62
256
  6
BYLAYER
 49
-0.5
 62
256
  6
BYLAYER
  0
LAYOUT
  5
3D3
102
{ACAD_REACTORS
330
1A
102
}
100
AcDbPlotSettings
  1

  2
none_device
  4

  6

 40
0.0
 41
0.0
 42
0.0
 43
0.0
 44
210.0
 45
297.0
 46
0.0
 47
0.0
 48
0.0
 49
0.0
140
0.0
141
0.0
142
1.0
143
1.0
 70
1024
 72
1
 73
0
 74
0
  7

 75
0
147
1.0
148
0.0
149
0.0
100
AcDbLayout
  1
Model
 70
0
 71
0
 10
0.0
 20
0.0
 11
210.0
 21
297.0
 12
0.0
 22
0.0
 32
0.0
 14
0.0
 24
0.0
 34
0.0
 15
0.0
 25
0.0
 35
0.0
146
0.0
 13
0.0
 23
0.0
 33
0.0
 16
1.0
 26
0.0
 36
0.0
 17
0.0
 27
1.0
 37
0.0
 76
0
330
210
345
0
346
0
  0
LAYOUT
  5
3D4
102
{ACAD_REACTORS
330
1A
102
}
100
AcDbPlotSettings
  1

  2
none_device
  4

  6

 40
0.0
 41
0.0
 42
0.0
 43
0.0
 44
210.0
 45
297.0
 46
0.0
 47
0.0
 48
0.0
 49
0.0
140
0.0
141
0.0
142
1.0
143
1.0
 70
0
 72
1
 73
0
 74
0
  7

 75
0
147
1.0
148
0.0
149
0.0
100
AcDbLayout
  1
Layout1
 70
0
 71
1
 10
0.0
 20
0.0
 11
210.0
 21
297.0
 12
0.0
 22
0.0
 32
0.0
 14
0.0
 24
0.0
 34
0.0
 15
0.0
 25
0.0
 35
0.0
146
0.0
 13
0.0
 23
0.0
 33
0.0
 16
1.0
 26
0.0
 36
0.0
 17
0.0
 27
1.0
 37
0.0
 76
0
330
211
345
0
346
0
  0
ENDSEC
  0
EOF
