999
DXF file: C:\Users\sesa63760\Dev\_Creo\CAD\MCADID0004821_3D-CAD\drw0001_7.dxf
999
Pro/ENGINEER 2019471 by Parametric Technology Corporation
  0
SECTION
  2
HEADER
  9
$ACADVER
  1
AC1024
  9
$DWGCODEPAGE
  3
ANSI_1252
  9
$EXTMAX
 10
79.6363338293
 20
112.6285292729
 30
0.0
  9
$EXTMIN
 10
0.0
 20
0.0
 30
0.0
  9
$LIMMIN
 10
0.0
 20
0.0
  9
$LIMMAX
 10
79.6363338293
 20
112.6285292729
  9
$VIEWCTR
 10
39.8181669147
 20
56.3142646365
  9
$VIEWSIZE
 40
112.6285292729
  9
$CLAYER
  8
0
  9
$LTSCALE
 40
7.3417115378
  9
$CELTYPE
  6
BYLAYER
  9
$DIMSCALE
 40
1.0
  9
$DIMASZ
 40
0.9480515932
  9
$DIMEXO
 40
1.0
  9
$DIMDLI
 40
5.0724552443
  9
$DIMEXE
 40
1.0
  9
$DIMCEN
 40
1.2013709789
  9
$DIMLFAC
 40
1.0
  9
$DIMBLK
  1
_FILLED
  9
$DIMALT
 70
0
  9
$DIMALTF
 40
0.0393700787
  9
$DIMTXT
 40
1.3272722305
  9
$DIMTOL
 70
1
  9
$DIMLIM
 70
0
  9
$DIMTFAC
 40
1.0
  9
$DIMTP
 40
0.01
  9
$DIMTM
 40
0.01
  9
$DIMGAP
 40
0.625
  9
$DIMDSEP
 70
46
  9
$AUNITS
 70
0
  9
$PDMODE
 70
3
  9
$PDSIZE
 40
0.3125
  9
$HANDSEED
  5
317
  9
$TILEMODE
 70
1
  9
$MEASUREMENT
 70
1
  9
$INSUNITS
 70
4
  0
ENDSEC
  0
SECTION
  2
CLASSES
  0
CLASS
  1
ACDBDICTIONARYWDFLT
  2
AcDbDictionaryWithDefault
  3
AutoCAD 2000
 90
0
 91
1
280
0
281
0
  0
CLASS
  1
ACDBPLACEHOLDER
  2
AcDbPlaceHolder
  3
AutoCAD 2000
 90
0
 91
1
280
0
281
0
  0
CLASS
  1
LAYOUT
  2
AcDbLayout
  3
AutoCAD 2000
 90
0
 91
0
280
0
281
0
  0
ENDSEC
  0
SECTION
  2
TABLES
  0
TABLE
  2
VPORT
  5
8
100
AcDbSymbolTable
 70
2
  0
VPORT
  5
1F4
100
AcDbSymbolTableRecord
100
AcDbViewportTableRecord
  2
*ACTIVE
 70
0
 10
0.0
 20
0.0
 11
1.0
 21
1.0
 12
39.8181669147
 22
56.3142646365
 13
0.0
 23
0.0
 14
1.0
 24
1.0
 15
0.0
 25
0.0
 16
0.0
 26
0.0
 36
1.0
 17
0.0
 27
0.0
 37
0.0
 40
112.6285292729
 41
0.7070707071
 42
50.0
 43
0.0
 44
0.0
 50
0.0
 51
0.0
 71
0
 72
100
 73
1
 74
1
 75
0
 76
0
 77
0
 78
0
  0
ENDTAB
  0
TABLE
  2
LTYPE
  5
5
100
AcDbSymbolTable
 70
6
  0
LTYPE
  5
14
100
AcDbSymbolTableRecord
100
AcDbLinetypeTableRecord
  2
BYBLOCK
 70
0
  3

 72
65
 73
0
 40
0.0
  0
LTYPE
  5
15
100
AcDbSymbolTableRecord
100
AcDbLinetypeTableRecord
  2
BYLAYER
 70
0
  3

 72
65
 73
0
 40
0.0
  0
LTYPE
  5
16
100
AcDbSymbolTableRecord
100
AcDbLinetypeTableRecord
  2
CONTINUOUS
 70
64
  3
Solid line
 72
65
 73
0
 40
0.0
  0
LTYPE
  5
1F5
100
AcDbSymbolTableRecord
100
AcDbLinetypeTableRecord
  2
CENTER
 70
64
  3
____ _ ____ _ ____ _ ____ _ ____ _ ____ _ ____
 72
65
 73
4
 40
0.6
 49
0.375
 74
0
 49
-0.075
 74
0
 49
0.075
 74
0
 49
-0.075
 74
0
  0
LTYPE
  5
1F6
100
AcDbSymbolTableRecord
100
AcDbLinetypeTableRecord
  2
HIDDEN
 70
64
  3
- - - - - - - - - - - - - - - - - - - -
 72
65
 73
2
 40
0.2
 49
0.1
 74
0
 49
-0.1
 74
0
  0
LTYPE
  5
1F7
100
AcDbSymbolTableRecord
100
AcDbLinetypeTableRecord
  2
PHANTOM
 70
64
  3
_____ _ _ _____ _ _ _____ _ _ _____
 72
65
 73
6
 40
0.8
 49
0.45
 74
0
 49
-0.05
 74
0
 49
0.1
 74
0
 49
-0.05
 74
0
 49
0.1
 74
0
 49
-0.05
 74
0
  0
LTYPE
  5
1F8
100
AcDbSymbolTableRecord
100
AcDbLinetypeTableRecord
  2
DOT
 70
64
  3
. . . . . . . . . . . . . . . . . . . .
 72
65
 73
2
 40
0.2
 49
0.1
 74
0
 49
-0.1
 74
0
  0
LTYPE
  5
1F9
100
AcDbSymbolTableRecord
100
AcDbLinetypeTableRecord
  2
DASHED
 70
64
  3
- - - - - - - - - - - - - - - - - - - -
 72
65
 73
2
 40
0.2
 49
0.1
 74
0
 49
-0.1
 74
0
  0
ENDTAB
  0
TABLE
  2
LAYER
  5
2
100
AcDbSymbolTable
 70
36
  0
LAYER
  5
10
100
AcDbSymbolTableRecord
100
AcDbLayerTableRecord
  2
0
 70
0
 62
7
  6
CONTINUOUS
370
-3
390
F
  0
LAYER
  5
1FA
100
AcDbSymbolTableRecord
100
AcDbLayerTableRecord
  2
DEFAULT_1
 70
0
 62
7
  6
CENTER
370
-3
390
F
  0
LAYER
  5
1FB
100
AcDbSymbolTableRecord
100
AcDbLayerTableRecord
  2
DEFAULT_2
 70
0
 62
7
  6
HIDDEN
370
-3
390
F
  0
LAYER
  5
1FC
100
AcDbSymbolTableRecord
100
AcDbLayerTableRecord
  2
DEFAULT_3
 70
0
 62
7
  6
PHANTOM
370
-3
390
F
  0
LAYER
  5
1FD
100
AcDbSymbolTableRecord
100
AcDbLayerTableRecord
  2
00_COMPONENTS
 70
0
 62
7
  6
CONTINUOUS
370
-3
390
F
  0
LAYER
  5
1FE
100
AcDbSymbolTableRecord
100
AcDbLayerTableRecord
  2
01_1_DEFAULT_DATUMS
 70
0
 62
7
  6
CONTINUOUS
370
-3
390
F
  0
LAYER
  5
1FF
100
AcDbSymbolTableRecord
100
AcDbLayerTableRecord
  2
01_PLANES
 70
0
 62
7
  6
CONTINUOUS
370
-3
390
F
  0
LAYER
  5
200
100
AcDbSymbolTableRecord
100
AcDbLayerTableRecord
  2
02_COORD_SYS
 70
0
 62
7
  6
CONTINUOUS
370
-3
390
F
  0
LAYER
  5
201
100
AcDbSymbolTableRecord
100
AcDbLayerTableRecord
  2
03_AXES
 70
0
 62
7
  6
CONTINUOUS
370
-3
390
F
  0
LAYER
  5
202
100
AcDbSymbolTableRecord
100
AcDbLayerTableRecord
  2
04_POINTS
 70
0
 62
7
  6
CONTINUOUS
370
-3
390
F
  0
LAYER
  5
203
100
AcDbSymbolTableRecord
100
AcDbLayerTableRecord
  2
05_CURVES
 70
0
 62
7
  6
CONTINUOUS
370
-3
390
F
  0
LAYER
  5
204
100
AcDbSymbolTableRecord
100
AcDbLayerTableRecord
  2
06_SURFS
 70
0
 62
7
  6
CONTINUOUS
370
-3
390
F
  0
LAYER
  5
205
100
AcDbSymbolTableRecord
100
AcDbLayerTableRecord
  2
07_COSMETICS
 70
0
 62
7
  6
CONTINUOUS
370
-3
390
F
  0
LAYER
  5
206
100
AcDbSymbolTableRecord
100
AcDbLayerTableRecord
  2
10_NOTES
 70
0
 62
7
  6
CONTINUOUS
370
-3
390
F
  0
LAYER
  5
207
100
AcDbSymbolTableRecord
100
AcDbLayerTableRecord
  2
11_NOTES_PUB
 70
0
 62
7
  6
CONTINUOUS
370
-3
390
F
  0
LAYER
  5
208
100
AcDbSymbolTableRecord
100
AcDbLayerTableRecord
  2
13_REF_GTOL
 70
0
 62
7
  6
CONTINUOUS
370
-3
390
F
  0
LAYER
  5
209
100
AcDbSymbolTableRecord
100
AcDbLayerTableRecord
  2
16_MISC
 70
0
 62
7
  6
CONTINUOUS
370
-3
390
F
  0
LAYER
  5
20A
100
AcDbSymbolTableRecord
100
AcDbLayerTableRecord
  2
17_NO_PRINT
 70
0
 62
7
  6
CONTINUOUS
370
-3
390
F
  0
LAYER
  5
20B
100
AcDbSymbolTableRecord
100
AcDbLayerTableRecord
  2
18_DATUM_CAMS_JOINTS
 70
0
 62
7
  6
CONTINUOUS
370
-3
390
F
  0
LAYER
  5
20C
100
AcDbSymbolTableRecord
100
AcDbLayerTableRecord
  2
19_DATUM_FUNCTIONAL
 70
0
 62
7
  6
CONTINUOUS
370
-3
390
F
  0
LAYER
  5
20D
100
AcDbSymbolTableRecord
100
AcDbLayerTableRecord
  2
20_DATUM_KINEMATIC_SCHEME
 70
0
 62
7
  6
CONTINUOUS
370
-3
390
F
  0
ENDTAB
  0
TABLE
  2
STYLE
  5
3
100
AcDbSymbolTable
 70
1
  0
STYLE
  5
11
100
AcDbSymbolTableRecord
100
AcDbTextStyleTableRecord
  2
STANDARD
 70
0
 40
0.0
 41
1.0
 50
0.0
 71
0
 42
0.2
  3
ARIAL.TTF
  4

  0
STYLE
  5
20E
100
AcDbSymbolTableRecord
100
AcDbTextStyleTableRecord
  2
TEXTSTYLE_1
 70
0
 40
0.0
 41
0.8
 50
0.0
 71
0
 42
0.2
  3
gdt
  4

  0
ENDTAB
  0
TABLE
  2
VIEW
  5
6
100
AcDbSymbolTable
 70
0
  0
ENDTAB
  0
TABLE
  2
UCS
  5
7
100
AcDbSymbolTable
 70
0
  0
ENDTAB
  0
TABLE
  2
APPID
  5
9
100
AcDbSymbolTable
 70
1
  0
APPID
  5
20F
100
AcDbSymbolTableRecord
100
AcDbRegAppTableRecord
  2
ACAD
 70
0
  0
ENDTAB
  0
TABLE
  2
BLOCK_RECORD
  5
1
100
AcDbSymbolTable
 70
0
  0
BLOCK_RECORD
  5
210
100
AcDbSymbolTableRecord
100
AcDbBlockTableRecord
  2
*Model_Space
  0
BLOCK_RECORD
  5
211
100
AcDbSymbolTableRecord
100
AcDbBlockTableRecord
  2
*Paper_Space
  0
BLOCK_RECORD
  5
212
100
AcDbSymbolTableRecord
100
AcDbBlockTableRecord
  2
_FILLED
  0
ENDTAB
  0
TABLE
  2
DIMSTYLE
  5
A
100
AcDbSymbolTable
 70
1
100
AcDbDimStyleTable
 71
0
  0
DIMSTYLE
105
213
100
AcDbSymbolTableRecord
100
AcDbDimStyleTableRecord
  2
STANDARD
 70
0
  3

  4

 40
1.0
 41
0.9480515932
 42
1.0
 43
0.38
 44
1.0
 45
0.0
 46
0.0
 47
0.01
 48
0.01
140
1.3272722305
141
0.09
142
0.0
143
25.4
144
1.0
145
0.0
146
1.0
147
0.625
 71
1
 72
0
 73
0
 74
0
 75
0
 76
0
 77
1
 78
8
 79
2
170
0
171
1
172
0
173
0
174
0
175
0
176
0
177
0
178
0
270
2
179
2
271
2
272
2
273
2
274
2
275
0
280
0
281
0
282
0
283
1
284
8
285
0
286
0
287
3
288
0
340
11
278
46
341
212
342
212
343
212
344
212
  0
ENDTAB
  0
ENDSEC
  0
SECTION
  2
BLOCKS
  0
BLOCK
  5
20
100
AcDbEntity
  8
0
100
AcDbBlockBegin
  2
*Model_Space
 70
0
 10
0.0
 20
0.0
 30
0.0
  3
*Model_Space
  1

  0
ENDBLK
  5
21
100
AcDbEntity
  8
0
100
AcDbBlockEnd
  0
BLOCK
  5
1C
100
AcDbEntity
  8
0
100
AcDbBlockBegin
  2
*Paper_Space
 70
0
 10
0.0
 20
0.0
 30
0.0
  3
*Paper_Space
  1

  0
ENDBLK
  5
1D
100
AcDbEntity
  8
0
100
AcDbBlockEnd
  0
BLOCK
  5
214
100
AcDbEntity
  8
0
100
AcDbBlockBegin
  2
_FILLED
 70
64
 10
0.0
 20
0.0
  3
_FILLED
  1

  0
SOLID
  5
215
100
AcDbEntity
  8
0
  6
BYBLOCK
 62
0
100
AcDbTrace
 10
0.0
 20
0.0
 11
-1.0
 21
0.25
 12
-1.0
 22
-0.25
 13
-1.0
 23
-0.25
  0
ENDBLK
  5
216
100
AcDbEntity
  8
0
  6
BYBLOCK
 62
0
100
AcDbBlockEnd
  0
ENDSEC
  0
SECTION
  2
ENTITIES
  0
LINE
  5
217
100
AcDbEntity
  8
0
100
AcDbLine
 62
7
  6
BYLAYER
 10
8.4558775516
 20
34.1811532746
 11
8.4558775516
 21
41.4809631414
  0
LINE
  5
218
100
AcDbEntity
  8
0
100
AcDbLine
 62
7
  6
BYLAYER
 10
38.9558775516
 20
30.831058208
 11
27.7614428102
 21
30.831058208
  0
LINE
  5
219
100
AcDbEntity
  8
0
100
AcDbLine
 62
7
  6
BYLAYER
 10
59.0189283071
 20
31.331058208
 11
53.8928267962
 21
31.331058208
  0
LINE
  5
21A
100
AcDbEntity
  8
0
100
AcDbLine
 62
7
  6
BYLAYER
 10
46.4558775448
 20
31.406058208
 11
70.2558777346
 21
31.406058208
  0
LINE
  5
21B
100
AcDbEntity
  8
0
100
AcDbLine
 62
7
  6
BYLAYER
 10
70.4373218002
 20
31.4202886925
 11
70.6558775512
 21
31.4202886925
  0
LINE
  5
21C
100
AcDbEntity
  8
0
100
AcDbLine
 62
7
  6
BYLAYER
 10
70.2559029239
 20
31.7060623654
 11
46.4559001642
 21
31.7060857513
  0
LINE
  5
21D
100
AcDbEntity
  8
0
100
AcDbLine
 62
7
  6
BYLAYER
 10
38.9558775516
 20
31.8702886925
 11
44.3828391711
 21
31.8702886925
  0
LINE
  5
21E
100
AcDbEntity
  8
0
100
AcDbLine
 62
7
  6
BYLAYER
 10
71.4558775516
 20
32.2202886925
 11
71.3796710573
 21
32.2202886925
  0
LINE
  5
21F
100
AcDbEntity
  8
0
100
AcDbLine
 62
7
  6
BYLAYER
 10
52.8216740258
 20
33.9246899496
 11
52.8729228701
 21
33.9297175906
  0
LINE
  5
220
100
AcDbEntity
  8
0
100
AcDbLine
 62
7
  6
BYLAYER
 10
52.6717749174
 20
33.9188671619
 11
52.8216740258
 21
33.9246899496
  0
LINE
  5
221
100
AcDbEntity
  8
0
100
AcDbLine
 62
7
  6
BYLAYER
 10
24.8030949224
 20
33.106058208
 11
18.9558775516
 21
33.106058208
  0
LINE
  5
222
100
AcDbEntity
  8
0
100
AcDbLine
 62
7
  6
BYLAYER
 10
53.1058781515
 20
33.206058208
 11
56.232270939
 21
33.206058208
  0
LINE
  5
223
100
AcDbEntity
  8
0
100
AcDbLine
 62
7
  6
BYLAYER
 10
56.6794837809
 20
33.206058208
 11
59.65587637
 21
33.206058208
  0
LINE
  5
224
100
AcDbEntity
  8
0
100
AcDbLine
 62
7
  6
BYLAYER
 10
52.5774725696
 20
33.4187706377
 11
56.1642261568
 21
33.4187706377
  0
LINE
  5
225
100
AcDbEntity
  8
0
100
AcDbLine
 62
7
  6
BYLAYER
 10
40.7558775516
 20
33.9702886925
 11
42.0972653872
 21
33.9702886925
  0
LINE
  5
226
100
AcDbEntity
  8
0
100
AcDbLine
 62
7
  6
BYLAYER
 10
41.9907347768
 20
34.1702886925
 11
40.5558775516
 21
34.1702886925
  0
LINE
  5
227
100
AcDbEntity
  8
0
100
AcDbLine
 62
7
  6
BYLAYER
 10
8.4558775516
 20
34.181058208
 11
18.9558775516
 21
34.181058208
  0
LINE
  5
228
100
AcDbEntity
  8
0
100
AcDbLine
 62
7
  6
BYLAYER
 10
52.2599501672
 20
34.331058208
 11
60.5031656618
 21
34.331058208
  0
LINE
  5
229
100
AcDbEntity
  8
0
100
AcDbLine
 62
7
  6
BYLAYER
 10
58.4399896446
 20
34.3903526844
 11
54.4717654587
 21
34.3903526844
  0
LINE
  5
22A
100
AcDbEntity
  8
0
100
AcDbLine
 62
7
  6
BYLAYER
 10
54.5164024255
 20
34.5569401125
 11
58.3953526777
 21
34.5569401125
  0
LINE
  5
22B
100
AcDbEntity
  8
0
100
AcDbLine
 62
7
  6
BYLAYER
 10
54.6130435005
 20
34.631058208
 11
58.2987116027
 21
34.631058208
  0
LINE
  5
22C
100
AcDbEntity
  8
0
100
AcDbLine
 62
7
  6
BYLAYER
 10
60.3472179941
 20
34.6702886925
 11
52.4128342944
 21
34.6702886925
  0
LINE
  5
22D
100
AcDbEntity
  8
0
100
AcDbLine
 62
7
  6
BYLAYER
 10
41.5558775516
 20
34.6702886925
 11
41.7721290528
 21
34.6702886925
  0
LINE
  5
22E
100
AcDbEntity
  8
0
100
AcDbLine
 62
7
  6
BYLAYER
 10
52.7496726736
 20
34.9037529788
 11
60.0124145541
 21
34.9037529788
  0
LINE
  5
22F
100
AcDbEntity
  8
0
100
AcDbLine
 62
7
  6
BYLAYER
 10
59.6558779518
 20
35.006058208
 11
53.1058775516
 21
35.006058208
  0
LINE
  5
230
100
AcDbEntity
  8
0
100
AcDbLine
 62
7
  6
BYLAYER
 10
25.718558231
 20
32.5084596624
 11
25.9305161928
 21
32.0262552993
  0
LINE
  5
231
100
AcDbEntity
  8
0
100
AcDbLine
 62
7
  6
BYLAYER
 10
18.9558775516
 20
33.1061378529
 11
18.9558775516
 21
42.5559785631
  0
LINE
  5
232
100
AcDbEntity
  8
0
100
AcDbLine
 62
7
  6
BYLAYER
 10
41.2558775516
 20
36.2702886925
 11
41.4608397945
 21
36.2702886925
  0
LINE
  5
233
100
AcDbEntity
  8
0
100
AcDbLine
 62
7
  6
BYLAYER
 10
40.7558775516
 20
36.8349626569
 11
38.9558775516
 21
36.8349626569
  0
LINE
  5
234
100
AcDbEntity
  8
0
100
AcDbLine
 62
7
  6
BYLAYER
 10
40.5558775516
 20
36.9595204796
 11
38.9558775516
 21
36.9595235558
  0
LINE
  5
235
100
AcDbEntity
  8
0
100
AcDbLine
 62
7
  6
BYLAYER
 10
40.5558775516
 20
37.0202886925
 11
41.2558775516
 21
37.0202886925
  0
LINE
  5
236
100
AcDbEntity
  8
0
100
AcDbLine
 62
7
  6
BYLAYER
 10
38.9558775516
 20
37.1702875562
 11
41.4558775516
 21
37.1702886925
  0
LINE
  5
237
100
AcDbEntity
  8
0
100
AcDbLine
 62
7
  6
BYLAYER
 10
41.4558775516
 20
37.531058208
 11
38.9558775516
 21
37.531058208
  0
LINE
  5
238
100
AcDbEntity
  8
0
100
AcDbLine
 62
7
  6
BYLAYER
 10
38.9558775516
 20
38.031058208
 11
41.4558775516
 21
38.031058208
  0
LINE
  5
239
100
AcDbEntity
  8
0
100
AcDbLine
 62
7
  6
BYLAYER
 10
24.8030949224
 20
42.556058208
 11
24.8030949224
 21
33.106058208
  0
LINE
  5
23A
100
AcDbEntity
  8
0
100
AcDbLine
 62
7
  6
BYLAYER
 10
25.718558231
 20
32.5084596624
 11
25.718558231
 21
43.1536567536
  0
LINE
  5
23B
100
AcDbEntity
  8
0
100
AcDbLine
 62
7
  6
BYLAYER
 10
25.9305161928
 20
43.6358611167
 11
25.9305161928
 21
32.0262552993
  0
LINE
  5
23C
100
AcDbEntity
  8
0
100
AcDbLine
 62
7
  6
BYLAYER
 10
8.4558775516
 20
41.481058208
 11
18.9558775516
 21
41.481058208
  0
LINE
  5
23D
100
AcDbEntity
  8
0
100
AcDbLine
 62
7
  6
BYLAYER
 10
24.8030949224
 20
42.556058208
 11
18.9558775516
 21
42.556058208
  0
LINE
  5
23E
100
AcDbEntity
  8
0
100
AcDbLine
 62
7
  6
BYLAYER
 10
41.4558775516
 20
42.831058208
 11
38.9558775516
 21
42.831058208
  0
LINE
  5
23F
100
AcDbEntity
  8
0
100
AcDbLine
 62
7
  6
BYLAYER
 10
27.7614428102
 20
30.831058208
 11
27.7614428102
 21
44.831058208
  0
LINE
  5
240
100
AcDbEntity
  8
0
100
AcDbLine
 62
7
  6
BYLAYER
 10
49.1983514738
 20
78.306058208
 11
49.5558775516
 21
78.606058208
  0
LINE
  5
241
100
AcDbEntity
  8
0
100
AcDbLine
 62
7
  6
BYLAYER
 10
49.5558775516
 20
78.2312849324
 11
49.1983514739
 21
77.9359641172
  0
LINE
  5
242
100
AcDbEntity
  8
0
100
AcDbLine
 62
7
  6
BYLAYER
 10
49.5558775516
 20
78.5694465468
 11
49.1983514739
 21
78.2778953917
  0
LINE
  5
243
100
AcDbEntity
  8
0
100
AcDbLine
 62
7
  6
BYLAYER
 10
38.9558775516
 20
44.831058208
 11
27.7614428102
 21
44.831058208
  0
LINE
  5
244
100
AcDbEntity
  8
0
100
AcDbLine
 62
7
  6
BYLAYER
 10
25.718558231
 20
43.1536567536
 11
25.9305161928
 21
43.6358611167
  0
LINE
  5
245
100
AcDbEntity
  8
0
100
AcDbLine
 62
7
  6
BYLAYER
 10
41.5558775516
 20
34.6702886925
 11
41.2558775516
 21
35.9702886925
  0
LINE
  5
246
100
AcDbEntity
  8
0
100
AcDbLine
 62
7
  6
BYLAYER
 10
38.9558775516
 20
44.8309688923
 11
38.9558775516
 21
30.8311475237
  0
LINE
  5
247
100
AcDbEntity
  8
0
100
AcDbLine
 62
7
  6
BYLAYER
 10
40.5558775516
 20
36.0274919051
 11
40.5558775516
 21
34.1702886925
  0
LINE
  5
248
100
AcDbEntity
  8
0
100
AcDbLine
 62
7
  6
BYLAYER
 10
40.5558775516
 20
36.9595204796
 11
40.5558775516
 21
37.1702886925
  0
LINE
  5
249
100
AcDbEntity
  8
0
100
AcDbLine
 62
7
  6
BYLAYER
 10
40.7558775516
 20
33.9702886925
 11
40.7558775516
 21
36.8349626569
  0
LINE
  5
24A
100
AcDbEntity
  8
0
100
AcDbLine
 62
7
  6
BYLAYER
 10
41.2558775516
 20
35.9702886925
 11
41.2558775516
 21
37.1702886925
  0
LINE
  5
24B
100
AcDbEntity
  8
0
100
AcDbLine
 62
7
  6
BYLAYER
 10
41.4558775516
 20
79.2019402959
 11
41.4558775516
 21
36.4060579763
  0
LINE
  5
24C
100
AcDbEntity
  8
0
100
AcDbLine
 62
7
  6
BYLAYER
 10
42.1558776105
 20
72.2126717734
 11
42.1558780839
 21
79.4543368511
  0
LINE
  5
24D
100
AcDbEntity
  8
0
100
AcDbLine
 62
7
  6
BYLAYER
 10
42.1558858371
 20
35.4708292072
 11
42.1558773857
 21
70.5994439761
  0
LINE
  5
24E
100
AcDbEntity
  8
0
100
AcDbLine
 62
7
  6
BYLAYER
 10
46.2058775516
 20
77.756058208
 11
46.2058775516
 21
79.406058208
  0
LINE
  5
24F
100
AcDbEntity
  8
0
100
AcDbLine
 62
7
  6
BYLAYER
 10
46.4058775516
 20
78.0368735149
 11
46.4058775516
 21
78.8336800274
  0
LINE
  5
250
100
AcDbEntity
  8
0
100
AcDbLine
 62
7
  6
BYLAYER
 10
46.4199547773
 20
78.277895308
 11
46.4199547773
 21
78.8609975698
  0
LINE
  5
251
100
AcDbEntity
  8
0
100
AcDbLine
 62
7
  6
BYLAYER
 10
46.4558775489
 20
31.406058208
 11
46.4558775489
 21
31.7060740584
  0
LINE
  5
252
100
AcDbEntity
  8
0
100
AcDbLine
 62
7
  6
BYLAYER
 10
46.5523241651
 20
78.3052602895
 11
46.5523241651
 21
78.9047815396
  0
LINE
  5
253
100
AcDbEntity
  8
0
100
AcDbLine
 62
7
  6
BYLAYER
 10
46.5999047405
 20
78.3060582115
 11
46.5999047401
 21
78.9060582149
  0
LINE
  5
254
100
AcDbEntity
  8
0
100
AcDbLine
 62
7
  6
BYLAYER
 10
47.4058775516
 20
78.3060582083
 11
47.4058775516
 21
78.9060582086
  0
LINE
  5
255
100
AcDbEntity
  8
0
100
AcDbLine
 62
7
  6
BYLAYER
 10
47.5558775516
 20
77.767931759
 11
47.5558775516
 21
78.1611763503
  0
LINE
  5
256
100
AcDbEntity
  8
0
100
AcDbLine
 62
7
  6
BYLAYER
 10
47.6144561954
 20
77.8030371842
 11
47.6144561954
 21
78.1536884424
  0
LINE
  5
257
100
AcDbEntity
  8
0
100
AcDbLine
 62
7
  6
BYLAYER
 10
47.6765882298
 20
77.8123691065
 11
47.6765882298
 21
78.1376468223
  0
LINE
  5
258
100
AcDbEntity
  8
0
100
AcDbLine
 62
7
  6
BYLAYER
 10
47.7058775516
 20
77.8231617653
 11
47.7058775516
 21
78.1202374731
  0
LINE
  5
259
100
AcDbEntity
  8
0
100
AcDbLine
 62
7
  6
BYLAYER
 10
48.4558775516
 20
81.406058208
 11
48.4558775516
 21
80.8893010883
  0
LINE
  5
25A
100
AcDbEntity
  8
0
100
AcDbLine
 62
7
  6
BYLAYER
 10
42.1558784047
 20
79.4543369376
 11
42.0878910871
 21
79.7465316066
  0
LINE
  5
25B
100
AcDbEntity
  8
0
100
AcDbLine
 62
7
  6
BYLAYER
 10
48.4558775516
 20
82.331058208
 11
48.4720185689
 21
81.4063399505
  0
LINE
  5
25C
100
AcDbEntity
  8
0
100
AcDbLine
 62
7
  6
BYLAYER
 10
49.1983514739
 20
78.306058208
 11
49.1983514739
 21
77.9358830634
  0
LINE
  5
25D
100
AcDbEntity
  8
0
100
AcDbLine
 62
7
  6
BYLAYER
 10
49.4792802963
 20
77.406058208
 11
49.4792802963
 21
77.756058208
  0
LINE
  5
25E
100
AcDbEntity
  8
0
100
AcDbLine
 62
7
  6
BYLAYER
 10
49.5558775516
 20
78.906058208
 11
49.5558775516
 21
78.2312846062
  0
LINE
  5
25F
100
AcDbEntity
  8
0
100
AcDbLine
 62
7
  6
BYLAYER
 10
50.8558775516
 20
78.1165993351
 11
50.8558775516
 21
77.5066133008
  0
LINE
  5
260
100
AcDbEntity
  8
0
100
AcDbLine
 62
7
  6
BYLAYER
 10
50.9558775516
 20
79.406058208
 11
50.9558775516
 21
77.406058208
  0
LINE
  5
261
100
AcDbEntity
  8
0
100
AcDbLine
 62
7
  6
BYLAYER
 10
70.7558781989
 20
72.2126680479
 11
70.4610210116
 21
72.1573576588
  0
LINE
  5
262
100
AcDbEntity
  8
0
100
AcDbLine
 62
7
  6
BYLAYER
 10
52.8216740258
 20
33.9246899495
 11
52.8229934136
 21
33.7684618813
  0
LINE
  5
263
100
AcDbEntity
  8
0
100
AcDbLine
 62
7
  6
BYLAYER
 10
42.1558768
 20
70.5994489246
 11
42.4507339944
 21
70.6547592754
  0
LINE
  5
264
100
AcDbEntity
  8
0
100
AcDbLine
 62
7
  6
BYLAYER
 10
58.3953526777
 20
34.5569401125
 11
58.4399896446
 21
34.3903526844
  0
LINE
  5
265
100
AcDbEntity
  8
0
100
AcDbLine
 62
7
  6
BYLAYER
 10
56.084272364
 20
34.0279861244
 11
56.0842484371
 21
34.0310506032
  0
LINE
  5
266
100
AcDbEntity
  8
0
100
AcDbLine
 62
7
  6
BYLAYER
 10
56.0842962908
 20
33.4187706377
 11
56.084272364
 21
34.0279861244
  0
LINE
  5
267
100
AcDbEntity
  8
0
100
AcDbLine
 62
7
  6
BYLAYER
 10
56.4523302134
 20
33.4914568003
 11
56.4523302134
 21
34.331058208
  0
LINE
  5
268
100
AcDbEntity
  8
0
100
AcDbLine
 62
7
  6
BYLAYER
 10
66.6777966618
 20
81.1580513011
 11
66.4494958404
 21
80.5929869392
  0
LINE
  5
269
100
AcDbEntity
  8
0
100
AcDbLine
 62
7
  6
BYLAYER
 10
42.0246257532
 20
71.4060587237
 11
42.3808790949
 21
71.4060580875
  0
LINE
  5
26A
100
AcDbEntity
  8
0
100
AcDbLine
 62
7
  6
BYLAYER
 10
70.887131486
 20
71.4060578065
 11
70.5308735748
 21
71.4060582479
  0
LINE
  5
26B
100
AcDbEntity
  8
0
100
AcDbLine
 62
7
  6
BYLAYER
 10
42.1558775514
 20
72.2126714969
 11
42.4507346943
 21
72.1573608714
  0
LINE
  5
26C
100
AcDbEntity
  8
0
100
AcDbLine
 62
7
  6
BYLAYER
 10
57.2364789914
 20
33.206058208
 11
57.2364789914
 21
34.331058208
  0
LINE
  5
26D
100
AcDbEntity
  8
0
100
AcDbLine
 62
7
  6
BYLAYER
 10
59.1678675646
 20
34.331058208
 11
59.1678675646
 21
33.206058208
  0
LINE
  5
26E
100
AcDbEntity
  8
0
100
AcDbLine
 62
7
  6
BYLAYER
 10
59.9523302295
 20
33.2696354801
 11
59.9523302295
 21
34.121814141
  0
LINE
  5
26F
100
AcDbEntity
  8
0
100
AcDbLine
 62
7
  6
BYLAYER
 10
61.9558775516
 20
77.406058208
 11
61.9558775516
 21
79.406058208
  0
LINE
  5
270
100
AcDbEntity
  8
0
100
AcDbLine
 62
7
  6
BYLAYER
 10
54.5164024255
 20
34.5569401125
 11
54.4717654587
 21
34.3903526844
  0
LINE
  5
271
100
AcDbEntity
  8
0
100
AcDbLine
 62
7
  6
BYLAYER
 10
47.6765882298
 20
77.8123667438
 11
47.6144561954
 21
77.8030348206
  0
LINE
  5
272
100
AcDbEntity
  8
0
100
AcDbLine
 62
7
  6
BYLAYER
 10
49.4792802963
 20
77.406058208
 11
50.9558775516
 21
77.406058208
  0
LINE
  5
273
100
AcDbEntity
  8
0
100
AcDbLine
 62
7
  6
BYLAYER
 10
61.9558775516
 20
77.406058208
 11
63.432474807
 21
77.406058208
  0
LINE
  5
274
100
AcDbEntity
  8
0
100
AcDbLine
 62
7
  6
BYLAYER
 10
63.432474807
 20
77.506058208
 11
62.0558775516
 21
77.506058208
  0
LINE
  5
275
100
AcDbEntity
  8
0
100
AcDbLine
 62
7
  6
BYLAYER
 10
50.8558775516
 20
77.506058208
 11
49.4792802963
 21
77.506058208
  0
LINE
  5
276
100
AcDbEntity
  8
0
100
AcDbLine
 62
7
  6
BYLAYER
 10
66.7058775516
 20
77.756058208
 11
63.432474807
 21
77.756058208
  0
LINE
  5
277
100
AcDbEntity
  8
0
100
AcDbLine
 62
7
  6
BYLAYER
 10
49.4792802963
 20
77.756058208
 11
46.2058775516
 21
77.756058208
  0
LINE
  5
278
100
AcDbEntity
  8
0
100
AcDbLine
 62
7
  6
BYLAYER
 10
46.4199547762
 20
78.2778953917
 11
49.1983514739
 21
78.2778953917
  0
LINE
  5
279
100
AcDbEntity
  8
0
100
AcDbLine
 62
7
  6
BYLAYER
 10
63.7134036294
 20
78.2778953917
 11
66.491800326
 21
78.2778953917
  0
LINE
  5
27A
100
AcDbEntity
  8
0
100
AcDbLine
 62
7
  6
BYLAYER
 10
66.3118503632
 20
78.306058208
 11
63.7134036294
 21
78.306058208
  0
LINE
  5
27B
100
AcDbEntity
  8
0
100
AcDbLine
 62
7
  6
BYLAYER
 10
49.1983514738
 20
78.306058208
 11
46.5999047408
 21
78.306058208
  0
LINE
  5
27C
100
AcDbEntity
  8
0
100
AcDbLine
 62
7
  6
BYLAYER
 10
62.8645289275
 20
78.631058208
 11
61.9558775516
 21
78.631058208
  0
LINE
  5
27D
100
AcDbEntity
  8
0
100
AcDbLine
 62
7
  6
BYLAYER
 10
50.9558775516
 20
78.631058208
 11
50.0472261758
 21
78.631058208
  0
LINE
  5
27E
100
AcDbEntity
  8
0
100
AcDbLine
 62
7
  6
BYLAYER
 10
70.7558775519
 20
70.599444919
 11
70.461020409
 21
70.6547555445
  0
LINE
  5
27F
100
AcDbEntity
  8
0
100
AcDbLine
 62
7
  6
BYLAYER
 10
62.0558775516
 20
77.5066135609
 11
62.0558775516
 21
78.1166006498
  0
LINE
  5
280
100
AcDbEntity
  8
0
100
AcDbLine
 62
7
  6
BYLAYER
 10
63.3558775516
 20
78.2312846064
 11
63.3558775516
 21
78.906058208
  0
LINE
  5
281
100
AcDbEntity
  8
0
100
AcDbLine
 62
7
  6
BYLAYER
 10
63.432474807
 20
77.406058208
 11
63.432474807
 21
77.756058208
  0
LINE
  5
282
100
AcDbEntity
  8
0
100
AcDbLine
 62
7
  6
BYLAYER
 10
63.7134036294
 20
77.9358838337
 11
63.7134036294
 21
78.306058208
  0
LINE
  5
283
100
AcDbEntity
  8
0
100
AcDbLine
 62
7
  6
BYLAYER
 10
64.4558775516
 20
81.406058208
 11
64.4558775516
 21
80.8893010883
  0
LINE
  5
284
100
AcDbEntity
  8
0
100
AcDbLine
 62
7
  6
BYLAYER
 10
64.4558775516
 20
82.331058208
 11
64.4397365344
 21
81.4063399505
  0
LINE
  5
285
100
AcDbEntity
  8
0
100
AcDbLine
 62
7
  6
BYLAYER
 10
49.5558775516
 20
78.860997702
 11
49.6324556224
 21
78.860997702
  0
LINE
  5
286
100
AcDbEntity
  8
0
100
AcDbLine
 62
7
  6
BYLAYER
 10
63.2792994808
 20
78.8609977019
 11
63.3558775516
 21
78.8609977019
  0
LINE
  5
287
100
AcDbEntity
  8
0
100
AcDbLine
 62
7
  6
BYLAYER
 10
66.7058775516
 20
78.906058208
 11
66.3594309418
 21
78.906058208
  0
LINE
  5
288
100
AcDbEntity
  8
0
100
AcDbLine
 62
7
  6
BYLAYER
 10
46.5523241755
 20
78.906058208
 11
46.2058775516
 21
78.906058208
  0
LINE
  5
289
100
AcDbEntity
  8
0
100
AcDbLine
 62
7
  6
BYLAYER
 10
46.5999047401
 20
78.906058208
 11
50.9558775516
 21
78.906058208
  0
LINE
  5
28A
100
AcDbEntity
  8
0
100
AcDbLine
 62
7
  6
BYLAYER
 10
61.9558775516
 20
78.906058208
 11
66.3118503625
 21
78.906058208
  0
LINE
  5
28B
100
AcDbEntity
  8
0
100
AcDbLine
 62
7
  6
BYLAYER
 10
46.2058775516
 20
79.406058208
 11
50.9558775516
 21
79.406058208
  0
LINE
  5
28C
100
AcDbEntity
  8
0
100
AcDbLine
 62
7
  6
BYLAYER
 10
61.9558775516
 20
79.406058208
 11
66.7058775516
 21
79.406058208
  0
LINE
  5
28D
100
AcDbEntity
  8
0
100
AcDbLine
 62
7
  6
BYLAYER
 10
65.2972989079
 20
77.8030348206
 11
65.2351668735
 21
77.8123667438
  0
LINE
  5
28E
100
AcDbEntity
  8
0
100
AcDbLine
 62
7
  6
BYLAYER
 10
65.2353634334
 20
77.81239872
 11
65.235147751
 21
78.1374025213
  0
LINE
  5
28F
100
AcDbEntity
  8
0
100
AcDbLine
 62
7
  6
BYLAYER
 10
65.2058775516
 20
78.1202374731
 11
65.2058775516
 21
77.8231617653
  0
LINE
  5
290
100
AcDbEntity
  8
0
100
AcDbLine
 62
7
  6
BYLAYER
 10
65.2972989079
 20
77.8030371842
 11
65.2972989079
 21
78.153723615
  0
LINE
  5
291
100
AcDbEntity
  8
0
100
AcDbLine
 62
7
  6
BYLAYER
 10
65.3558775516
 20
78.1610670123
 11
65.3558775516
 21
77.767931759
  0
LINE
  5
292
100
AcDbEntity
  8
0
100
AcDbLine
 62
7
  6
BYLAYER
 10
65.5058775516
 20
78.3060582083
 11
65.5058775516
 21
78.906058208
  0
LINE
  5
293
100
AcDbEntity
  8
0
100
AcDbLine
 62
7
  6
BYLAYER
 10
66.3118503628
 20
78.906058208
 11
66.3118503632
 21
78.3060582114
  0
LINE
  5
294
100
AcDbEntity
  8
0
100
AcDbLine
 62
7
  6
BYLAYER
 10
66.3594309395
 20
78.3052602949
 11
66.3594309395
 21
78.9047815492
  0
LINE
  5
295
100
AcDbEntity
  8
0
100
AcDbLine
 62
7
  6
BYLAYER
 10
66.491800326
 20
78.2778952587
 11
66.491800326
 21
78.8609977019
  0
LINE
  5
296
100
AcDbEntity
  8
0
100
AcDbLine
 62
7
  6
BYLAYER
 10
66.5058775516
 20
78.8336800468
 11
66.5058775516
 21
78.0368735142
  0
LINE
  5
297
100
AcDbEntity
  8
0
100
AcDbLine
 62
7
  6
BYLAYER
 10
66.7058775516
 20
79.406058208
 11
66.7058775516
 21
77.756058208
  0
LINE
  5
298
100
AcDbEntity
  8
0
100
AcDbLine
 62
7
  6
BYLAYER
 10
70.8238648734
 20
79.7465314072
 11
70.7558775516
 21
79.4543367391
  0
LINE
  5
299
100
AcDbEntity
  8
0
100
AcDbLine
 62
7
  6
BYLAYER
 10
48.4558775516
 20
81.406058208
 11
64.4558775516
 21
81.406058208
  0
LINE
  5
29A
100
AcDbEntity
  8
0
100
AcDbLine
 62
7
  6
BYLAYER
 10
48.4558775516
 20
82.331058208
 11
64.4558775516
 21
82.331058208
  0
LINE
  5
29B
100
AcDbEntity
  8
0
100
AcDbLine
 62
7
  6
BYLAYER
 10
70.2558777918
 20
31.7060740584
 11
70.2558777918
 21
31.406058208
  0
LINE
  5
29C
100
AcDbEntity
  8
0
100
AcDbLine
 62
7
  6
BYLAYER
 10
70.6558775516
 20
31.4777130605
 11
70.6558775516
 21
31.4202886925
  0
LINE
  5
29D
100
AcDbEntity
  8
0
100
AcDbLine
 62
7
  6
BYLAYER
 10
70.7558775521
 20
70.5994449207
 11
70.7558774924
 21
31.9260690349
  0
LINE
  5
29E
100
AcDbEntity
  8
0
100
AcDbLine
 62
7
  6
BYLAYER
 10
70.7558775864
 20
79.4543367291
 11
70.7558779675
 21
72.2126695748
  0
LINE
  5
29F
100
AcDbEntity
  8
0
100
AcDbLine
 62
7
  6
BYLAYER
 10
71.4558775516
 20
32.2202886931
 11
71.4558775516
 21
79.2019402795
  0
LINE
  5
2A0
100
AcDbEntity
  8
0
100
AcDbLine
 62
7
  6
BYLAYER
 10
63.7134036294
 20
78.2778953917
 11
63.3558775516
 21
78.5694465468
  0
LINE
  5
2A1
100
AcDbEntity
  8
0
100
AcDbLine
 62
7
  6
BYLAYER
 10
63.7134036294
 20
77.9359641183
 11
63.3558775516
 21
78.2312849333
  0
LINE
  5
2A2
100
AcDbEntity
  8
0
100
AcDbLine
 62
7
  6
BYLAYER
 10
63.3558775516
 20
78.606058208
 11
63.7134036294
 21
78.306058208
  0
LINE
  5
2A3
100
AcDbEntity
  8
0
100
AcDbLine
 62
7
  6
BYLAYER
 10
71.4558775516
 20
32.6060582053
 11
71.4311879673
 21
32.3638900292
  0
LINE
  5
2A4
100
AcDbEntity
  8
0
100
AcDbLine
 62
7
  6
BYLAYER
 10
67.0435921099
 20
80.4979459461
 11
66.5268287324
 21
80.7843925637
  0
LINE
  5
2A5
100
AcDbEntity
  8
0
100
AcDbLine
 62
7
  6
BYLAYER
 10
68.3299344494
 20
80.2422563712
 11
66.6777966618
 21
81.1580513011
  0
ARC
  5
2A6
100
AcDbEntity
  8
0
100
AcDbCircle
 62
7
  6
BYLAYER
 10
46.1918418911
 20
-105.2629376386
 40
186.3434006135
100
AcDbArc
 50
82.2915317715
 51
82.4251470587
  0
ARC
  5
2A7
100
AcDbEntity
  8
0
100
AcDbCircle
 62
7
  6
BYLAYER
 10
36.9048021418
 20
160.7983977308
 40
83.3051038527
100
AcDbArc
 50
276.5489223836
 51
277.2417198141
  0
ARC
  5
2A8
100
AcDbEntity
  8
0
100
AcDbCircle
 62
7
  6
BYLAYER
 10
17.8310193086
 20
45.1719652598
 40
36.8032354701
100
AcDbArc
 50
341.9497748007
 51
342.1457478085
  0
ARC
  5
2A9
100
AcDbEntity
  8
0
100
AcDbCircle
 62
7
  6
BYLAYER
 10
46.4558775516
 20
36.4202886925
 40
5.0
100
AcDbArc
 50
262.382102696
 51
270.0
  0
ARC
  5
2AA
100
AcDbEntity
  8
0
100
AcDbCircle
 62
7
  6
BYLAYER
 10
46.4558775516
 20
36.406058208
 40
5.0
100
AcDbArc
 50
180.0000016543
 51
269.999999924
  0
ARC
  5
2AB
100
AcDbEntity
  8
0
100
AcDbCircle
 62
7
  6
BYLAYER
 10
46.6545053969
 20
36.0279689863
 40
4.5329510714
100
AcDbArc
 50
187.0599520573
 51
205.2840618786
  0
ARC
  5
2AC
100
AcDbEntity
  8
0
100
AcDbCircle
 62
7
  6
BYLAYER
 10
46.4558775516
 20
71.406058208
 40
4.375
100
AcDbArc
 50
190.6243432207
 51
169.3756648157
  0
CIRCLE
  5
2AD
100
AcDbEntity
  8
0
100
AcDbCircle
 62
7
  6
BYLAYER
 10
46.4558775516
 20
71.406058208
 40
4.075
  0
CIRCLE
  5
2AE
100
AcDbEntity
  8
0
100
AcDbCircle
 62
7
  6
BYLAYER
 10
46.4558775516
 20
71.406058208
 40
2.125
  0
ARC
  5
2AF
100
AcDbEntity
  8
0
100
AcDbCircle
 62
7
  6
BYLAYER
 10
27.7614428102
 20
32.831058208
 40
2.0
100
AcDbArc
 50
203.728391076
 51
270.0
  0
ARC
  5
2B0
100
AcDbEntity
  8
0
100
AcDbCircle
 62
7
  6
BYLAYER
 10
27.7614428102
 20
42.831058208
 40
2.0
100
AcDbArc
 50
90.0
 51
156.271608924
  0
ARC
  5
2B1
100
AcDbEntity
  8
0
100
AcDbCircle
 62
7
  6
BYLAYER
 10
46.5999160486
 20
76.8863487818
 40
1.4197094391
100
AcDbArc
 50
90.0004563209
 51
91.9210446761
  0
ARC
  5
2B2
100
AcDbEntity
  8
0
100
AcDbCircle
 62
7
  6
BYLAYER
 10
24.8030949224
 20
43.556058208
 40
1.0
100
AcDbArc
 50
270.0
 51
336.271608924
  0
ARC
  5
2B3
100
AcDbEntity
  8
0
100
AcDbCircle
 62
7
  6
BYLAYER
 10
24.8030949224
 20
32.106058208
 40
1.0
100
AcDbArc
 50
23.728391076
 51
90.0
  0
ARC
  5
2B4
100
AcDbEntity
  8
0
100
AcDbCircle
 62
7
  6
BYLAYER
 10
46.5999293627
 20
78.0178546465
 40
0.8882035899
100
AcDbArc
 50
90.0015883428
 51
93.0723629547
  0
ARC
  5
2B5
100
AcDbEntity
  8
0
100
AcDbCircle
 62
7
  6
BYLAYER
 10
41.9558775516
 20
79.2019402783
 40
0.5
100
AcDbArc
 50
103.3279778939
 51
179.9999986255
  0
ARC
  5
2B6
100
AcDbEntity
  8
0
100
AcDbCircle
 62
7
  6
BYLAYER
 10
40.7558775516
 20
34.1702886925
 40
0.2
100
AcDbArc
 50
180.0
 51
270.0
  0
ARC
  5
2B7
100
AcDbEntity
  8
0
100
AcDbCircle
 62
7
  6
BYLAYER
 10
66.9380154021
 20
-106.8918393637
 40
187.9868481435
100
AcDbArc
 50
97.575302434
 51
97.7077448866
  0
ARC
  5
2B8
100
AcDbEntity
  8
0
100
AcDbCircle
 62
7
  6
BYLAYER
 10
56.4558775516
 20
17.996058208
 40
63.4
100
AcDbArc
 50
76.6720382812
 51
88.0383176703
  0
ARC
  5
2B9
100
AcDbEntity
  8
0
100
AcDbCircle
 62
7
  6
BYLAYER
 10
56.4558775516
 20
17.996058208
 40
63.4
100
AcDbArc
 50
91.9616823297
 51
103.3279617186
  0
ARC
  5
2BA
100
AcDbEntity
  8
0
100
AcDbCircle
 62
7
  6
BYLAYER
 10
56.4558775516
 20
17.996058208
 40
63.1
100
AcDbArc
 50
76.9015825019
 51
103.0984169716
  0
ARC
  5
2BB
100
AcDbEntity
  8
0
100
AcDbCircle
 62
7
  6
BYLAYER
 10
55.28181004
 20
8.7191573604
 40
25.1697222465
100
AcDbArc
 50
95.6061005077
 51
96.7361535188
  0
ARC
  5
2BC
100
AcDbEntity
  8
0
100
AcDbCircle
 62
7
  6
BYLAYER
 10
55.1799774171
 20
9.7578828055
 40
24.2816002372
100
AcDbArc
 50
95.5735148906
 51
96.9007109553
  0
ARC
  5
2BD
100
AcDbEntity
  8
0
100
AcDbCircle
 62
7
  6
BYLAYER
 10
54.1006787321
 20
10.3741710206
 40
23.5880355719
100
AcDbArc
 50
93.4730476875
 51
94.4745237786
  0
ARC
  5
2BE
100
AcDbEntity
  8
0
100
AcDbCircle
 62
7
  6
BYLAYER
 10
53.5961850633
 20
18.4860575297
 40
15.4604704735
100
AcDbArc
 50
92.9105479077
 51
93.427865254
  0
ARC
  5
2BF
100
AcDbEntity
  8
0
100
AcDbCircle
 62
7
  6
BYLAYER
 10
58.692167086
 20
73.5809337569
 40
7.7872321125
100
AcDbArc
 50
95.1223946346
 51
95.4642964595
  0
ARC
  5
2C0
100
AcDbEntity
  8
0
100
AcDbCircle
 62
7
  6
BYLAYER
 10
54.2598511523
 20
74.0192233635
 40
7.34705112
100
AcDbArc
 50
84.5289756919
 51
85.6861190319
  0
ARC
  5
2C1
100
AcDbEntity
  8
0
100
AcDbCircle
 62
7
  6
BYLAYER
 10
58.6321065891
 20
74.2633193228
 40
7.1022094965
100
AcDbArc
 50
94.3026266441
 51
95.1313107302
  0
ARC
  5
2C2
100
AcDbEntity
  8
0
100
AcDbCircle
 62
7
  6
BYLAYER
 10
53.2558775516
 20
34.106058208
 40
0.9
100
AcDbArc
 50
142.8087825239
 51
161.7280057957
  0
ARC
  5
2C3
100
AcDbEntity
  8
0
100
AcDbCircle
 62
7
  6
BYLAYER
 10
59.6558775516
 20
34.106058208
 40
0.9
100
AcDbArc
 50
269.9997598029
 51
89.9999490469
  0
ARC
  5
2C4
100
AcDbEntity
  8
0
100
AcDbCircle
 62
7
  6
BYLAYER
 10
53.1058775516
 20
34.106058208
 40
0.9
100
AcDbArc
 50
90.0
 51
270.0000339733
  0
ARC
  5
2C5
100
AcDbEntity
  8
0
100
AcDbCircle
 62
7
  6
BYLAYER
 10
62.8645289201
 20
79.131058208
 40
0.5
100
AcDbArc
 50
270.0000008437
 51
332.9494498689
  0
ARC
  5
2C6
100
AcDbEntity
  8
0
100
AcDbCircle
 62
7
  6
BYLAYER
 10
50.0472261832
 20
79.131058208
 40
0.5
100
AcDbArc
 50
207.0505501311
 51
269.9999991563
  0
ARC
  5
2C7
100
AcDbEntity
  8
0
100
AcDbCircle
 62
7
  6
BYLAYER
 10
56.4569709373
 20
33.0555740758
 40
0.4416930957
100
AcDbArc
 50
19.919678496
 51
32.4349413799
  0
ARC
  5
2C8
100
AcDbEntity
  8
0
100
AcDbCircle
 62
7
  6
BYLAYER
 10
56.454779829
 20
33.0555756756
 40
0.4416884696
100
AcDbArc
 50
147.567548097
 51
160.0803208164
  0
ARC
  5
2C9
100
AcDbEntity
  8
0
100
AcDbCircle
 62
7
  6
BYLAYER
 10
52.4563342806
 20
34.0191870998
 40
0.4260876046
100
AcDbArc
 50
342.0982681303
 51
347.8784882843
  0
ARC
  5
2CA
100
AcDbEntity
  8
0
100
AcDbCircle
 62
7
  6
BYLAYER
 10
56.4558775516
 20
33.006079513
 40
0.2999860996
100
AcDbArc
 50
41.8072258705
 51
138.1929131815
  0
ARC
  5
2CB
100
AcDbEntity
  8
0
100
AcDbCircle
 62
7
  6
BYLAYER
 10
58.2987600951
 20
34.531058208
 40
0.1
100
AcDbArc
 50
15.0
 51
90.0
  0
ARC
  5
2CC
100
AcDbEntity
  8
0
100
AcDbCircle
 62
7
  6
BYLAYER
 10
54.6129950082
 20
34.531058208
 40
0.1
100
AcDbArc
 50
90.0
 51
165.0
  0
ARC
  5
2CD
100
AcDbEntity
  8
0
100
AcDbCircle
 62
7
  6
BYLAYER
 10
58.5172637107
 20
34.411058208
 40
0.08
100
AcDbArc
 50
195.0
 51
270.0
  0
ARC
  5
2CE
100
AcDbEntity
  8
0
100
AcDbCircle
 62
7
  6
BYLAYER
 10
54.3944913926
 20
34.411058208
 40
0.08
100
AcDbArc
 50
270.0
 51
345.0
  0
ARC
  5
2CF
100
AcDbEntity
  8
0
100
AcDbCircle
 62
7
  6
BYLAYER
 10
66.4558775516
 20
71.406058208
 40
4.375
100
AcDbArc
 50
10.6243057387
 51
349.3756685377
  0
CIRCLE
  5
2D0
100
AcDbEntity
  8
0
100
AcDbCircle
 62
7
  6
BYLAYER
 10
66.4558775516
 20
71.406058208
 40
4.075
  0
CIRCLE
  5
2D1
100
AcDbEntity
  8
0
100
AcDbCircle
 62
7
  6
BYLAYER
 10
66.4558775516
 20
71.406058208
 40
2.125
  0
ARC
  5
2D2
100
AcDbEntity
  8
0
100
AcDbCircle
 62
7
  6
BYLAYER
 10
66.3118385482
 20
76.8863184971
 40
1.419739691
100
AcDbArc
 50
88.0789764143
 51
89.9995231873
  0
ARC
  5
2D3
100
AcDbEntity
  8
0
100
AcDbCircle
 62
7
  6
BYLAYER
 10
70.2862203848
 20
33.3441810891
 40
1.4104461569
100
AcDbArc
 50
317.5002906948
 51
319.1409281823
  0
ARC
  5
2D4
100
AcDbEntity
  8
0
100
AcDbCircle
 62
7
  6
BYLAYER
 10
70.2558775516
 20
32.606058208
 40
1.2
100
AcDbArc
 50
270.0000063667
 51
348.3573633839
  0
ARC
  5
2D5
100
AcDbEntity
  8
0
100
AcDbCircle
 62
7
  6
BYLAYER
 10
70.6558775516
 20
32.2202886925
 40
0.8
100
AcDbArc
 50
270.0
 51
360.0
  0
ARC
  5
2D6
100
AcDbEntity
  8
0
100
AcDbCircle
 62
7
  6
BYLAYER
 10
70.9558775516
 20
79.2019402783
 40
0.5
100
AcDbArc
 50
0.0000001443
 51
76.6720220839
  0
ARC
  5
2D7
100
AcDbEntity
  8
0
100
AcDbCircle
 62
7
  6
BYLAYER
 10
75.9075581794
 20
159.976285479
 40
82.4770680053
100
AcDbArc
 50
262.7547901403
 51
263.4545430989
  0
SPLINE
  5
2D8
100
AcDbEntity
  8
0
100
AcDbSpline
 62
7
  6
BYLAYER
 70
0
 71
3
 72
13
 73
9
 74
0
 42
0.0000001
 43
0.0000001
 44
0.0000000001
 40
0.0
 40
0.0
 40
0.0
 40
0.0
 40
0.4213216546
 40
0.72687813
 40
0.8364355268
 40
0.9174946563
 40
0.9708776159
 40
1.0
 40
1.0
 40
1.0
 40
1.0
 10
50.8948512206
 20
77.5236202524
 30
0.0
 10
50.8891509069
 20
77.5218606753
 30
0.0
 10
50.8793503287
 20
77.518733809
 30
0.0
 10
50.8681767899
 20
77.5147427565
 30
0.0
 10
50.861724906
 20
77.5120052204
 30
0.0
 10
50.8586147456
 20
77.5104121164
 30
0.0
 10
50.8567239132
 20
77.5091965697
 30
0.0
 10
50.8558775516
 20
77.5081869079
 30
0.0
 10
50.8558775516
 20
77.5077745491
 30
0.0
  0
SPLINE
  5
2D9
100
AcDbEntity
  8
0
100
AcDbSpline
 62
7
  6
BYLAYER
 70
0
 71
3
 72
19
 73
15
 74
0
 42
0.0000001
 43
0.0000001
 44
0.0000000001
 40
0.0
 40
0.0
 40
0.0
 40
0.0
 40
0.1560890268
 40
0.3234610459
 40
0.4904877368
 40
0.6462798616
 40
0.7166920574
 40
0.7806748822
 40
0.8373041621
 40
0.885865992
 40
0.9259780823
 40
0.9575749207
 40
0.9814392914
 40
1.0
 40
1.0
 40
1.0
 40
1.0
 10
47.4058775516
 20
78.1578039535
 30
0.0
 10
47.4219547741
 20
78.1598466908
 30
0.0
 10
47.455441114
 20
78.1627777674
 30
0.0
 10
47.506373593
 20
78.1642000614
 30
0.0
 10
47.5572743955
 20
78.1627189762
 30
0.0
 10
47.5979773277
 20
78.1591065501
 30
0.0
 10
47.6277943693
 20
78.1547241229
 30
0.0
 10
47.6472801701
 20
78.1509868267
 30
0.0
 10
47.6643433678
 20
78.1467718971
 30
0.0
 10
47.6787185135
 20
78.1421487582
 30
0.0
 10
47.6902273936
 20
78.1372257763
 30
0.0
 10
47.698724269
 20
78.1320159101
 30
0.0
 10
47.7043005151
 20
78.1265576669
 30
0.0
 10
47.7058775516
 20
78.122164602
 30
0.0
 10
47.7058775516
 20
78.1202374731
 30
0.0
  0
SPLINE
  5
2DA
100
AcDbEntity
  8
0
100
AcDbSpline
 62
7
  6
BYLAYER
 70
0
 71
3
 72
11
 73
7
 74
0
 42
0.0000001
 43
0.0000001
 44
0.0000000001
 40
0.0
 40
0.0
 40
0.0
 40
0.0
 40
0.1849969952
 40
0.4036047558
 40
0.6715536392
 40
1.0
 40
1.0
 40
1.0
 40
1.0
 10
46.4199547773
 20
78.860997702
 30
0.0
 10
46.4253219237
 20
78.8680061093
 30
0.0
 10
46.4403044472
 20
78.8808575272
 30
0.0
 10
46.4700732707
 20
78.89348208
 30
0.0
 10
46.5082740905
 20
78.9015162524
 30
0.0
 10
46.5366740622
 20
78.9039460422
 30
0.0
 10
46.5523241755
 20
78.9047815396
 30
0.0
  0
SPLINE
  5
2DB
100
AcDbEntity
  8
0
100
AcDbSpline
 62
7
  6
BYLAYER
 70
0
 71
3
 72
20
 73
16
 74
0
 42
0.0000001
 43
0.0000001
 44
0.0000000001
 40
0.0
 40
0.0
 40
0.0
 40
0.0
 40
0.0318443955
 40
0.0635734532
 40
0.0968555028
 40
0.1331297311
 40
0.1735199851
 40
0.2188333736
 40
0.2696237124
 40
0.3262400831
 40
0.3888876407
 40
0.4576849074
 40
0.6139622365
 40
0.7952319725
 40
1.0
 40
1.0
 40
1.0
 40
1.0
 10
49.5558775516
 20
78.5265844398
 30
0.0
 10
49.5558777624
 20
78.5112060307
 30
0.0
 10
49.5593258828
 20
78.4803605307
 30
0.0
 10
49.5757062941
 20
78.4360906489
 30
0.0
 10
49.6028934963
 20
78.3949719667
 30
0.0
 10
49.6404992573
 20
78.3570958793
 30
0.0
 10
49.6882821574
 20
78.322313039
 30
0.0
 10
49.7461525676
 20
78.2904710102
 30
0.0
 10
49.8140736525
 20
78.2614855719
 30
0.0
 10
49.8919694975
 20
78.2352681953
 30
0.0
 10
49.9797371813
 20
78.2117376176
 30
0.0
 10
50.1156548356
 20
78.1826501377
 30
0.0
 10
50.309961359
 20
78.1539377538
 30
0.0
 10
50.5708487257
 20
78.1301389806
 30
0.0
 10
50.7570651733
 20
78.1204474441
 30
0.0
 10
50.8558775516
 20
78.1165986398
 30
0.0
  0
SPLINE
  5
2DC
100
AcDbEntity
  8
0
100
AcDbSpline
 62
7
  6
BYLAYER
 70
0
 71
3
 72
9
 73
5
 74
0
 42
0.0000001
 43
0.0000001
 44
0.0000000001
 40
0.0
 40
0.0
 40
0.0
 40
0.0
 40
0.4511520368
 40
1.0
 40
1.0
 40
1.0
 40
1.0
 10
46.4058775516
 20
78.8336800093
 30
0.0
 10
46.4058890401
 20
78.8383965177
 30
0.0
 10
46.4089536795
 20
78.8488796636
 30
0.0
 10
46.4158304735
 20
78.8570085516
 30
0.0
 10
46.4199547773
 20
78.860997702
 30
0.0
  0
SPLINE
  5
2DD
100
AcDbEntity
  8
0
100
AcDbSpline
 62
7
  6
BYLAYER
 70
0
 71
3
 72
9
 73
5
 74
0
 42
0.0000001
 43
0.0000001
 44
0.0000000001
 40
0.0
 40
0.0
 40
0.0
 40
0.0
 40
0.5485721639
 40
1.0
 40
1.0
 40
1.0
 40
1.0
 10
66.491800325
 20
78.8610101745
 30
0.0
 10
66.4959268747
 20
78.8570267618
 30
0.0
 10
66.502809836
 20
78.8488993348
 30
0.0
 10
66.5058678358
 20
78.8384123468
 30
0.0
 10
66.5058775516
 20
78.8336925302
 30
0.0
  0
SPLINE
  5
2DE
100
AcDbEntity
  8
0
100
AcDbSpline
 62
7
  6
BYLAYER
 70
0
 71
3
 72
20
 73
16
 74
0
 42
0.0000001
 43
0.0000001
 44
0.0000000001
 40
0.0
 40
0.0
 40
0.0
 40
0.0
 40
0.2049878872
 40
0.385983933
 40
0.5422925807
 40
0.6111260413
 40
0.6737877888
 40
0.7304031867
 40
0.7811852119
 40
0.8264897677
 40
0.8668732736
 40
0.903144532
 40
0.9364265388
 40
0.9681559208
 40
1.0
 40
1.0
 40
1.0
 40
1.0
 10
62.0558775516
 20
78.116600564
 30
0.0
 10
62.1547973163
 20
78.1204269258
 30
0.0
 10
62.3409908326
 20
78.1300968773
 30
0.0
 10
62.6018603759
 20
78.1539744735
 30
0.0
 10
62.7960694083
 20
78.1826591234
 30
0.0
 10
62.9320302872
 20
78.2117355387
 30
0.0
 10
63.0198231501
 20
78.2352657117
 30
0.0
 10
63.0977219001
 20
78.2614830784
 30
0.0
 10
63.16563301
 20
78.2904703826
 30
0.0
 10
63.2234902532
 20
78.3223127759
 30
0.0
 10
63.2712618644
 20
78.3570962509
 30
0.0
 10
63.308859611
 20
78.3949735763
 30
0.0
 10
63.3360449954
 20
78.4360916065
 30
0.0
 10
63.3524277937
 20
78.4803605589
 30
0.0
 10
63.3558773409
 20
78.5112061434
 30
0.0
 10
63.3558775516
 20
78.5265844401
 30
0.0
  0
SPLINE
  5
2DF
100
AcDbEntity
  8
0
100
AcDbSpline
 62
7
  6
BYLAYER
 70
0
 71
3
 72
13
 73
9
 74
0
 42
0.0000001
 43
0.0000001
 44
0.0000000001
 40
0.0
 40
0.0
 40
0.0
 40
0.0
 40
0.0291384042
 40
0.0823365716
 40
0.1631207734
 40
0.272408921
 40
0.5777941366
 40
1.0
 40
1.0
 40
1.0
 40
1.0
 10
62.0558775516
 20
77.5077745477
 30
0.0
 10
62.0558775516
 20
77.5081877221
 30
0.0
 10
62.055039255
 20
77.5092006917
 30
0.0
 10
62.0531511592
 20
77.5104195659
 30
0.0
 10
62.0500486788
 20
77.5120133467
 30
0.0
 10
62.0435972536
 20
77.5147535056
 30
0.0
 10
62.0324014224
 20
77.5187501116
 30
0.0
 10
62.0225759173
 20
77.5218808751
 30
0.0
 10
62.0168548352
 20
77.5236445428
 30
0.0
  0
SPLINE
  5
2E0
100
AcDbEntity
  8
0
100
AcDbSpline
 62
7
  6
BYLAYER
 70
0
 71
3
 72
19
 73
15
 74
0
 42
0.0000001
 43
0.0000001
 44
0.0000000001
 40
0.0
 40
0.0
 40
0.0
 40
0.0
 40
0.0185605383
 40
0.0424217968
 40
0.0740242876
 40
0.1141651138
 40
0.1627589946
 40
0.2193965903
 40
0.2833715758
 40
0.3537702525
 40
0.509570651
 40
0.6765914687
 40
0.8439254904
 40
1.0
 40
1.0
 40
1.0
 40
1.0
 10
65.2058775516
 20
78.1202374731
 30
0.0
 10
65.2058775516
 20
78.1221645982
 30
0.0
 10
65.2074519156
 20
78.1265578209
 30
0.0
 10
65.213026429
 20
78.1320189379
 30
0.0
 10
65.2215265817
 20
78.1372302742
 30
0.0
 10
65.2330442278
 20
78.1421508111
 30
0.0
 10
65.2474274668
 20
78.1467720803
 30
0.0
 10
65.2644939616
 20
78.1509880532
 30
0.0
 10
65.283978268
 20
78.1547266444
 30
0.0
 10
65.3137938066
 20
78.1591117461
 30
0.0
 10
65.3544964684
 20
78.1627187847
 30
0.0
 10
65.4053937676
 20
78.1641997846
 30
0.0
 10
65.456320659
 20
78.1627786741
 30
0.0
 10
65.4898016624
 20
78.1598465192
 30
0.0
 10
65.5058775055
 20
78.1578039574
 30
0.0
  0
SPLINE
  5
2E1
100
AcDbEntity
  8
0
100
AcDbSpline
 62
7
  6
BYLAYER
 70
0
 71
3
 72
11
 73
7
 74
0
 42
0.0000001
 43
0.0000001
 44
0.0000000001
 40
0.0
 40
0.0
 40
0.0
 40
0.0
 40
0.3283475089
 40
0.5964541685
 40
0.8149923776
 40
1.0
 40
1.0
 40
1.0
 40
1.0
 10
66.3594309418
 20
78.9047815388
 30
0.0
 10
66.3750761091
 20
78.9039420772
 30
0.0
 10
66.4034777176
 20
78.9015109675
 30
0.0
 10
66.4416821204
 20
78.8934896344
 30
0.0
 10
66.4714505132
 20
78.880853021
 30
0.0
 10
66.4864328626
 20
78.8680064971
 30
0.0
 10
66.4918003271
 20
78.860997702
 30
0.0
  0
LINE
  5
2E2
100
AcDbEntity
  8
0
100
AcDbLine
 62
7
  6
BYLAYER
 10
66.3118503623
 20
78.9060582515
 11
66.3594309418
 21
78.9047815822
  0
SPLINE
  5
2E3
100
AcDbEntity
  8
0
100
AcDbSpline
 62
7
  6
BYLAYER
 70
0
 71
3
 72
14
 73
10
 74
0
 42
0.0000001
 43
0.0000001
 44
0.0000000001
 40
0.0
 40
0.0
 40
0.0
 40
0.0
 40
0.0316228441
 40
0.0876599933
 40
0.1705388305
 40
0.280894636
 40
0.4189557278
 40
0.584812587
 40
1.0
 40
1.0
 40
1.0
 40
1.0
 10
50.8558976452
 20
78.1079087161
 30
0.0
 10
50.8559974359
 20
78.1083456816
 30
0.0
 10
50.8569639881
 20
78.1092863607
 30
0.0
 10
50.8589792898
 20
78.11052627
 30
0.0
 10
50.8621890664
 20
78.1120745324
 30
0.0
 10
50.8665233336
 20
78.113855969
 30
0.0
 10
50.8720348136
 20
78.1158956006
 30
0.0
 10
50.8816783499
 20
78.1191914614
 30
0.0
 10
50.8895452271
 20
78.1216363672
 30
0.0
 10
50.8951794561
 20
78.1233352125
 30
0.0
  0
SPLINE
  5
2E4
100
AcDbEntity
  8
0
100
AcDbSpline
 62
7
  6
BYLAYER
 70
0
 71
3
 72
11
 73
7
 74
0
 42
0.0000001
 43
0.0000001
 44
0.0000000001
 40
0.0
 40
0.0
 40
0.0
 40
0.0
 40
0.317990236
 40
0.5940409247
 40
0.8211136916
 40
1.0
 40
1.0
 40
1.0
 40
1.0
 10
46.5523241611
 20
78.3052602897
 30
0.0
 10
46.5378277326
 20
78.3047626621
 30
0.0
 10
46.510762258
 20
78.3033486761
 30
0.0
 10
46.4735070834
 20
78.2988172141
 30
0.0
 10
46.4432553537
 20
78.2913672064
 30
0.0
 10
46.4262765045
 20
78.28305468
 30
0.0
 10
46.4199547762
 20
78.2778953917
 30
0.0
  0
SPLINE
  5
2E5
100
AcDbEntity
  8
0
100
AcDbSpline
 62
7
  6
BYLAYER
 70
0
 71
3
 72
9
 73
5
 74
0
 42
0.0000001
 43
0.0000001
 44
0.0000000001
 40
0.0
 40
0.0
 40
0.0
 40
0.0
 40
0.5467977053
 40
1.0
 40
1.0
 40
1.0
 40
1.0
 10
46.4199547739
 20
78.2778746672
 30
0.0
 10
46.4158147586
 20
78.2737906963
 30
0.0
 10
46.4089153831
 20
78.2654386751
 30
0.0
 10
46.4058873765
 20
78.2547654852
 30
0.0
 10
46.4058775517
 20
78.2499455415
 30
0.0
  0
SPLINE
  5
2E6
100
AcDbEntity
  8
0
100
AcDbSpline
 62
7
  6
BYLAYER
 70
0
 71
3
 72
11
 73
7
 74
0
 42
0.0000001
 43
0.0000001
 44
0.0000000001
 40
0.0
 40
0.0
 40
0.0
 40
0.0
 40
0.1788673852
 40
0.4061433464
 40
0.6815184873
 40
1.0
 40
1.0
 40
1.0
 40
1.0
 10
66.491800326
 20
78.2778953917
 30
0.0
 10
66.4854792569
 20
78.2830541441
 30
0.0
 10
66.4684945306
 20
78.2913753835
 30
0.0
 10
66.4382591725
 20
78.2987992783
 30
0.0
 10
66.4010089668
 20
78.303364539
 30
0.0
 10
66.3739501671
 20
78.3047733852
 30
0.0
 10
66.3594309286
 20
78.3052602903
 30
0.0
  0
SPLINE
  5
2E7
100
AcDbEntity
  8
0
100
AcDbSpline
 62
7
  6
BYLAYER
 70
0
 71
3
 72
14
 73
10
 74
0
 42
0.0000001
 43
0.0000001
 44
0.0000000001
 40
0.0
 40
0.0
 40
0.0
 40
0.0
 40
0.3191948808
 40
0.461975696
 40
0.5932000668
 40
0.7126694062
 40
0.8202589237
 40
0.9159596609
 40
1.0
 40
1.0
 40
1.0
 40
1.0
 10
50.8558726731
 20
77.506582998
 30
0.0
 10
50.7078471045
 20
77.5077476468
 30
0.0
 10
50.4935817574
 20
77.5121599794
 30
0.0
 10
50.2188601502
 20
77.5271048299
 30
0.0
 10
50.0369659624
 20
77.5420609418
 30
0.0
 10
49.8719036811
 20
77.5614654741
 30
0.0
 10
49.7241111344
 20
77.585612643
 30
0.0
 10
49.5940101684
 20
77.6148205919
 30
0.0
 10
49.5142140802
 20
77.6394022781
 30
0.0
 10
49.4776521402
 20
77.6529021571
 30
0.0
  0
SPLINE
  5
2E8
100
AcDbEntity
  8
0
100
AcDbSpline
 62
7
  6
BYLAYER
 70
0
 71
3
 72
11
 73
7
 74
0
 42
0.0000001
 43
0.0000001
 44
0.0000000001
 40
0.0
 40
0.0
 40
0.0
 40
0.0
 40
0.278141525
 40
0.5285039128
 40
0.7639154929
 40
1.0
 40
1.0
 40
1.0
 40
1.0
 10
49.311171075
 20
77.7383748616
 30
0.0
 10
49.293577986
 20
77.7513889622
 30
0.0
 10
49.261907029
 20
77.7787424449
 30
0.0
 10
49.2251923755
 20
77.8269949567
 30
0.0
 10
49.2029575161
 20
77.8799667008
 30
0.0
 10
49.198324427
 20
77.9172865875
 30
0.0
 10
49.1983152285
 20
77.935861064
 30
0.0
  0
SPLINE
  5
2E9
100
AcDbEntity
  8
0
100
AcDbSpline
 62
7
  6
BYLAYER
 70
0
 71
3
 72
12
 73
8
 74
0
 42
0.0000001
 43
0.0000001
 44
0.0000000001
 40
0.0
 40
0.0
 40
0.0
 40
0.0
 40
0.1108708969
 40
0.1984847277
 40
0.3102492038
 40
0.6069922384
 40
1.0
 40
1.0
 40
1.0
 40
1.0
 10
47.7058775516
 20
77.8231617653
 30
0.0
 10
47.7059095259
 20
77.8219729112
 30
0.0
 10
47.7041440017
 20
77.8201270211
 30
0.0
 10
47.7013264177
 20
77.818566808
 30
0.0
 10
47.6963588949
 20
77.8164984673
 30
0.0
 10
47.6880525504
 20
77.814305214
 30
0.0
 10
47.6807579996
 20
77.8129873077
 30
0.0
 10
47.6765882298
 20
77.8123667438
 30
0.0
  0
SPLINE
  5
2EA
100
AcDbEntity
  8
0
100
AcDbSpline
 62
7
  6
BYLAYER
 70
0
 71
3
 72
11
 73
7
 74
0
 42
0.0000001
 43
0.0000001
 44
0.0000000001
 40
0.0
 40
0.0
 40
0.0
 40
0.0
 40
0.2360848032
 40
0.47149646
 40
0.7218587319
 40
1.0
 40
1.0
 40
1.0
 40
1.0
 10
63.7134384331
 20
77.9358630248
 30
0.0
 10
63.7134292967
 20
77.9172885485
 30
0.0
 10
63.7087963468
 20
77.879968664
 30
0.0
 10
63.6865617054
 20
77.8269968841
 30
0.0
 10
63.6498472701
 20
77.7787443291
 30
0.0
 10
63.6181764472
 20
77.7513908148
 30
0.0
 10
63.6005834279
 20
77.7383767006
 30
0.0
  0
SPLINE
  5
2EB
100
AcDbEntity
  8
0
100
AcDbSpline
 62
7
  6
BYLAYER
 70
0
 71
3
 72
14
 73
10
 74
0
 42
0.0000001
 43
0.0000001
 44
0.0000000001
 40
0.0
 40
0.0
 40
0.0
 40
0.0
 40
0.0840402682
 40
0.1797409483
 40
0.2873304286
 40
0.4067997533
 40
0.5380241329
 40
0.6808049809
 40
1.0
 40
1.0
 40
1.0
 40
1.0
 10
63.4341033528
 20
77.652904058
 30
0.0
 10
63.3975415191
 20
77.6394041415
 30
0.0
 10
63.3177456347
 20
77.6148223821
 30
0.0
 10
63.1876449568
 20
77.5856143361
 30
0.0
 10
63.0398526847
 20
77.5614670777
 30
0.0
 10
62.874790664
 20
77.5420624614
 30
0.0
 10
62.6928967226
 20
77.5271062714
 30
0.0
 10
62.4181754174
 20
77.5121613194
 30
0.0
 10
62.2039102874
 20
77.5077489273
 30
0.0
 10
62.0558848593
 20
77.5065842418
 30
0.0
  0
SPLINE
  5
2EC
100
AcDbEntity
  8
0
100
AcDbSpline
 62
7
  6
BYLAYER
 70
0
 71
3
 72
9
 73
5
 74
0
 42
0.0000001
 43
0.0000001
 44
0.0000000001
 40
0.0
 40
0.0
 40
0.0
 40
0.0
 40
0.452711909
 40
1.0
 40
1.0
 40
1.0
 40
1.0
 10
66.5058775517
 20
78.249962447
 30
0.0
 10
66.5058691646
 20
78.2547768605
 30
0.0
 10
66.5028339171
 20
78.2654476704
 30
0.0
 10
66.4959394799
 20
78.2737998616
 30
0.0
 10
66.4918003261
 20
78.277891581
 30
0.0
  0
SPLINE
  5
2ED
100
AcDbEntity
  8
0
100
AcDbSpline
 62
7
  6
BYLAYER
 70
0
 71
3
 72
20
 73
16
 74
0
 42
0.0000001
 43
0.0000001
 44
0.0000000001
 40
0.0
 40
0.0
 40
0.0
 40
0.0
 40
0.0320793408
 40
0.0639743089
 40
0.0973803979
 40
0.1337541096
 40
0.1742074549
 40
0.2195307781
 40
0.2702674589
 40
0.3267872027
 40
0.3893412681
 40
0.4580821761
 40
0.6142269238
 40
0.7950706289
 40
1.0
 40
1.0
 40
1.0
 40
1.0
 10
63.3559311382
 20
78.2312347877
 30
0.0
 10
63.3559297774
 20
78.2157179752
 30
0.0
 10
63.3524907951
 20
78.1846293325
 30
0.0
 10
63.3361143995
 20
78.1400083241
 30
0.0
 10
63.3089344469
 20
78.0985676532
 30
0.0
 10
63.2713639166
 20
78.0603453961
 30
0.0
 10
63.223644796
 20
78.0251753407
 30
0.0
 10
63.1658739662
 20
77.9929159905
 30
0.0
 10
63.0980899956
 20
77.9634815126
 30
0.0
 10
63.0203228781
 20
77.9368324446
 30
0.0
 10
62.9326171115
 20
77.9129568992
 30
0.0
 10
62.7966748256
 20
77.8835568816
 30
0.0
 10
62.6023801269
 20
77.854619368
 30
0.0
 10
62.3412956405
 20
77.8304672397
 30
0.0
 10
62.1549123473
 20
77.820627661
 30
0.0
 10
62.0558646506
 20
77.8167247446
 30
0.0
  0
SPLINE
  5
2EE
100
AcDbEntity
  8
0
100
AcDbSpline
 62
7
  6
BYLAYER
 70
0
 71
3
 72
12
 73
8
 74
0
 42
0.0000001
 43
0.0000001
 44
0.0000000001
 40
0.0
 40
0.0
 40
0.0
 40
0.0
 40
0.3930077244
 40
0.6897508189
 40
0.8015153289
 40
0.8891291427
 40
1.0
 40
1.0
 40
1.0
 40
1.0
 10
65.2351668735
 20
77.8123667438
 30
0.0
 10
65.230997104
 20
77.8129873077
 30
0.0
 10
65.2237025528
 20
77.8143052145
 30
0.0
 10
65.2153962076
 20
77.8164984681
 30
0.0
 10
65.2104286837
 20
77.8185668079
 30
0.0
 10
65.2076110992
 20
77.8201270208
 30
0.0
 10
65.2058455775
 20
77.8219729116
 30
0.0
 10
65.2058775516
 20
77.8231617653
 30
0.0
  0
SPLINE
  5
2EF
100
AcDbEntity
  8
0
100
AcDbSpline
 62
7
  6
BYLAYER
 70
0
 71
3
 72
13
 73
9
 74
0
 42
0.0000001
 43
0.0000001
 44
0.0000000001
 40
0.0
 40
0.0
 40
0.0
 40
0.0
 40
0.1072816346
 40
0.194012698
 40
0.3057001806
 40
0.4427020243
 40
0.6047692392
 40
1.0
 40
1.0
 40
1.0
 40
1.0
 10
65.3558775516
 20
77.7823294677
 30
0.0
 10
65.3558775516
 20
77.7846140943
 30
0.0
 10
65.3523170848
 20
77.788064305
 30
0.0
 10
65.3467685535
 20
77.7910167141
 30
0.0
 10
65.3400538544
 20
77.7937078443
 30
0.0
 10
65.3317045393
 20
77.7962436264
 30
0.0
 10
65.3173252808
 20
77.7997604954
 30
0.0
 10
65.3056236334
 20
77.8017941063
 30
0.0
 10
65.2972989079
 20
77.8030348206
 30
0.0
  0
SPLINE
  5
2F0
100
AcDbEntity
  8
0
100
AcDbSpline
 62
7
  6
BYLAYER
 70
0
 71
3
 72
13
 73
9
 74
0
 42
0.0000001
 43
0.0000001
 44
0.0000000001
 40
0.0
 40
0.0
 40
0.0
 40
0.0
 40
0.3952307035
 40
0.5572979358
 40
0.6942998387
 40
0.8059873657
 40
0.8927184156
 40
1.0
 40
1.0
 40
1.0
 40
1.0
 10
47.6144561954
 20
77.8030348206
 30
0.0
 10
47.6061314709
 20
77.8017941064
 30
0.0
 10
47.5944298241
 20
77.7997604945
 30
0.0
 10
47.5800505651
 20
77.7962436249
 30
0.0
 10
47.5717012469
 20
77.7937078433
 30
0.0
 10
47.5649865453
 20
77.7910167142
 30
0.0
 10
47.5594380128
 20
77.788064306
 30
0.0
 10
47.5558775516
 20
77.7846140933
 30
0.0
 10
47.5558775516
 20
77.7823294677
 30
0.0
  0
SPLINE
  5
2F1
100
AcDbEntity
  8
0
100
AcDbSpline
 62
7
  6
BYLAYER
 70
0
 71
3
 72
53
 73
49
 74
0
 42
0.0000001
 43
0.0000001
 44
0.0000000001
 40
0.0
 40
0.0
 40
0.0
 40
0.0
 40
0.0007550758
 40
0.0011217447
 40
0.0014229026
 40
0.0016229878
 40
0.0017489283
 40
0.0020895549
 40
0.0024119784
 40
0.0027521173
 40
0.0032145113
 40
0.0037137096
 40
0.0046935011
 40
0.0055841848
 40
0.0071799297
 40
0.0087770144
 40
0.0104532391
 40
0.0138933402
 40
0.0206219435
 40
0.0273168809
 40
0.0339958211
 40
0.0406432786
 40
0.0538761608
 40
0.0670173883
 40
0.0800641602
 40
0.0930183927
 40
0.1058798019
 40
0.1313217941
 40
0.1563887643
 40
0.1810794277
 40
0.2053924875
 40
0.2528809107
 40
0.2988450892
 40
0.3432768168
 40
0.386168897
 40
0.4275152859
 40
0.4673112886
 40
0.5422381457
 40
0.6109518182
 40
0.6734964881
 40
0.7299933404
 40
0.7806906853
 40
0.8259669603
 40
0.8663735133
 40
0.9027066996
 40
0.9360808559
 40
0.9679505591
 40
1.0
 40
1.0
 40
1.0
 40
1.0
 10
50.8558970595
 20
77.8166866172
 30
0.0
 10
50.8555666004
 20
77.816530359
 30
0.0
 10
50.8550865529
 20
77.8162826866
 30
0.0
 10
50.8544567557
 20
77.8159852703
 30
0.0
 10
50.8540737209
 20
77.8158518256
 30
0.0
 10
50.8537497991
 20
77.8157588615
 30
0.0
 10
50.8534843812
 20
77.8160078165
 30
0.0
 10
50.8535993325
 20
77.816411142
 30
0.0
 10
50.8535206289
 20
77.8169579082
 30
0.0
 10
50.8529059316
 20
77.8170852932
 30
0.0
 10
50.8523004185
 20
77.8170355647
 30
0.0
 10
50.8513588127
 20
77.8169202002
 30
0.0
 10
50.850228084
 20
77.8167450331
 30
0.0
 10
50.8485425166
 20
77.816719825
 30
0.0
 10
50.8465840626
 20
77.8170145453
 30
0.0
 10
50.8442408504
 20
77.8172746882
 30
0.0
 10
50.8409912693
 20
77.8174005119
 30
0.0
 10
50.8352569552
 20
77.8174208235
 30
0.0
 10
50.8271016748
 20
77.8178506112
 30
0.0
 10
50.8173783723
 20
77.8182407269
 30
0.0
 10
50.8076942069
 20
77.818648602
 30
0.0
 10
50.7948497692
 20
77.8192299251
 30
0.0
 10
50.7788799153
 20
77.8199512419
 30
0.0
 10
50.7598173516
 20
77.82085751
 30
0.0
 10
50.7408915557
 20
77.8217990093
 30
0.0
 10
50.722102969
 20
77.8227714508
 30
0.0
 10
50.6973244899
 20
77.824106151
 30
0.0
 10
50.6666961105
 20
77.8258574198
 30
0.0
 10
50.6303601745
 20
77.8281002659
 30
0.0
 10
50.5945805572
 20
77.8304787747
 30
0.0
 10
50.5479862105
 20
77.833806933
 30
0.0
 10
50.491150922
 20
77.8383026441
 30
0.0
 10
50.4246687381
 20
77.8443071359
 30
0.0
 10
50.3604774756
 20
77.8508900956
 30
0.0
 10
50.2985993642
 20
77.8580638143
 30
0.0
 10
50.2390559976
 20
77.8658400552
 30
0.0
 10
50.1642996721
 20
77.8768112948
 30
0.0
 10
50.0767714271
 20
77.8919407055
 30
0.0
 10
49.9791793691
 20
77.913062633
 30
0.0
 10
49.8914058448
 20
77.9368688161
 30
0.0
 10
49.8135867499
 20
77.9634770499
 30
0.0
 10
49.7457851999
 20
77.9928972486
 30
0.0
 10
49.6880242803
 20
78.0251588474
 30
0.0
 10
49.6403332423
 20
78.0603430648
 30
0.0
 10
49.6027989658
 20
78.0985844937
 30
0.0
 10
49.5756598243
 20
78.1400448097
 30
0.0
 10
49.5593093229
 20
78.184670795
 30
0.0
 10
49.555871576
 20
78.2157582778
 30
0.0
 10
49.5558711571
 20
78.2312737647
 30
0.0
  0
SPLINE
  5
2F2
100
AcDbEntity
  8
0
100
AcDbSpline
 62
7
  6
BYLAYER
 70
0
 71
3
 72
13
 73
9
 74
0
 42
0.0000001
 43
0.0000001
 44
0.0000000001
 40
0.0
 40
0.0
 40
0.0
 40
0.0
 40
0.4161671232
 40
0.7199257771
 40
0.8300085422
 40
0.9125931304
 40
0.9684097764
 40
1.0
 40
1.0
 40
1.0
 40
1.0
 10
62.0166037459
 20
78.1233358359
 30
0.0
 10
62.0222488762
 20
78.121635448
 30
0.0
 10
62.0319831347
 20
78.1186046545
 30
0.0
 10
62.0431083751
 20
78.1147456561
 30
0.0
 10
62.049601402
 20
78.1120763871
 30
0.0
 10
62.0527965175
 20
78.1105293024
 30
0.0
 10
62.0548029818
 20
78.1092894951
 30
0.0
 10
62.0557597624
 20
78.1083460702
 30
0.0
 10
62.0558578026
 20
78.107909416
 30
0.0
  0
SPLINE
  5
2F3
100
AcDbEntity
  8
0
100
AcDbSpline
 62
7
  6
BYLAYER
 70
0
 71
3
 72
9
 73
5
 74
0
 42
0.0000001
 43
0.0000001
 44
0.0000000001
 40
0.0
 40
0.0
 40
0.0
 40
0.0
 40
0.5001154026
 40
1.0
 40
1.0
 40
1.0
 40
1.0
 10
53.8928267962
 20
31.331058208
 30
0.0
 10
53.8569391486
 20
31.331058208
 30
0.0
 10
53.7846080239
 20
31.3436174679
 30
0.0
 10
53.7210734832
 20
31.380516937
 30
0.0
 10
53.6937078496
 20
31.4037086782
 30
0.0
  0
SPLINE
  5
2F4
100
AcDbEntity
  8
0
100
AcDbSpline
 62
7
  6
BYLAYER
 70
0
 71
3
 72
9
 73
5
 74
0
 42
0.0000001
 43
0.0000001
 44
0.0000000001
 40
0.0
 40
0.0
 40
0.0
 40
0.0
 40
0.5000641562
 40
1.0
 40
1.0
 40
1.0
 40
1.0
 10
59.0189283071
 20
31.331058208
 30
0.0
 10
59.0547933125
 20
31.331058208
 30
0.0
 10
59.1270793953
 20
31.3436204735
 30
0.0
 10
59.1906035934
 20
31.3804529921
 30
0.0
 10
59.2179691289
 20
31.4036212043
 30
0.0
  0
SPLINE
  5
2F5
100
AcDbEntity
  8
0
100
AcDbSpline
 62
7
  6
BYLAYER
 70
0
 71
3
 72
14
 73
10
 74
0
 42
0.0000001
 43
0.0000001
 44
0.0000000001
 40
0.0
 40
0.0
 40
0.0
 40
0.0
 40
0.1077686329
 40
0.218472938
 40
0.3347549539
 40
0.4580388462
 40
0.7220890795
 40
0.8607368074
 40
1.0
 40
1.0
 40
1.0
 40
1.0
 10
52.5458266861
 20
34.331058201
 30
0.0
 10
52.565264309
 20
34.3310534196
 30
0.0
 10
52.6048901667
 20
34.3255484995
 30
0.0
 10
52.66073967
 20
34.3008115185
 30
0.0
 10
52.7106101179
 20
34.2610237608
 30
0.0
 10
52.7678349278
 20
34.1897483491
 30
0.0
 10
52.803575994
 20
34.0991115937
 30
0.0
 10
52.8159805354
 20
34.0019126313
 30
0.0
 10
52.8141686429
 20
33.9515190254
 30
0.0
 10
52.8111512567
 20
33.9265827996
 30
0.0
  0
LINE
  5
2F6
100
AcDbEntity
  8
0
100
AcDbLine
 62
7
  6
BYLAYER
 10
52.8111518589
 20
33.9265844032
 11
52.8729228701
 21
33.9297175906
  0
SPLINE
  5
2F7
100
AcDbEntity
  8
0
100
AcDbSpline
 62
7
  6
BYLAYER
 70
0
 71
3
 72
18
 73
14
 74
0
 42
0.0000001
 43
0.0000001
 44
0.0000000001
 40
0.0
 40
0.0
 40
0.0
 40
0.0
 40
0.0082274359
 40
0.0139091734
 40
0.0206601647
 40
0.0368068072
 40
0.0557676097
 40
0.1021506046
 40
0.1670018006
 40
0.2628664516
 40
0.4138351023
 40
0.6508063396
 40
1.0
 40
1.0
 40
1.0
 40
1.0
 10
56.0607725851
 20
34.3310582018
 30
0.0
 10
56.0616037728
 20
34.3310603162
 30
0.0
 10
56.0628860016
 20
34.3300476505
 30
0.0
 10
56.0639883897
 20
34.3283247584
 30
0.0
 10
56.0652740273
 20
34.3257150705
 30
0.0
 10
56.0666464477
 20
34.3217137347
 30
0.0
 10
56.0687793081
 20
34.3137560264
 30
0.0
 10
56.0712482328
 20
34.3008234073
 30
0.0
 10
56.0739929664
 20
34.2800770571
 30
0.0
 10
56.0771373539
 20
34.2487413179
 30
0.0
 10
56.080447758
 20
34.1999685975
 30
0.0
 10
56.0834646531
 20
34.125551932
 30
0.0
 10
56.0842486977
 20
34.0663284341
 30
0.0
 10
56.0842485963
 20
34.0310505623
 30
0.0
  0
SPLINE
  5
2F8
100
AcDbEntity
  8
0
100
AcDbSpline
 62
7
  6
BYLAYER
 70
0
 71
3
 72
9
 73
5
 74
0
 42
0.0000001
 43
0.0000001
 44
0.0000000001
 40
0.0
 40
0.0
 40
0.0
 40
0.0
 40
0.4997629254
 40
1.0
 40
1.0
 40
1.0
 40
1.0
 10
52.7354742727
 20
33.4187691855
 30
0.0
 10
52.7507083563
 20
33.4768620865
 30
0.0
 10
52.7799383436
 20
33.5934290269
 30
0.0
 10
52.8085972008
 20
33.7101317664
 30
0.0
 10
52.8230084415
 20
33.7684929337
 30
0.0
  0
SPLINE
  5
2F9
100
AcDbEntity
  8
0
100
AcDbSpline
 62
7
  6
BYLAYER
 70
0
 71
3
 72
12
 73
8
 74
0
 42
0.0000001
 43
0.0000001
 44
0.0000000001
 40
0.0
 40
0.0
 40
0.0
 40
0.0
 40
0.280137163
 40
0.5465737106
 40
0.7895320086
 40
0.8993469831
 40
1.0
 40
1.0
 40
1.0
 40
1.0
 10
56.0842485342
 20
34.0310559429
 30
0.0
 10
55.7830138816
 20
34.02650089
 30
0.0
 10
55.1953205709
 20
34.0141390141
 30
0.0
 10
54.346710798
 20
33.9848639798
 30
0.0
 10
53.6816067864
 20
33.9508818407
 30
0.0
 10
53.1951281624
 20
33.917220944
 30
0.0
 10
52.9695622866
 20
33.8983110652
 30
0.0
 10
52.8617877399
 20
33.888222545
 30
0.0
  0
SPLINE
  5
2FA
100
AcDbEntity
  8
0
100
AcDbSpline
 62
7
  6
BYLAYER
 70
0
 71
3
 72
20
 73
16
 74
0
 42
0.0000001
 43
0.0000001
 44
0.0000000001
 40
0.0
 40
0.0
 40
0.0
 40
0.0
 40
0.0081786275
 40
0.0188076228
 40
0.0475964344
 40
0.0857834423
 40
0.1324193854
 40
0.1862142486
 40
0.2457232713
 40
0.3099442157
 40
0.3780862744
 40
0.5235020239
 40
0.6775729335
 40
0.837217187
 40
1.0
 40
1.0
 40
1.0
 40
1.0
 10
56.4468883325
 20
34.331058208
 30
0.0
 10
56.4456016204
 20
34.3310603849
 30
0.0
 10
56.4426549462
 20
34.3304816168
 30
0.0
 10
56.4356737167
 20
34.3277532595
 30
0.0
 10
56.4250633447
 20
34.3216099239
 30
0.0
 10
56.4102319375
 20
34.3116446504
 30
0.0
 10
56.3928788961
 20
34.2984108952
 30
0.0
 10
56.3733779081
 20
34.2825107734
 30
0.0
 10
56.3519398805
 20
34.2646077696
 30
0.0
 10
56.3289190321
 20
34.245081664
 30
0.0
 10
56.2957807053
 20
34.216590443
 30
0.0
 10
56.2522899253
 20
34.1784613767
 30
0.0
 10
56.1980271829
 20
34.1307833745
 30
0.0
 10
56.1417923947
 20
34.0812099581
 30
0.0
 10
56.1035838339
 20
34.0478439426
 30
0.0
 10
56.0842484371
 20
34.0310506032
 30
0.0
  0
SPLINE
  5
2FB
100
AcDbEntity
  8
0
100
AcDbSpline
 62
7
  6
BYLAYER
 70
0
 71
3
 72
27
 73
23
 74
0
 42
0.0000001
 43
0.0000001
 44
0.0000000001
 40
0.0
 40
0.0
 40
0.0
 40
0.0
 40
0.0498378431
 40
0.0735510092
 40
0.0970928464
 40
0.1211157833
 40
0.1462872658
 40
0.2020927768
 40
0.2670456394
 40
0.3406708495
 40
0.4206359596
 40
0.5037135534
 40
0.5863569328
 40
0.6650593196
 40
0.7367442393
 40
0.7994273233
 40
0.8532533467
 40
0.8777877415
 40
0.9014924729
 40
0.9250411378
 40
0.9490410791
 40
1.0
 40
1.0
 40
1.0
 40
1.0
 10
59.9523302295
 20
34.121814141
 30
0.0
 10
59.9515442709
 20
34.1380121773
 30
0.0
 10
59.9479577707
 20
34.1620340831
 30
0.0
 10
59.9362884236
 20
34.1915221734
 30
0.0
 10
59.9242199436
 20
34.2114661091
 30
0.0
 10
59.9085775389
 20
34.2293817331
 30
0.0
 10
59.8820578517
 20
34.2511463343
 30
0.0
 10
59.8390226231
 20
34.2724905859
 30
0.0
 10
59.777794176
 20
34.2891329553
 30
0.0
 10
59.707332316
 20
34.2995208713
 30
0.0
 10
59.6304689684
 20
34.3049624962
 30
0.0
 10
59.5505050854
 20
34.3063830228
 30
0.0
 10
59.4709722832
 20
34.3040364387
 30
0.0
 10
59.3953726017
 20
34.297504168
 30
0.0
 10
59.326915751
 20
34.285725393
 30
0.0
 10
59.2682428052
 20
34.2673155975
 30
0.0
 10
59.2279280443
 20
34.2440838907
 30
0.0
 10
59.2038824668
 20
34.220956082
 30
0.0
 10
59.1899817259
 20
34.2020375998
 30
0.0
 10
59.179609878
 20
34.1811772313
 30
0.0
 10
59.1700642334
 20
34.1504645094
 30
0.0
 10
59.1678675432
 20
34.125866395
 30
0.0
 10
59.1678675646
 20
34.1092845063
 30
0.0
  0
SPLINE
  5
2FC
100
AcDbEntity
  8
0
100
AcDbSpline
 62
7
  6
BYLAYER
 70
0
 71
3
 72
14
 73
10
 74
0
 42
0.0000001
 43
0.0000001
 44
0.0000000001
 40
0.0
 40
0.0
 40
0.0
 40
0.0
 40
0.2808382269
 40
0.4172269668
 40
0.5494112994
 40
0.6758293529
 40
0.7946182613
 40
0.9035229561
 40
1.0
 40
1.0
 40
1.0
 40
1.0
 10
60.2823512653
 20
33.4852842763
 30
0.0
 10
60.2457211493
 20
33.5419494392
 30
0.0
 10
60.1916743054
 20
33.6263864636
 30
0.0
 10
60.1231496192
 20
33.7392149406
 30
0.0
 10
60.0756130887
 20
33.8213639904
 30
0.0
 10
60.032731637
 20
33.9012747498
 30
0.0
 10
59.9960934159
 20
33.9781277551
 30
0.0
 10
59.9678806358
 20
34.0507912476
 30
0.0
 10
59.9555471781
 20
34.0988590999
 30
0.0
 10
59.9523302593
 20
34.1218142075
 30
0.0
  0
SPLINE
  5
2FD
100
AcDbEntity
  8
0
100
AcDbSpline
 62
7
  6
BYLAYER
 70
0
 71
3
 72
20
 73
16
 74
0
 42
0.0000001
 43
0.0000001
 44
0.0000000001
 40
0.0
 40
0.0
 40
0.0
 40
0.0
 40
0.016036681
 40
0.0320492695
 40
0.0480175481
 40
0.063949583
 40
0.0957221423
 40
0.1274397336
 40
0.1907255173
 40
0.2538725785
 40
0.3797403178
 40
0.5050620487
 40
0.6297968987
 40
0.7539024118
 40
1.0
 40
1.0
 40
1.0
 40
1.0
 10
40.7558775516
 20
36.8349626569
 30
0.0
 10
40.7512977535
 20
36.8349626569
 30
0.0
 10
40.7420845969
 20
36.8330601169
 30
0.0
 10
40.7301228419
 20
36.8260741937
 30
0.0
 10
40.7198790547
 20
36.8169173483
 30
0.0
 10
40.7080087029
 20
36.8030988472
 30
0.0
 10
40.6955727162
 20
36.7840369879
 30
0.0
 10
40.6788000729
 20
36.7519248727
 30
0.0
 10
40.6616507568
 20
36.7100557366
 30
0.0
 10
40.6388203131
 20
36.6416945956
 30
0.0
 10
40.6160888346
 20
36.5547579457
 30
0.0
 10
40.5945964971
 20
36.4495441666
 30
0.0
 10
40.5778735464
 20
36.3439672463
 30
0.0
 10
40.5615371462
 20
36.2035531894
 30
0.0
 10
40.5558775516
 20
36.0977731112
 30
0.0
 10
40.5558775516
 20
36.0274919051
 30
0.0
  0
SPLINE
  5
2FE
100
AcDbEntity
  8
0
100
AcDbSpline
 62
7
  6
BYLAYER
 70
0
 71
3
 72
15
 73
11
 74
0
 42
0.0000001
 43
0.0000001
 44
0.0000000001
 40
0.0
 40
0.0
 40
0.0
 40
0.0
 40
0.1251228393
 40
0.250035809
 40
0.3750171938
 40
0.5000008602
 40
0.6249845713
 40
0.7499657518
 40
0.8748780763
 40
1.0
 40
1.0
 40
1.0
 40
1.0
 10
56.8297603512
 20
33.2924724584
 30
0.0
 10
56.8099030487
 20
33.323759529
 30
0.0
 10
56.762209931
 20
33.3815866278
 30
0.0
 10
56.6715809763
 20
33.4477404585
 30
0.0
 10
56.5671957819
 20
33.4889646584
 30
0.0
 10
56.4558665424
 20
33.5029772103
 30
0.0
 10
56.3445382707
 20
33.4889585659
 30
0.0
 10
56.2401549314
 20
33.4477303721
 30
0.0
 10
56.1495296984
 20
33.3815721609
 30
0.0
 10
56.1018398146
 20
33.3237430903
 30
0.0
 10
56.0819840269
 20
33.2924553794
 30
0.0
  0
SPLINE
  5
2FF
100
AcDbEntity
  8
0
100
AcDbSpline
 62
7
  6
BYLAYER
 70
0
 71
3
 72
17
 73
13
 74
0
 42
0.0000001
 43
0.0000001
 44
0.0000000001
 40
0.0
 40
0.0
 40
0.0
 40
0.0
 40
0.1741713733
 40
0.3526934524
 40
0.525081236
 40
0.6793079698
 40
0.8047480481
 40
0.897049271
 40
0.9307346269
 40
0.9575631593
 40
0.9797212632
 40
1.0
 40
1.0
 40
1.0
 40
1.0
 10
70.7558805764
 20
31.9260727092
 30
0.0
 10
70.7725646387
 20
31.9122469261
 30
0.0
 10
70.8057290145
 20
31.8834942433
 30
0.0
 10
70.8531000708
 20
31.8384684316
 30
0.0
 10
70.8961382599
 20
31.7926411946
 30
0.0
 10
70.9319546235
 20
31.7491643507
 30
0.0
 10
70.9576370191
 20
31.7106372266
 30
0.0
 10
70.9714052547
 20
31.6822086316
 30
0.0
 10
70.9754635037
 20
31.6635299782
 30
0.0
 10
70.9753467624
 20
31.6531220478
 30
0.0
 10
70.9724774344
 20
31.6447927417
 30
0.0
 10
70.9687909358
 20
31.6407806433
 30
0.0
 10
70.9667584323
 20
31.6392861329
 30
0.0
  0
SPLINE
  5
300
100
AcDbEntity
  8
0
100
AcDbSpline
 62
7
  6
BYLAYER
 70
0
 71
3
 72
9
 73
5
 74
0
 42
0.0000001
 43
0.0000001
 44
0.0000000001
 40
0.0
 40
0.0
 40
0.0
 40
0.0
 40
0.2519565093
 40
1.0
 40
1.0
 40
1.0
 40
1.0
 10
70.6232038283
 20
31.8046561129
 30
0.0
 10
70.6358705688
 20
31.812947077
 30
0.0
 10
70.6846134592
 20
31.8481983006
 30
0.0
 10
70.7272197789
 20
31.8914435767
 30
0.0
 10
70.7558995635
 20
31.926050744
 30
0.0
  0
SPLINE
  5
301
100
AcDbEntity
  8
0
100
AcDbSpline
 62
7
  6
BYLAYER
 70
0
 71
3
 72
9
 73
5
 74
0
 42
0.0000001
 43
0.0000001
 44
0.0000000001
 40
0.0
 40
0.0
 40
0.0
 40
0.0
 40
0.5015868008
 40
1.0
 40
1.0
 40
1.0
 40
1.0
 10
70.255902923
 20
31.7060889564
 30
0.0
 10
70.3201545998
 20
31.7060910839
 30
0.0
 10
70.4488821119
 20
31.7195055924
 30
0.0
 10
70.5697529207
 20
31.7697389705
 30
0.0
 10
70.6231718699
 20
31.8047049377
 30
0.0
  0
SPLINE
  5
302
100
AcDbEntity
  8
0
100
AcDbSpline
 62
7
  6
BYLAYER
 70
0
 71
3
 72
11
 73
7
 74
0
 42
0.0000001
 43
0.0000001
 44
0.0000000001
 40
0.0
 40
0.0
 40
0.0
 40
0.0
 40
0.2483649401
 40
0.4982804943
 40
0.7489859385
 40
1.0
 40
1.0
 40
1.0
 40
1.0
 10
42.5559238214
 20
34.0919730948
 30
0.0
 10
42.7260492172
 20
33.732209151
 30
0.0
 10
43.1812187672
 20
33.0591301483
 30
0.0
 10
44.1240206661
 20
32.2912828578
 30
0.0
 10
45.2455088319
 20
31.8127262763
 30
0.0
 10
46.0536946833
 20
31.7061642289
 30
0.0
 10
46.4559001639
 20
31.706165728
 30
0.0
  0
SPLINE
  5
303
100
AcDbEntity
  8
0
100
AcDbSpline
 62
7
  6
BYLAYER
 70
0
 71
3
 72
9
 73
5
 74
0
 42
0.0000001
 43
0.0000001
 44
0.0000000001
 40
0.0
 40
0.0
 40
0.0
 40
0.0
 40
0.5022090595
 40
1.0
 40
1.0
 40
1.0
 40
1.0
 10
56.4558775516
 20
81.096058208
 30
0.0
 10
56.2069574128
 20
81.1442613856
 30
0.0
 10
55.7107860145
 20
81.2374346942
 30
0.0
 10
55.2105129937
 20
81.308924748
 30
0.0
 10
54.9603362518
 20
81.3328053029
 30
0.0
  0
SPLINE
  5
304
100
AcDbEntity
  8
0
100
AcDbSpline
 62
7
  6
BYLAYER
 70
0
 71
3
 72
9
 73
5
 74
0
 42
0.0000001
 43
0.0000001
 44
0.0000000001
 40
0.0
 40
0.0
 40
0.0
 40
0.0
 40
0.2517414223
 40
1.0
 40
1.0
 40
1.0
 40
1.0
 10
54.8124986245
 20
81.3454598414
 30
0.0
 10
54.7683851995
 20
81.3487732313
 30
0.0
 10
54.5930413153
 20
81.3601865661
 30
0.0
 10
54.4170360492
 20
81.3634032264
 30
0.0
 10
54.2856241102
 20
81.3589022098
 30
0.0
  0
SPLINE
  5
305
100
AcDbEntity
  8
0
100
AcDbSpline
 62
7
  6
BYLAYER
 70
0
 71
3
 72
14
 73
10
 74
0
 42
0.0000001
 43
0.0000001
 44
0.0000000001
 40
0.0
 40
0.0
 40
0.0
 40
0.0
 40
0.2933163638
 40
0.4380524036
 40
0.5746137539
 40
0.6991597619
 40
0.8105940192
 40
0.9097203484
 40
1.0
 40
1.0
 40
1.0
 40
1.0
 10
41.7251939271
 20
79.3965535734
 30
0.0
 10
41.7203432383
 20
79.4295009446
 30
0.0
 10
41.717990174
 20
79.47974641
 30
0.0
 10
41.7271986898
 20
79.5444855297
 30
0.0
 10
41.7401183662
 20
79.5889330951
 30
0.0
 10
41.7591023029
 20
79.6270108763
 30
0.0
 10
41.7828444225
 20
79.6571776393
 30
0.0
 10
41.8103406584
 20
79.6780915645
 30
0.0
 10
41.8306411395
 20
79.6861106067
 30
0.0
 10
41.8406152302
 20
79.688473522
 30
0.0
  0
SPLINE
  5
306
100
AcDbEntity
  8
0
100
AcDbSpline
 62
7
  6
BYLAYER
 70
0
 71
3
 72
12
 73
8
 74
0
 42
0.0000001
 43
0.0000001
 44
0.0000000001
 40
0.0
 40
0.0
 40
0.0
 40
0.0
 40
0.2734068447
 40
0.4070988173
 40
0.5371795757
 40
0.7825449737
 40
1.0
 40
1.0
 40
1.0
 40
1.0
 10
70.7558775516
 20
31.9260690349
 30
0.0
 10
70.8127160103
 20
31.9620328522
 30
0.0
 10
70.8964888457
 20
32.0170453392
 30
0.0
 10
71.0027379184
 20
32.095690185
 30
0.0
 10
71.1001665302
 20
32.1744567448
 30
0.0
 10
71.2090375724
 20
32.2716211648
 30
0.0
 10
71.2899867725
 20
32.351849449
 30
0.0
 10
71.3261152056
 20
32.3913027531
 30
0.0
  0
SPLINE
  5
307
100
AcDbEntity
  8
0
100
AcDbSpline
 62
7
  6
BYLAYER
 70
0
 71
3
 72
11
 73
7
 74
0
 42
0.0000001
 43
0.0000001
 44
0.0000000001
 40
0.0
 40
0.0
 40
0.0
 40
0.0
 40
0.3190488265
 40
0.593569569
 40
0.8206864286
 40
1.0
 40
1.0
 40
1.0
 40
1.0
 10
71.3529704021
 20
32.4214662023
 30
0.0
 10
71.3678833872
 20
32.4387433306
 30
0.0
 10
71.3947605744
 20
32.471654778
 30
0.0
 10
71.4277280482
 20
32.5204214713
 30
0.0
 10
71.4491611991
 20
32.5643044016
 30
0.0
 10
71.4558775512
 20
32.5932310123
 30
0.0
 10
71.4558775516
 20
32.6060582056
 30
0.0
  0
SPLINE
  5
308
100
AcDbEntity
  8
0
100
AcDbSpline
 62
7
  6
BYLAYER
 70
0
 71
3
 72
9
 73
5
 74
0
 42
0.0000001
 43
0.0000001
 44
0.0000000001
 40
0.0
 40
0.0
 40
0.0
 40
0.0
 40
0.4999885182
 40
1.0
 40
1.0
 40
1.0
 40
1.0
 10
70.8871275438
 20
71.4060580525
 30
0.0
 10
70.8871184465
 20
71.2694256993
 30
0.0
 10
70.8644722231
 20
70.9957063595
 30
0.0
 10
70.798519085
 20
70.7292594607
 30
0.0
 10
70.7558775516
 20
70.5994449218
 30
0.0
  0
SPLINE
  5
309
100
AcDbEntity
  8
0
100
AcDbSpline
 62
7
  6
BYLAYER
 70
0
 71
3
 72
9
 73
5
 74
0
 42
0.0000001
 43
0.0000001
 44
0.0000000001
 40
0.0
 40
0.0
 40
0.0
 40
0.0
 40
0.5000110885
 40
1.0
 40
1.0
 40
1.0
 40
1.0
 10
70.7558775516
 20
72.21267077
 30
0.0
 10
70.7985166044
 20
72.082855606
 30
0.0
 10
70.8644732792
 20
71.8164099923
 30
0.0
 10
70.8871179995
 20
71.5426904404
 30
0.0
 10
70.8871275438
 20
71.4060580525
 30
0.0
  0
SPLINE
  5
30A
100
AcDbEntity
  8
0
100
AcDbSpline
 62
7
  6
BYLAYER
 70
0
 71
3
 72
14
 73
10
 74
0
 42
0.0000001
 43
0.0000001
 44
0.0000000001
 40
0.0
 40
0.0
 40
0.0
 40
0.0
 40
0.2991835533
 40
0.4450468639
 40
0.5815215282
 40
0.7049580039
 40
0.8147078821
 40
0.9118718296
 40
1.0
 40
1.0
 40
1.0
 40
1.0
 10
71.1865610971
 20
79.3965519616
 30
0.0
 10
71.1915089131
 20
79.4301582943
 30
0.0
 10
71.1938071112
 20
79.4812378626
 30
0.0
 10
71.1840897576
 20
79.5467027517
 30
0.0
 10
71.170812639
 20
79.591041346
 30
0.0
 10
71.1516056393
 20
79.6286433769
 30
0.0
 10
71.1278825345
 20
79.6581258718
 30
0.0
 10
71.1007529819
 20
79.6784047282
 30
0.0
 10
71.0808763749
 20
79.6861668891
 30
0.0
 10
71.0711399999
 20
79.688473492
 30
0.0
  0
SPLINE
  5
30B
100
AcDbEntity
  8
0
100
AcDbSpline
 62
7
  6
BYLAYER
 70
0
 71
3
 72
17
 73
13
 74
0
 42
0.0000001
 43
0.0000001
 44
0.0000000001
 40
0.0
 40
0.0
 40
0.0
 40
0.0
 40
0.0258807817
 40
0.0599924164
 40
0.1022380172
 40
0.1515740228
 40
0.2671627565
 40
0.3990668188
 40
0.5416587765
 40
0.6910766865
 40
0.8445768122
 40
1.0
 40
1.0
 40
1.0
 40
1.0
 10
41.4558775516
 20
36.4060580908
 30
0.0
 10
41.4558776613
 20
36.3959265197
 30
0.0
 10
41.4611679132
 20
36.3725988332
 30
0.0
 10
41.4771821649
 20
36.3359100074
 30
0.0
 10
41.5011712746
 20
36.2928593031
 30
0.0
 10
41.5449254817
 20
36.2245547711
 30
0.0
 10
41.6131324566
 20
36.1303887854
 30
0.0
 10
41.7066923421
 20
36.0096998487
 30
0.0
 10
41.8108995295
 20
35.880534136
 30
0.0
 10
41.9220455358
 20
35.7461322545
 30
0.0
 10
42.0375985178
 20
35.6088641022
 30
0.0
 10
42.1162302439
 20
35.5169815637
 30
0.0
 10
42.1558775516
 20
35.4708292073
 30
0.0
  0
SPLINE
  5
30C
100
AcDbEntity
  8
0
100
AcDbSpline
 62
7
  6
BYLAYER
 70
0
 71
3
 72
13
 73
9
 74
0
 42
0.0000001
 43
0.0000001
 44
0.0000000001
 40
0.0
 40
0.0
 40
0.0
 40
0.0
 40
0.3293714651
 40
0.6015994753
 40
0.7160185702
 40
0.8181329384
 40
0.9113890829
 40
1.0
 40
1.0
 40
1.0
 40
1.0
 10
41.7251939182
 20
79.3965536639
 30
0.0
 10
41.6862194338
 20
79.3912750615
 30
0.0
 10
41.6157574672
 20
79.3743834039
 30
0.0
 10
41.5385627696
 20
79.3347640357
 30
0.0
 10
41.4948040396
 20
79.2956775286
 30
0.0
 10
41.4724911118
 20
79.2658018724
 30
0.0
 10
41.4589446535
 20
79.2343430787
 30
0.0
 10
41.4558824643
 20
79.2125215883
 30
0.0
 10
41.4558775517
 20
79.20194054
 30
0.0
  0
SPLINE
  5
30D
100
AcDbEntity
  8
0
100
AcDbSpline
 62
7
  6
BYLAYER
 70
0
 71
3
 72
9
 73
5
 74
0
 42
0.0000001
 43
0.0000001
 44
0.0000000001
 40
0.0
 40
0.0
 40
0.0
 40
0.0
 40
0.4999909612
 40
1.0
 40
1.0
 40
1.0
 40
1.0
 10
42.0246275579
 20
71.4060585106
 30
0.0
 10
42.0246344118
 20
71.5426915931
 30
0.0
 10
42.0472823822
 20
71.816410836
 30
0.0
 10
42.1132319474
 20
72.082859136
 30
0.0
 10
42.1558775516
 20
72.2126716997
 30
0.0
  0
SPLINE
  5
30E
100
AcDbEntity
  8
0
100
AcDbSpline
 62
7
  6
BYLAYER
 70
0
 71
3
 72
9
 73
5
 74
0
 42
0.0000001
 43
0.0000001
 44
0.0000000001
 40
0.0
 40
0.0
 40
0.0
 40
0.0
 40
0.5000114991
 40
1.0
 40
1.0
 40
1.0
 40
1.0
 10
42.1558775516
 20
70.5994453549
 30
0.0
 10
42.1132362263
 20
70.7292599743
 30
0.0
 10
42.0472825993
 20
70.9957067434
 30
0.0
 10
42.0246366096
 20
71.2694261553
 30
0.0
 10
42.0246275579
 20
71.4060585106
 30
0.0
  0
SPLINE
  5
30F
100
AcDbEntity
  8
0
100
AcDbSpline
 62
7
  6
BYLAYER
 70
0
 71
3
 72
9
 73
5
 74
0
 42
0.0000001
 43
0.0000001
 44
0.0000000001
 40
0.0
 40
0.0
 40
0.0
 40
0.0
 40
0.5022056356
 40
1.0
 40
1.0
 40
1.0
 40
1.0
 10
56.4558775516
 20
81.096058208
 30
0.0
 10
56.7046654598
 20
81.1442357793
 30
0.0
 10
57.200601452
 20
81.2372144778
 30
0.0
 10
57.7005815079
 20
81.3088639462
 30
0.0
 10
57.950624338
 20
81.3327785907
 30
0.0
  0
SPLINE
  5
310
100
AcDbEntity
  8
0
100
AcDbSpline
 62
7
  6
BYLAYER
 70
0
 71
3
 72
9
 73
5
 74
0
 42
0.0000001
 43
0.0000001
 44
0.0000000001
 40
0.0
 40
0.0
 40
0.0
 40
0.0
 40
0.2517405251
 40
1.0
 40
1.0
 40
1.0
 40
1.0
 10
58.0992672897
 20
81.345512628
 30
0.0
 10
58.1433797072
 20
81.3488237887
 30
0.0
 10
58.3187209811
 20
81.3602196475
 30
0.0
 10
58.4947219085
 20
81.3634031287
 30
0.0
 10
58.6261309931
 20
81.3589022098
 30
0.0
  0
SPLINE
  5
311
100
AcDbEntity
  8
0
100
AcDbSpline
 62
7
  6
BYLAYER
 70
0
 71
3
 72
13
 73
9
 74
0
 42
0.0000001
 43
0.0000001
 44
0.0000000001
 40
0.0
 40
0.0
 40
0.0
 40
0.0
 40
0.0886027332
 40
0.1818588934
 40
0.2839777137
 40
0.3984003611
 40
0.6706242765
 40
1.0
 40
1.0
 40
1.0
 40
1.0
 10
71.4558775516
 20
79.2019404569
 30
0.0
 10
71.4558738891
 20
79.2125201047
 30
0.0
 10
71.452812819
 20
79.2343400817
 30
0.0
 10
71.4392670263
 20
79.2657971769
 30
0.0
 10
71.4169549505
 20
79.2956727212
 30
0.0
 10
71.3731992384
 20
79.3347597317
 30
0.0
 10
71.2960084102
 20
79.3743804166
 30
0.0
 10
71.2255494195
 20
79.3912720372
 30
0.0
 10
71.1865761606
 20
79.3965517411
 30
0.0
  0
SPLINE
  5
312
100
AcDbEntity
  8
0
100
AcDbSpline
 62
7
  6
BYLAYER
 70
0
 71
3
 72
17
 73
13
 74
0
 42
0.0000001
 43
0.0000001
 44
0.0000000001
 40
0.0
 40
0.0
 40
0.0
 40
0.0
 40
0.3649353264
 40
0.5425961505
 40
0.7013403701
 40
0.7698872753
 40
0.8300207097
 40
0.8811822774
 40
0.9228361292
 40
0.9546941118
 40
0.9773574805
 40
1.0
 40
1.0
 40
1.0
 40
1.0
 10
42.5558297242
 20
34.0919017366
 30
0.0
 10
42.5042150647
 20
34.0674923368
 30
0.0
 10
42.4280466052
 20
34.0299506105
 30
0.0
 10
42.3311993521
 20
33.9783524476
 30
0.0
 10
42.276039822
 20
33.9471663296
 30
0.0
 10
42.2375745334
 20
33.9238524634
 30
0.0
 10
42.2138765978
 20
33.9087089508
 30
0.0
 10
42.1940785328
 20
33.8951700778
 30
0.0
 10
42.1785163104
 20
33.8836323631
 30
0.0
 10
42.1668172038
 20
33.8735804161
 30
0.0
 10
42.1590097856
 20
33.8655910624
 30
0.0
 10
42.1540692315
 20
33.8576354446
 30
0.0
 10
42.1558770442
 20
33.8545889461
 30
0.0
  0
SPLINE
  5
313
100
AcDbEntity
  8
0
100
AcDbSpline
 62
7
  6
BYLAYER
 70
0
 71
3
 72
20
 73
16
 74
0
 42
0.0000001
 43
0.0000001
 44
0.0000000001
 40
0.0
 40
0.0
 40
0.0
 40
0.0
 40
0.1804232362
 40
0.3647387122
 40
0.5422942574
 40
0.7009476522
 40
0.7694564612
 40
0.8295556439
 40
0.8806847192
 40
0.9223045388
 40
0.954120722
 40
0.9767223113
 40
0.9849002262
 40
0.9912547804
 40
1.0
 40
1.0
 40
1.0
 40
1.0
 10
42.1558843618
 20
35.4708411407
 30
0.0
 10
42.1197547467
 20
35.4663750877
 30
0.0
 10
42.0467904111
 20
35.4567362838
 30
0.0
 10
41.9385665472
 20
35.4405503397
 30
0.0
 10
41.8350379283
 20
35.4228259838
 30
0.0
 10
41.7548898098
 20
35.4070976585
 30
0.0
 10
41.6983623087
 20
35.3942659012
 30
0.0
 10
41.6631879609
 20
35.3854149492
 30
0.0
 10
41.6335113903
 20
35.3770071765
 30
0.0
 10
41.6096043125
 20
35.3692058476
 30
0.0
 10
41.5915983928
 20
35.3620149477
 30
0.0
 10
41.5803203169
 20
35.3562338985
 30
0.0
 10
41.5742993199
 20
35.3516897096
 30
0.0
 10
41.5710231878
 20
35.3483973759
 30
0.0
 10
41.5697235011
 20
35.3451618111
 30
0.0
 10
41.5700984802
 20
35.3434375621
 30
0.0
  0
SPLINE
  5
314
100
AcDbEntity
  8
0
100
AcDbSpline
 62
7
  6
BYLAYER
 70
0
 71
3
 72
18
 73
14
 74
0
 42
0.0000001
 43
0.0000001
 44
0.0000000001
 40
0.0
 40
0.0
 40
0.0
 40
0.0
 40
0.177147706
 40
0.3586615022
 40
0.5341310958
 40
0.6914571472
 40
0.8195500058
 40
0.8707783272
 40
0.91278714
 40
0.9454136409
 40
0.969520513
 40
0.9867244895
 40
1.0
 40
1.0
 40
1.0
 40
1.0
 10
70.6231895247
 20
31.804677905
 30
0.0
 10
70.6337158975
 20
31.7885962558
 30
0.0
 10
70.6545868097
 20
31.7557455186
 30
0.0
 10
70.6842871365
 20
31.7059716853
 30
0.0
 10
70.7112284113
 20
31.6570881868
 30
0.0
 10
70.7335918389
 20
31.6123457122
 30
0.0
 10
70.7479889606
 20
31.5787309624
 30
0.0
 10
70.7557834467
 20
31.5560033067
 30
0.0
 10
70.7593655615
 20
31.5428143929
 30
0.0
 10
70.7611445328
 20
31.5322145717
 30
0.0
 10
70.7612091084
 20
31.5241618111
 30
0.0
 10
70.759705987
 20
31.5182770079
 30
0.0
 10
70.7571868808
 20
31.5157871214
 30
0.0
 10
70.7558774866
 20
31.5151869612
 30
0.0
  0
ENDSEC
  0
SECTION
  2
OBJECTS
  0
DICTIONARY
  5
C
100
AcDbDictionary
280
0
281
1
  3
ACAD_GROUP
350
D
  3
ACAD_MLINESTYLE
350
17
  3
ACAD_LAYOUT
350
1A
  3
ACAD_PLOTSETTINGS
350
19
  3
ACAD_PLOTSTYLENAME
350
E
  0
DICTIONARY
  5
D
102
{ACAD_REACTORS
330
C
102
}
100
AcDbDictionary
280
0
281
1
  0
ACDBDICTIONARYWDFLT
  5
E
102
{ACAD_REACTORS
330
C
102
}
100
AcDbDictionary
281
1
  3
Normal
350
F
100
AcDbDictionaryWithDefault
340
F
  0
DICTIONARY
  5
17
102
{ACAD_REACTORS
330
C
102
}
100
AcDbDictionary
280
0
281
1
  3
Standard
350
18
  0
DICTIONARY
  5
19
102
{ACAD_REACTORS
330
C
102
}
100
AcDbDictionary
281
1
  0
DICTIONARY
  5
1A
102
{ACAD_REACTORS
330
C
102
}
100
AcDbDictionary
281
1
  3
Model
350
315
  3
Layout1
350
316
  0
ACDBPLACEHOLDER
  5
F
102
{ACAD_REACTORS
330
E
102
}
  0
MLINESTYLE
  5
18
102
{ACAD_REACTORS
330
17
102
}
100
AcDbMlineStyle
  2
STANDARD
 70
0
  3

 62
256
 51
90.0
 52
90.0
 71
2
 49
0.5
 62
256
  6
BYLAYER
 49
-0.5
 62
256
  6
BYLAYER
  0
LAYOUT
  5
315
102
{ACAD_REACTORS
330
1A
102
}
100
AcDbPlotSettings
  1

  2
none_device
  4

  6

 40
0.0
 41
0.0
 42
0.0
 43
0.0
 44
210.0
 45
297.0
 46
0.0
 47
0.0
 48
0.0
 49
0.0
140
0.0
141
0.0
142
1.0
143
1.0
 70
1024
 72
1
 73
0
 74
0
  7

 75
0
147
1.0
148
0.0
149
0.0
100
AcDbLayout
  1
Model
 70
0
 71
0
 10
0.0
 20
0.0
 11
210.0
 21
297.0
 12
0.0
 22
0.0
 32
0.0
 14
0.0
 24
0.0
 34
0.0
 15
0.0
 25
0.0
 35
0.0
146
0.0
 13
0.0
 23
0.0
 33
0.0
 16
1.0
 26
0.0
 36
0.0
 17
0.0
 27
1.0
 37
0.0
 76
0
330
210
345
0
346
0
  0
LAYOUT
  5
316
102
{ACAD_REACTORS
330
1A
102
}
100
AcDbPlotSettings
  1

  2
none_device
  4

  6

 40
0.0
 41
0.0
 42
0.0
 43
0.0
 44
210.0
 45
297.0
 46
0.0
 47
0.0
 48
0.0
 49
0.0
140
0.0
141
0.0
142
1.0
143
1.0
 70
0
 72
1
 73
0
 74
0
  7

 75
0
147
1.0
148
0.0
149
0.0
100
AcDbLayout
  1
Layout1
 70
0
 71
1
 10
0.0
 20
0.0
 11
210.0
 21
297.0
 12
0.0
 22
0.0
 32
0.0
 14
0.0
 24
0.0
 34
0.0
 15
0.0
 25
0.0
 35
0.0
146
0.0
 13
0.0
 23
0.0
 33
0.0
 16
1.0
 26
0.0
 36
0.0
 17
0.0
 27
1.0
 37
0.0
 76
0
330
211
345
0
346
0
  0
ENDSEC
  0
EOF
