999
DXF file: C:\Users\sesa63760\Dev\_Creo\CAD\MCADID0001769_3D-CAD\drw0001_4.dxf
999
Pro/ENGINEER 2019471 by Parametric Technology Corporation
  0
SECTION
  2
HEADER
  9
$ACADVER
  1
AC1024
  9
$DWGCODEPAGE
  3
ANSI_1252
  9
$EXTMAX
 10
66.4951675024
 20
94.0431654676
 30
0.0
  9
$EXTMIN
 10
0.0
 20
0.0
 30
0.0
  9
$LIMMIN
 10
0.0
 20
0.0
  9
$LIMMAX
 10
66.4951675024
 20
94.0431654676
  9
$VIEWCTR
 10
33.2475837512
 20
47.0215827338
  9
$VIEWSIZE
 40
94.0431654676
  9
$CLAYER
  8
0
  9
$LTSCALE
 40
6.1302211564
  9
$CELTYPE
  6
BYLAYER
  9
$DIMSCALE
 40
1.0
  9
$DIMASZ
 40
0.7916091369
  9
$DIMEXO
 40
1.0
  9
$DIMDLI
 40
4.2354255262
  9
$DIMEXE
 40
1.0
  9
$DIMCEN
 40
1.0031270983
  9
$DIMLFAC
 40
1.0
  9
$DIMBLK
  1
_FILLED
  9
$DIMALT
 70
0
  9
$DIMALTF
 40
0.0393700787
  9
$DIMTXT
 40
1.1082527917
  9
$DIMTOL
 70
1
  9
$DIMLIM
 70
0
  9
$DIMTFAC
 40
1.0
  9
$DIMTP
 40
0.01
  9
$DIMTM
 40
0.01
  9
$DIMGAP
 40
0.625
  9
$DIMDSEP
 70
46
  9
$AUNITS
 70
0
  9
$PDMODE
 70
3
  9
$PDSIZE
 40
0.3125
  9
$HANDSEED
  5
289
  9
$TILEMODE
 70
1
  9
$MEASUREMENT
 70
1
  9
$INSUNITS
 70
4
  0
ENDSEC
  0
SECTION
  2
CLASSES
  0
CLASS
  1
ACDBDICTIONARYWDFLT
  2
AcDbDictionaryWithDefault
  3
AutoCAD 2000
 90
0
 91
1
280
0
281
0
  0
CLASS
  1
ACDBPLACEHOLDER
  2
AcDbPlaceHolder
  3
AutoCAD 2000
 90
0
 91
1
280
0
281
0
  0
CLASS
  1
LAYOUT
  2
AcDbLayout
  3
AutoCAD 2000
 90
0
 91
0
280
0
281
0
  0
ENDSEC
  0
SECTION
  2
TABLES
  0
TABLE
  2
VPORT
  5
8
100
AcDbSymbolTable
 70
2
  0
VPORT
  5
1F4
100
AcDbSymbolTableRecord
100
AcDbViewportTableRecord
  2
*ACTIVE
 70
0
 10
0.0
 20
0.0
 11
1.0
 21
1.0
 12
33.2475837512
 22
47.0215827338
 13
0.0
 23
0.0
 14
1.0
 24
1.0
 15
0.0
 25
0.0
 16
0.0
 26
0.0
 36
1.0
 17
0.0
 27
0.0
 37
0.0
 40
94.0431654676
 41
0.7070707071
 42
50.0
 43
0.0
 44
0.0
 50
0.0
 51
0.0
 71
0
 72
100
 73
1
 74
1
 75
0
 76
0
 77
0
 78
0
  0
ENDTAB
  0
TABLE
  2
LTYPE
  5
5
100
AcDbSymbolTable
 70
6
  0
LTYPE
  5
14
100
AcDbSymbolTableRecord
100
AcDbLinetypeTableRecord
  2
BYBLOCK
 70
0
  3

 72
65
 73
0
 40
0.0
  0
LTYPE
  5
15
100
AcDbSymbolTableRecord
100
AcDbLinetypeTableRecord
  2
BYLAYER
 70
0
  3

 72
65
 73
0
 40
0.0
  0
LTYPE
  5
16
100
AcDbSymbolTableRecord
100
AcDbLinetypeTableRecord
  2
CONTINUOUS
 70
64
  3
Solid line
 72
65
 73
0
 40
0.0
  0
LTYPE
  5
1F5
100
AcDbSymbolTableRecord
100
AcDbLinetypeTableRecord
  2
CENTER
 70
64
  3
____ _ ____ _ ____ _ ____ _ ____ _ ____ _ ____
 72
65
 73
4
 40
0.6
 49
0.375
 74
0
 49
-0.075
 74
0
 49
0.075
 74
0
 49
-0.075
 74
0
  0
LTYPE
  5
1F6
100
AcDbSymbolTableRecord
100
AcDbLinetypeTableRecord
  2
HIDDEN
 70
64
  3
- - - - - - - - - - - - - - - - - - - -
 72
65
 73
2
 40
0.2
 49
0.1
 74
0
 49
-0.1
 74
0
  0
LTYPE
  5
1F7
100
AcDbSymbolTableRecord
100
AcDbLinetypeTableRecord
  2
PHANTOM
 70
64
  3
_____ _ _ _____ _ _ _____ _ _ _____
 72
65
 73
6
 40
0.8
 49
0.45
 74
0
 49
-0.05
 74
0
 49
0.1
 74
0
 49
-0.05
 74
0
 49
0.1
 74
0
 49
-0.05
 74
0
  0
LTYPE
  5
1F8
100
AcDbSymbolTableRecord
100
AcDbLinetypeTableRecord
  2
DOT
 70
64
  3
. . . . . . . . . . . . . . . . . . . .
 72
65
 73
2
 40
0.2
 49
0.1
 74
0
 49
-0.1
 74
0
  0
LTYPE
  5
1F9
100
AcDbSymbolTableRecord
100
AcDbLinetypeTableRecord
  2
DASHED
 70
64
  3
- - - - - - - - - - - - - - - - - - - -
 72
65
 73
2
 40
0.2
 49
0.1
 74
0
 49
-0.1
 74
0
  0
ENDTAB
  0
TABLE
  2
LAYER
  5
2
100
AcDbSymbolTable
 70
36
  0
LAYER
  5
10
100
AcDbSymbolTableRecord
100
AcDbLayerTableRecord
  2
0
 70
0
 62
7
  6
CONTINUOUS
370
-3
390
F
  0
LAYER
  5
1FA
100
AcDbSymbolTableRecord
100
AcDbLayerTableRecord
  2
DEFAULT_1
 70
0
 62
7
  6
CENTER
370
-3
390
F
  0
LAYER
  5
1FB
100
AcDbSymbolTableRecord
100
AcDbLayerTableRecord
  2
DEFAULT_2
 70
0
 62
8
  6
HIDDEN
370
-3
390
F
  0
LAYER
  5
1FC
100
AcDbSymbolTableRecord
100
AcDbLayerTableRecord
  2
DEFAULT_3
 70
0
 62
7
  6
PHANTOM
370
-3
390
F
  0
LAYER
  5
1FD
100
AcDbSymbolTableRecord
100
AcDbLayerTableRecord
  2
00_COMPONENTS
 70
0
 62
7
  6
CONTINUOUS
370
-3
390
F
  0
LAYER
  5
1FE
100
AcDbSymbolTableRecord
100
AcDbLayerTableRecord
  2
01_1_DEFAULT_DATUMS
 70
0
 62
7
  6
CONTINUOUS
370
-3
390
F
  0
LAYER
  5
1FF
100
AcDbSymbolTableRecord
100
AcDbLayerTableRecord
  2
01_PLANES
 70
0
 62
7
  6
CONTINUOUS
370
-3
390
F
  0
LAYER
  5
200
100
AcDbSymbolTableRecord
100
AcDbLayerTableRecord
  2
02_COORD_SYS
 70
0
 62
7
  6
CONTINUOUS
370
-3
390
F
  0
LAYER
  5
201
100
AcDbSymbolTableRecord
100
AcDbLayerTableRecord
  2
03_AXES
 70
0
 62
7
  6
CONTINUOUS
370
-3
390
F
  0
LAYER
  5
202
100
AcDbSymbolTableRecord
100
AcDbLayerTableRecord
  2
04_POINTS
 70
0
 62
7
  6
CONTINUOUS
370
-3
390
F
  0
LAYER
  5
203
100
AcDbSymbolTableRecord
100
AcDbLayerTableRecord
  2
05_CURVES
 70
0
 62
7
  6
CONTINUOUS
370
-3
390
F
  0
LAYER
  5
204
100
AcDbSymbolTableRecord
100
AcDbLayerTableRecord
  2
06_SURFS
 70
0
 62
7
  6
CONTINUOUS
370
-3
390
F
  0
LAYER
  5
205
100
AcDbSymbolTableRecord
100
AcDbLayerTableRecord
  2
07_COSMETICS
 70
0
 62
7
  6
CONTINUOUS
370
-3
390
F
  0
LAYER
  5
206
100
AcDbSymbolTableRecord
100
AcDbLayerTableRecord
  2
10_NOTES
 70
0
 62
7
  6
CONTINUOUS
370
-3
390
F
  0
LAYER
  5
207
100
AcDbSymbolTableRecord
100
AcDbLayerTableRecord
  2
11_NOTES_PUB
 70
0
 62
7
  6
CONTINUOUS
370
-3
390
F
  0
LAYER
  5
208
100
AcDbSymbolTableRecord
100
AcDbLayerTableRecord
  2
13_REF_GTOL
 70
0
 62
7
  6
CONTINUOUS
370
-3
390
F
  0
LAYER
  5
209
100
AcDbSymbolTableRecord
100
AcDbLayerTableRecord
  2
16_MISC
 70
0
 62
7
  6
CONTINUOUS
370
-3
390
F
  0
LAYER
  5
20A
100
AcDbSymbolTableRecord
100
AcDbLayerTableRecord
  2
17_NO_PRINT
 70
0
 62
7
  6
CONTINUOUS
370
-3
390
F
  0
LAYER
  5
20B
100
AcDbSymbolTableRecord
100
AcDbLayerTableRecord
  2
18_DATUM_CAMS_JOINTS
 70
0
 62
7
  6
CONTINUOUS
370
-3
390
F
  0
LAYER
  5
20C
100
AcDbSymbolTableRecord
100
AcDbLayerTableRecord
  2
19_DATUM_FUNCTIONAL
 70
0
 62
7
  6
CONTINUOUS
370
-3
390
F
  0
LAYER
  5
20D
100
AcDbSymbolTableRecord
100
AcDbLayerTableRecord
  2
20_DATUM_KINEMATIC_SCHEME
 70
0
 62
7
  6
CONTINUOUS
370
-3
390
F
  0
ENDTAB
  0
TABLE
  2
STYLE
  5
3
100
AcDbSymbolTable
 70
1
  0
STYLE
  5
11
100
AcDbSymbolTableRecord
100
AcDbTextStyleTableRecord
  2
STANDARD
 70
0
 40
0.0
 41
0.8
 50
0.0
 71
0
 42
0.2
  3
txt
  4

  0
STYLE
  5
20E
100
AcDbSymbolTableRecord
100
AcDbTextStyleTableRecord
  2
TEXTSTYLE_1
 70
0
 40
0.0
 41
0.8
 50
0.0
 71
0
 42
0.2
  3
gdt
  4

  0
ENDTAB
  0
TABLE
  2
VIEW
  5
6
100
AcDbSymbolTable
 70
0
  0
ENDTAB
  0
TABLE
  2
UCS
  5
7
100
AcDbSymbolTable
 70
0
  0
ENDTAB
  0
TABLE
  2
APPID
  5
9
100
AcDbSymbolTable
 70
1
  0
APPID
  5
20F
100
AcDbSymbolTableRecord
100
AcDbRegAppTableRecord
  2
ACAD
 70
0
  0
ENDTAB
  0
TABLE
  2
BLOCK_RECORD
  5
1
100
AcDbSymbolTable
 70
0
  0
BLOCK_RECORD
  5
210
100
AcDbSymbolTableRecord
100
AcDbBlockTableRecord
  2
*Model_Space
  0
BLOCK_RECORD
  5
211
100
AcDbSymbolTableRecord
100
AcDbBlockTableRecord
  2
*Paper_Space
  0
BLOCK_RECORD
  5
212
100
AcDbSymbolTableRecord
100
AcDbBlockTableRecord
  2
_FILLED
  0
ENDTAB
  0
TABLE
  2
DIMSTYLE
  5
A
100
AcDbSymbolTable
 70
1
100
AcDbDimStyleTable
 71
0
  0
DIMSTYLE
105
213
100
AcDbSymbolTableRecord
100
AcDbDimStyleTableRecord
  2
STANDARD
 70
0
  3

  4

 40
1.0
 41
0.7916091369
 42
1.0
 43
0.38
 44
1.0
 45
0.0
 46
0.0
 47
0.01
 48
0.01
140
1.1082527917
141
0.09
142
0.0
143
25.4
144
1.0
145
0.0
146
1.0
147
0.625
 71
1
 72
0
 73
0
 74
0
 75
0
 76
0
 77
1
 78
8
 79
2
170
0
171
1
172
0
173
0
174
0
175
0
176
0
177
0
178
0
270
2
179
2
271
2
272
2
273
2
274
2
275
0
280
0
281
0
282
0
283
1
284
8
285
0
286
0
287
3
288
0
340
11
278
46
341
212
342
212
343
212
344
212
  0
ENDTAB
  0
ENDSEC
  0
SECTION
  2
BLOCKS
  0
BLOCK
  5
20
100
AcDbEntity
  8
0
100
AcDbBlockBegin
  2
*Model_Space
 70
0
 10
0.0
 20
0.0
 30
0.0
  3
*Model_Space
  1

  0
ENDBLK
  5
21
100
AcDbEntity
  8
0
100
AcDbBlockEnd
  0
BLOCK
  5
1C
100
AcDbEntity
  8
0
100
AcDbBlockBegin
  2
*Paper_Space
 70
0
 10
0.0
 20
0.0
 30
0.0
  3
*Paper_Space
  1

  0
ENDBLK
  5
1D
100
AcDbEntity
  8
0
100
AcDbBlockEnd
  0
BLOCK
  5
214
100
AcDbEntity
  8
0
100
AcDbBlockBegin
  2
_FILLED
 70
64
 10
0.0
 20
0.0
  3
_FILLED
  1

  0
SOLID
  5
215
100
AcDbEntity
  8
0
  6
BYBLOCK
 62
0
100
AcDbTrace
 10
0.0
 20
0.0
 11
-1.0
 21
0.25
 12
-1.0
 22
-0.25
 13
-1.0
 23
-0.25
  0
ENDBLK
  5
216
100
AcDbEntity
  8
0
  6
BYBLOCK
 62
0
100
AcDbBlockEnd
  0
ENDSEC
  0
SECTION
  2
ENTITIES
  0
LINE
  5
217
100
AcDbEntity
  8
0
100
AcDbLine
 62
7
  6
CONTINUOUS
 10
22.6608931037
 20
9.7338129496
 11
25.3608931037
 21
9.7338129496
  0
LINE
  5
218
100
AcDbEntity
  8
0
100
AcDbLine
 62
7
  6
CONTINUOUS
 10
42.8608931037
 20
9.7338129496
 11
45.5608931037
 21
9.7338129496
  0
LINE
  5
219
100
AcDbEntity
  8
0
100
AcDbLine
 62
7
  6
CONTINUOUS
 10
45.5608931037
 20
11.0838129496
 11
42.8608931037
 21
11.0838129496
  0
LINE
  5
21A
100
AcDbEntity
  8
0
100
AcDbLine
 62
7
  6
CONTINUOUS
 10
25.3608931037
 20
11.0838129496
 11
22.6608931037
 21
11.0838129496
  0
LINE
  5
21B
100
AcDbEntity
  8
0
100
AcDbLine
 62
7
  6
CONTINUOUS
 10
42.8608931037
 20
13.7338129496
 11
25.3608931037
 21
13.7338129496
  0
LINE
  5
21C
100
AcDbEntity
  8
0
100
AcDbLine
 62
7
  6
CONTINUOUS
 10
22.6608931037
 20
9.7338129496
 11
22.6608931037
 21
86.7338129496
  0
LINE
  5
21D
100
AcDbEntity
  8
0
100
AcDbLine
 62
7
  6
CONTINUOUS
 10
22.6862931037
 20
9.7338129496
 11
22.6862931037
 21
8.1338129496
  0
LINE
  5
21E
100
AcDbEntity
  8
0
100
AcDbLine
 62
7
  6
CONTINUOUS
 10
22.6862931037
 20
37.2338129496
 11
22.6862931037
 21
56.1788129496
  0
LINE
  5
21F
100
AcDbEntity
  8
0
100
AcDbLine
 62
7
  6
CONTINUOUS
 10
22.6862931037
 20
57.9338129496
 11
22.6862931037
 21
76.8788129496
  0
LINE
  5
220
100
AcDbEntity
  8
0
100
AcDbLine
 62
7
  6
CONTINUOUS
 10
23.6383431037
 20
61.0280517739
 11
23.6383431037
 21
57.9338129496
  0
LINE
  5
221
100
AcDbEntity
  8
0
100
AcDbLine
 62
7
  6
CONTINUOUS
 10
23.6383431037
 20
40.3280517739
 11
23.6383431037
 21
37.2338129496
  0
LINE
  5
222
100
AcDbEntity
  8
0
100
AcDbLine
 62
7
  6
CONTINUOUS
 10
23.9556931037
 20
74.767146283
 11
23.9556931037
 21
64.267146283
  0
LINE
  5
223
100
AcDbEntity
  8
0
100
AcDbLine
 62
7
  6
CONTINUOUS
 10
23.9556931037
 20
54.067146283
 11
23.9556931037
 21
43.567146283
  0
LINE
  5
224
100
AcDbEntity
  8
0
100
AcDbLine
 62
7
  6
CONTINUOUS
 10
25.3608931037
 20
13.7338129496
 11
25.3608931037
 21
9.7338129496
  0
LINE
  5
225
100
AcDbEntity
  8
0
100
AcDbLine
 62
7
  6
CONTINUOUS
 10
25.3862931037
 20
7.545154153
 11
25.3862931037
 21
13.7338129496
  0
LINE
  5
226
100
AcDbEntity
  8
0
100
AcDbLine
 62
7
  6
CONTINUOUS
 10
22.6862931037
 20
37.2338129496
 11
23.6383431037
 21
37.2338129496
  0
LINE
  5
227
100
AcDbEntity
  8
0
100
AcDbLine
 62
7
  6
CONTINUOUS
 10
29.8266681037
 20
37.2338129496
 11
30.7787181037
 21
37.2338129496
  0
LINE
  5
228
100
AcDbEntity
  8
0
100
AcDbLine
 62
7
  6
CONTINUOUS
 10
37.4430681037
 20
37.2338129496
 11
38.3951181037
 21
37.2338129496
  0
LINE
  5
229
100
AcDbEntity
  8
0
100
AcDbLine
 62
7
  6
CONTINUOUS
 10
44.5834431037
 20
37.2338129496
 11
45.5354931037
 21
37.2338129496
  0
LINE
  5
22A
100
AcDbEntity
  8
0
100
AcDbLine
 62
7
  6
CONTINUOUS
 10
23.6383431037
 20
39.2338129496
 11
29.8266681037
 21
39.2338129496
  0
LINE
  5
22B
100
AcDbEntity
  8
0
100
AcDbLine
 62
7
  6
CONTINUOUS
 10
30.7787181037
 20
39.2338129496
 11
37.4430681037
 21
39.2338129496
  0
LINE
  5
22C
100
AcDbEntity
  8
0
100
AcDbLine
 62
7
  6
CONTINUOUS
 10
38.3951181037
 20
39.2338129496
 11
44.5834431037
 21
39.2338129496
  0
LINE
  5
22D
100
AcDbEntity
  8
0
100
AcDbLine
 62
7
  6
CONTINUOUS
 10
45.5354931037
 20
40.3280517739
 11
44.5834431037
 21
40.3280517739
  0
LINE
  5
22E
100
AcDbEntity
  8
0
100
AcDbLine
 62
7
  6
CONTINUOUS
 10
38.3951181037
 20
40.3280517739
 11
37.4430681037
 21
40.3280517739
  0
LINE
  5
22F
100
AcDbEntity
  8
0
100
AcDbLine
 62
7
  6
CONTINUOUS
 10
30.7787181037
 20
40.3280517739
 11
29.8266681037
 21
40.3280517739
  0
LINE
  5
230
100
AcDbEntity
  8
0
100
AcDbLine
 62
7
  6
CONTINUOUS
 10
23.6383431037
 20
40.3280517739
 11
22.6862931037
 21
40.3280517739
  0
LINE
  5
231
100
AcDbEntity
  8
0
100
AcDbLine
 62
7
  6
CONTINUOUS
 10
45.5354931037
 20
41.2338129496
 11
22.6862931037
 21
41.2338129496
  0
LINE
  5
232
100
AcDbEntity
  8
0
100
AcDbLine
 62
7
  6
CONTINUOUS
 10
29.0332931037
 20
43.567146283
 11
29.0332931037
 21
54.067146283
  0
LINE
  5
233
100
AcDbEntity
  8
0
100
AcDbLine
 62
7
  6
CONTINUOUS
 10
29.0332931037
 20
64.267146283
 11
29.0332931037
 21
74.767146283
  0
LINE
  5
234
100
AcDbEntity
  8
0
100
AcDbLine
 62
7
  6
CONTINUOUS
 10
29.8266681037
 20
37.2338129496
 11
29.8266681037
 21
40.3280517739
  0
LINE
  5
235
100
AcDbEntity
  8
0
100
AcDbLine
 62
7
  6
CONTINUOUS
 10
29.8266681037
 20
57.9338129496
 11
29.8266681037
 21
61.0280517739
  0
LINE
  5
236
100
AcDbEntity
  8
0
100
AcDbLine
 62
7
  6
CONTINUOUS
 10
30.7787181037
 20
61.0280517739
 11
30.7787181037
 21
57.9338129496
  0
LINE
  5
237
100
AcDbEntity
  8
0
100
AcDbLine
 62
7
  6
CONTINUOUS
 10
30.7787181037
 20
40.3280517739
 11
30.7787181037
 21
37.2338129496
  0
LINE
  5
238
100
AcDbEntity
  8
0
100
AcDbLine
 62
7
  6
CONTINUOUS
 10
31.5720931037
 20
74.767146283
 11
31.5720931037
 21
64.267146283
  0
LINE
  5
239
100
AcDbEntity
  8
0
100
AcDbLine
 62
7
  6
CONTINUOUS
 10
31.5720931037
 20
54.067146283
 11
31.5720931037
 21
43.567146283
  0
LINE
  5
23A
100
AcDbEntity
  8
0
100
AcDbLine
 62
7
  6
CONTINUOUS
 10
23.9556931037
 20
43.567146283
 11
29.0332931037
 21
43.567146283
  0
LINE
  5
23B
100
AcDbEntity
  8
0
100
AcDbLine
 62
7
  6
CONTINUOUS
 10
31.5720931037
 20
43.567146283
 11
36.6496931037
 21
43.567146283
  0
LINE
  5
23C
100
AcDbEntity
  8
0
100
AcDbLine
 62
7
  6
CONTINUOUS
 10
39.1884931037
 20
43.567146283
 11
44.2660931037
 21
43.567146283
  0
LINE
  5
23D
100
AcDbEntity
  8
0
100
AcDbLine
 62
7
  6
CONTINUOUS
 10
36.6496931037
 20
43.567146283
 11
36.6496931037
 21
54.067146283
  0
LINE
  5
23E
100
AcDbEntity
  8
0
100
AcDbLine
 62
7
  6
CONTINUOUS
 10
36.6496931037
 20
64.267146283
 11
36.6496931037
 21
74.767146283
  0
LINE
  5
23F
100
AcDbEntity
  8
0
100
AcDbLine
 62
7
  6
CONTINUOUS
 10
37.4430681037
 20
37.2338129496
 11
37.4430681037
 21
40.3280517739
  0
LINE
  5
240
100
AcDbEntity
  8
0
100
AcDbLine
 62
7
  6
CONTINUOUS
 10
37.4430681037
 20
57.9338129496
 11
37.4430681037
 21
61.0280517739
  0
LINE
  5
241
100
AcDbEntity
  8
0
100
AcDbLine
 62
7
  6
CONTINUOUS
 10
38.3951181037
 20
61.0280517739
 11
38.3951181037
 21
57.9338129496
  0
LINE
  5
242
100
AcDbEntity
  8
0
100
AcDbLine
 62
7
  6
CONTINUOUS
 10
38.3951181037
 20
40.3280517739
 11
38.3951181037
 21
37.2338129496
  0
LINE
  5
243
100
AcDbEntity
  8
0
100
AcDbLine
 62
7
  6
CONTINUOUS
 10
39.1884931037
 20
74.767146283
 11
39.1884931037
 21
64.267146283
  0
LINE
  5
244
100
AcDbEntity
  8
0
100
AcDbLine
 62
7
  6
CONTINUOUS
 10
39.1884931037
 20
54.067146283
 11
39.1884931037
 21
43.567146283
  0
LINE
  5
245
100
AcDbEntity
  8
0
100
AcDbLine
 62
7
  6
CONTINUOUS
 10
23.9556931037
 20
51.442146283
 11
29.0332931037
 21
51.442146283
  0
LINE
  5
246
100
AcDbEntity
  8
0
100
AcDbLine
 62
7
  6
CONTINUOUS
 10
31.5720931037
 20
51.442146283
 11
36.6496931037
 21
51.442146283
  0
LINE
  5
247
100
AcDbEntity
  8
0
100
AcDbLine
 62
7
  6
CONTINUOUS
 10
39.1884931037
 20
51.442146283
 11
44.2660931037
 21
51.442146283
  0
LINE
  5
248
100
AcDbEntity
  8
0
100
AcDbLine
 62
7
  6
CONTINUOUS
 10
44.2660931037
 20
54.067146283
 11
39.1884931037
 21
54.067146283
  0
LINE
  5
249
100
AcDbEntity
  8
0
100
AcDbLine
 62
7
  6
CONTINUOUS
 10
36.6496931037
 20
54.067146283
 11
31.5720931037
 21
54.067146283
  0
LINE
  5
24A
100
AcDbEntity
  8
0
100
AcDbLine
 62
7
  6
CONTINUOUS
 10
29.0332931037
 20
54.067146283
 11
23.9556931037
 21
54.067146283
  0
LINE
  5
24B
100
AcDbEntity
  8
0
100
AcDbLine
 62
7
  6
CONTINUOUS
 10
42.8354931037
 20
13.7338129496
 11
42.8354931037
 21
7.545154153
  0
LINE
  5
24C
100
AcDbEntity
  8
0
100
AcDbLine
 62
7
  6
CONTINUOUS
 10
42.8608931037
 20
9.7338129496
 11
42.8608931037
 21
13.7338129496
  0
LINE
  5
24D
100
AcDbEntity
  8
0
100
AcDbLine
 62
7
  6
CONTINUOUS
 10
44.2660931037
 20
43.567146283
 11
44.2660931037
 21
54.067146283
  0
LINE
  5
24E
100
AcDbEntity
  8
0
100
AcDbLine
 62
7
  6
CONTINUOUS
 10
44.2660931037
 20
64.267146283
 11
44.2660931037
 21
74.767146283
  0
LINE
  5
24F
100
AcDbEntity
  8
0
100
AcDbLine
 62
7
  6
CONTINUOUS
 10
44.5834431037
 20
37.2338129496
 11
44.5834431037
 21
40.3280517739
  0
LINE
  5
250
100
AcDbEntity
  8
0
100
AcDbLine
 62
7
  6
CONTINUOUS
 10
44.5834431037
 20
57.9338129496
 11
44.5834431037
 21
61.0280517739
  0
LINE
  5
251
100
AcDbEntity
  8
0
100
AcDbLine
 62
7
  6
CONTINUOUS
 10
45.5354931037
 20
76.8788129496
 11
45.5354931037
 21
57.9338129496
  0
LINE
  5
252
100
AcDbEntity
  8
0
100
AcDbLine
 62
7
  6
CONTINUOUS
 10
45.5354931037
 20
56.1788129496
 11
45.5354931037
 21
37.2338129496
  0
LINE
  5
253
100
AcDbEntity
  8
0
100
AcDbLine
 62
7
  6
CONTINUOUS
 10
45.5354931037
 20
8.1338129496
 11
45.5354931037
 21
9.7338129496
  0
LINE
  5
254
100
AcDbEntity
  8
0
100
AcDbLine
 62
7
  6
CONTINUOUS
 10
45.5608931037
 20
86.7338129496
 11
45.5608931037
 21
9.7338129496
  0
LINE
  5
255
100
AcDbEntity
  8
0
100
AcDbLine
 62
7
  6
CONTINUOUS
 10
45.5608931037
 20
56.1788129496
 11
22.6608931037
 21
56.1788129496
  0
LINE
  5
256
100
AcDbEntity
  8
0
100
AcDbLine
 62
7
  6
CONTINUOUS
 10
22.6862931037
 20
57.9338129496
 11
23.6383431037
 21
57.9338129496
  0
LINE
  5
257
100
AcDbEntity
  8
0
100
AcDbLine
 62
7
  6
CONTINUOUS
 10
29.8266681037
 20
57.9338129496
 11
30.7787181037
 21
57.9338129496
  0
LINE
  5
258
100
AcDbEntity
  8
0
100
AcDbLine
 62
7
  6
CONTINUOUS
 10
37.4430681037
 20
57.9338129496
 11
38.3951181037
 21
57.9338129496
  0
LINE
  5
259
100
AcDbEntity
  8
0
100
AcDbLine
 62
7
  6
CONTINUOUS
 10
44.5834431037
 20
57.9338129496
 11
45.5354931037
 21
57.9338129496
  0
LINE
  5
25A
100
AcDbEntity
  8
0
100
AcDbLine
 62
7
  6
CONTINUOUS
 10
23.6383431037
 20
59.9338129496
 11
29.8266681037
 21
59.9338129496
  0
LINE
  5
25B
100
AcDbEntity
  8
0
100
AcDbLine
 62
7
  6
CONTINUOUS
 10
30.7787181037
 20
59.9338129496
 11
37.4430681037
 21
59.9338129496
  0
LINE
  5
25C
100
AcDbEntity
  8
0
100
AcDbLine
 62
7
  6
CONTINUOUS
 10
38.3951181037
 20
59.9338129496
 11
44.5834431037
 21
59.9338129496
  0
LINE
  5
25D
100
AcDbEntity
  8
0
100
AcDbLine
 62
7
  6
CONTINUOUS
 10
45.5354931037
 20
61.0280517739
 11
44.5834431037
 21
61.0280517739
  0
LINE
  5
25E
100
AcDbEntity
  8
0
100
AcDbLine
 62
7
  6
CONTINUOUS
 10
38.3951181037
 20
61.0280517739
 11
37.4430681037
 21
61.0280517739
  0
LINE
  5
25F
100
AcDbEntity
  8
0
100
AcDbLine
 62
7
  6
CONTINUOUS
 10
30.7787181037
 20
61.0280517739
 11
29.8266681037
 21
61.0280517739
  0
LINE
  5
260
100
AcDbEntity
  8
0
100
AcDbLine
 62
7
  6
CONTINUOUS
 10
23.6383431037
 20
61.0280517739
 11
22.6862931037
 21
61.0280517739
  0
LINE
  5
261
100
AcDbEntity
  8
0
100
AcDbLine
 62
7
  6
CONTINUOUS
 10
45.5354931037
 20
61.9338129496
 11
22.6862931037
 21
61.9338129496
  0
LINE
  5
262
100
AcDbEntity
  8
0
100
AcDbLine
 62
7
  6
CONTINUOUS
 10
23.9556931037
 20
64.267146283
 11
29.0332931037
 21
64.267146283
  0
LINE
  5
263
100
AcDbEntity
  8
0
100
AcDbLine
 62
7
  6
CONTINUOUS
 10
31.5720931037
 20
64.267146283
 11
36.6496931037
 21
64.267146283
  0
LINE
  5
264
100
AcDbEntity
  8
0
100
AcDbLine
 62
7
  6
CONTINUOUS
 10
39.1884931037
 20
64.267146283
 11
44.2660931037
 21
64.267146283
  0
LINE
  5
265
100
AcDbEntity
  8
0
100
AcDbLine
 62
7
  6
CONTINUOUS
 10
23.9556931037
 20
72.142146283
 11
29.0332931037
 21
72.142146283
  0
LINE
  5
266
100
AcDbEntity
  8
0
100
AcDbLine
 62
7
  6
CONTINUOUS
 10
31.5720931037
 20
72.142146283
 11
36.6496931037
 21
72.142146283
  0
LINE
  5
267
100
AcDbEntity
  8
0
100
AcDbLine
 62
7
  6
CONTINUOUS
 10
39.1884931037
 20
72.142146283
 11
44.2660931037
 21
72.142146283
  0
LINE
  5
268
100
AcDbEntity
  8
0
100
AcDbLine
 62
7
  6
CONTINUOUS
 10
44.2660931037
 20
74.767146283
 11
39.1884931037
 21
74.767146283
  0
LINE
  5
269
100
AcDbEntity
  8
0
100
AcDbLine
 62
7
  6
CONTINUOUS
 10
36.6496931037
 20
74.767146283
 11
31.5720931037
 21
74.767146283
  0
LINE
  5
26A
100
AcDbEntity
  8
0
100
AcDbLine
 62
7
  6
CONTINUOUS
 10
29.0332931037
 20
74.767146283
 11
23.9556931037
 21
74.767146283
  0
LINE
  5
26B
100
AcDbEntity
  8
0
100
AcDbLine
 62
7
  6
CONTINUOUS
 10
45.5608931037
 20
76.8788129496
 11
22.6608931037
 21
76.8788129496
  0
LINE
  5
26C
100
AcDbEntity
  8
0
100
AcDbLine
 62
7
  6
CONTINUOUS
 10
45.5608931037
 20
85.2738129496
 11
22.6608931037
 21
85.2738129496
  0
LINE
  5
26D
100
AcDbEntity
  8
0
100
AcDbLine
 62
7
  6
CONTINUOUS
 10
45.5608931037
 20
86.7338129496
 11
22.6608931037
 21
86.7338129496
  0
ARC
  5
26E
100
AcDbEntity
  8
0
100
AcDbCircle
 62
7
  6
CONTINUOUS
 10
34.1108931037
 20
54.0486290782
 40
47.3148161286
100
AcDbArc
 50
256.027317533
 51
283.972682467
  0
SPLINE
  5
26F
100
AcDbEntity
  8
0
100
AcDbSpline
 62
7
  6
CONTINUOUS
 70
0
 71
3
 72
20
 73
16
 74
0
 42
0.0000001
 43
0.0000001
 44
0.0000000001
 40
0.0
 40
0.0
 40
0.0
 40
0.0
 40
0.0123432163
 40
0.0206743637
 40
0.0308312941
 40
0.0570919269
 40
0.0915735981
 40
0.1341772052
 40
0.1846556148
 40
0.2426244537
 40
0.307590212
 40
0.4562747535
 40
0.6254633022
 40
0.8091154662
 40
1.0
 40
1.0
 40
1.0
 40
1.0
 10
29.0332925872
 20
60.1499225155
 30
0.0
 10
29.0332971594
 20
60.1606551301
 30
0.0
 10
29.0241613833
 20
60.1781203529
 30
0.0
 10
29.0050675091
 20
60.1966566966
 30
0.0
 10
28.9735182994
 20
60.2197859741
 30
0.0
 10
28.9184189529
 20
60.2479107669
 30
0.0
 10
28.8346171955
 20
60.2805457548
 30
0.0
 10
28.7286658979
 20
60.3136018083
 30
0.0
 10
28.6015091355
 20
60.3466258909
 30
0.0
 10
28.4542065517
 20
60.3789912486
 30
0.0
 10
28.2220200034
 20
60.4223911266
 30
0.0
 10
27.8923565193
 20
60.469678734
 30
0.0
 10
27.4582656405
 20
60.5125392518
 30
0.0
 10
26.986169303
 20
60.5400238444
 30
0.0
 10
26.6604701282
 20
60.5464352895
 30
0.0
 10
26.4944931037
 20
60.5464352895
 30
0.0
  0
SPLINE
  5
270
100
AcDbEntity
  8
0
100
AcDbSpline
 62
7
  6
CONTINUOUS
 70
0
 71
3
 72
20
 73
16
 74
0
 42
0.0000001
 43
0.0000001
 44
0.0000000001
 40
0.0
 40
0.0
 40
0.0
 40
0.0
 40
0.0123432163
 40
0.0206743637
 40
0.0308312941
 40
0.0570919269
 40
0.0915735981
 40
0.1341772052
 40
0.1846556148
 40
0.2426244537
 40
0.307590212
 40
0.4562747535
 40
0.6254633022
 40
0.8091154662
 40
1.0
 40
1.0
 40
1.0
 40
1.0
 10
36.6496925872
 20
60.1499225155
 30
0.0
 10
36.6496971594
 20
60.1606551301
 30
0.0
 10
36.6405613833
 20
60.1781203529
 30
0.0
 10
36.6214675091
 20
60.1966566966
 30
0.0
 10
36.5899182994
 20
60.2197859741
 30
0.0
 10
36.5348189529
 20
60.2479107669
 30
0.0
 10
36.4510171955
 20
60.2805457548
 30
0.0
 10
36.3450658979
 20
60.3136018083
 30
0.0
 10
36.2179091355
 20
60.3466258909
 30
0.0
 10
36.0706065517
 20
60.3789912486
 30
0.0
 10
35.8384200034
 20
60.4223911266
 30
0.0
 10
35.5087565193
 20
60.469678734
 30
0.0
 10
35.0746656405
 20
60.5125392518
 30
0.0
 10
34.602569303
 20
60.5400238444
 30
0.0
 10
34.2768701282
 20
60.5464352895
 30
0.0
 10
34.1108931037
 20
60.5464352895
 30
0.0
  0
SPLINE
  5
271
100
AcDbEntity
  8
0
100
AcDbSpline
 62
7
  6
CONTINUOUS
 70
0
 71
3
 72
20
 73
16
 74
0
 42
0.0000001
 43
0.0000001
 44
0.0000000001
 40
0.0
 40
0.0
 40
0.0
 40
0.0
 40
0.0123432163
 40
0.0206743637
 40
0.0308312941
 40
0.0570919269
 40
0.0915735981
 40
0.1341772052
 40
0.1846556148
 40
0.2426244537
 40
0.307590212
 40
0.4562747535
 40
0.6254633022
 40
0.8091154662
 40
1.0
 40
1.0
 40
1.0
 40
1.0
 10
44.2660925872
 20
60.1499225155
 30
0.0
 10
44.2660971594
 20
60.1606551301
 30
0.0
 10
44.2569613833
 20
60.1781203529
 30
0.0
 10
44.2378675091
 20
60.1966566966
 30
0.0
 10
44.2063182994
 20
60.2197859741
 30
0.0
 10
44.1512189529
 20
60.2479107669
 30
0.0
 10
44.0674171955
 20
60.2805457548
 30
0.0
 10
43.9614658979
 20
60.3136018083
 30
0.0
 10
43.8343091355
 20
60.3466258909
 30
0.0
 10
43.6870065517
 20
60.3789912486
 30
0.0
 10
43.4548200034
 20
60.4223911266
 30
0.0
 10
43.1251565193
 20
60.469678734
 30
0.0
 10
42.6910656405
 20
60.5125392518
 30
0.0
 10
42.218969303
 20
60.5400238444
 30
0.0
 10
41.8932701282
 20
60.5464352895
 30
0.0
 10
41.7272931037
 20
60.5464352895
 30
0.0
  0
SPLINE
  5
272
100
AcDbEntity
  8
0
100
AcDbSpline
 62
7
  6
CONTINUOUS
 70
0
 71
3
 72
20
 73
16
 74
0
 42
0.0000001
 43
0.0000001
 44
0.0000000001
 40
0.0
 40
0.0
 40
0.0
 40
0.0
 40
0.0123431697
 40
0.0206742643
 40
0.0308311525
 40
0.0570918107
 40
0.0915735412
 40
0.1341771721
 40
0.1846555828
 40
0.2426243715
 40
0.3075901466
 40
0.4562749564
 40
0.6254635349
 40
0.8091155757
 40
1.0
 40
1.0
 40
1.0
 40
1.0
 10
29.0332926067
 20
39.4499224322
 30
0.0
 10
29.0332971037
 20
39.4606550055
 30
0.0
 10
29.0241613531
 20
39.4781201084
 30
0.0
 10
29.0050674976
 20
39.4966563066
 30
0.0
 10
28.973518269
 20
39.5197854423
 30
0.0
 10
28.9184188752
 20
39.5479101846
 30
0.0
 10
28.8346171986
 20
39.5805455983
 30
0.0
 10
28.728665954
 20
39.6136020677
 30
0.0
 10
28.601509216
 20
39.646626139
 30
0.0
 10
28.4542065848
 20
39.6789911063
 30
0.0
 10
28.2220197996
 20
39.7223906568
 30
0.0
 10
27.8923563228
 20
39.769680071
 30
0.0
 10
27.4582650668
 20
39.812538562
 30
0.0
 10
26.9861689268
 20
39.840021657
 30
0.0
 10
26.6604700199
 20
39.8464352895
 30
0.0
 10
26.4944931037
 20
39.8464352895
 30
0.0
  0
SPLINE
  5
273
100
AcDbEntity
  8
0
100
AcDbSpline
 62
7
  6
CONTINUOUS
 70
0
 71
3
 72
20
 73
16
 74
0
 42
0.0000001
 43
0.0000001
 44
0.0000000001
 40
0.0
 40
0.0
 40
0.0
 40
0.0
 40
0.0123432163
 40
0.0206743637
 40
0.0308312941
 40
0.0570919269
 40
0.0915735981
 40
0.1341772052
 40
0.1846556148
 40
0.2426244537
 40
0.307590212
 40
0.4562747535
 40
0.6254633022
 40
0.8091154662
 40
1.0
 40
1.0
 40
1.0
 40
1.0
 10
36.6496925872
 20
39.4499225155
 30
0.0
 10
36.6496971594
 20
39.4606551301
 30
0.0
 10
36.6405613833
 20
39.4781203529
 30
0.0
 10
36.6214675091
 20
39.4966566966
 30
0.0
 10
36.5899182994
 20
39.5197859741
 30
0.0
 10
36.5348189529
 20
39.5479107669
 30
0.0
 10
36.4510171955
 20
39.5805457548
 30
0.0
 10
36.3450658979
 20
39.6136018083
 30
0.0
 10
36.2179091355
 20
39.6466258909
 30
0.0
 10
36.0706065517
 20
39.6789912486
 30
0.0
 10
35.8384200034
 20
39.7223911266
 30
0.0
 10
35.5087565193
 20
39.769678734
 30
0.0
 10
35.0746656405
 20
39.8125392518
 30
0.0
 10
34.602569303
 20
39.8400238444
 30
0.0
 10
34.2768701282
 20
39.8464352895
 30
0.0
 10
34.1108931037
 20
39.8464352895
 30
0.0
  0
SPLINE
  5
274
100
AcDbEntity
  8
0
100
AcDbSpline
 62
7
  6
CONTINUOUS
 70
0
 71
3
 72
20
 73
16
 74
0
 42
0.0000001
 43
0.0000001
 44
0.0000000001
 40
0.0
 40
0.0
 40
0.0
 40
0.0
 40
0.0123432163
 40
0.0206743637
 40
0.0308312941
 40
0.0570919269
 40
0.0915735981
 40
0.1341772052
 40
0.1846556148
 40
0.2426244537
 40
0.307590212
 40
0.4562747535
 40
0.6254633022
 40
0.8091154662
 40
1.0
 40
1.0
 40
1.0
 40
1.0
 10
44.2660925872
 20
39.4499225155
 30
0.0
 10
44.2660971594
 20
39.4606551301
 30
0.0
 10
44.2569613833
 20
39.4781203529
 30
0.0
 10
44.2378675091
 20
39.4966566966
 30
0.0
 10
44.2063182994
 20
39.5197859741
 30
0.0
 10
44.1512189529
 20
39.5479107669
 30
0.0
 10
44.0674171955
 20
39.5805457548
 30
0.0
 10
43.9614658979
 20
39.6136018083
 30
0.0
 10
43.8343091355
 20
39.6466258909
 30
0.0
 10
43.6870065517
 20
39.6789912486
 30
0.0
 10
43.4548200034
 20
39.7223911266
 30
0.0
 10
43.1251565193
 20
39.769678734
 30
0.0
 10
42.6910656405
 20
39.8125392518
 30
0.0
 10
42.218969303
 20
39.8400238444
 30
0.0
 10
41.8932701282
 20
39.8464352895
 30
0.0
 10
41.7272931037
 20
39.8464352895
 30
0.0
  0
SPLINE
  5
275
100
AcDbEntity
  8
0
100
AcDbSpline
 62
7
  6
CONTINUOUS
 70
0
 71
3
 72
20
 73
16
 74
0
 42
0.0000001
 43
0.0000001
 44
0.0000000001
 40
0.0
 40
0.0
 40
0.0
 40
0.0
 40
0.190889007
 40
0.3745551906
 40
0.5437537635
 40
0.692440244
 40
0.7574047367
 40
0.8153694663
 40
0.8658446109
 40
0.9084406963
 40
0.9429150549
 40
0.9691722585
 40
0.9793276731
 40
0.9876576457
 40
1.0
 40
1.0
 40
1.0
 40
1.0
 10
26.4944931037
 20
60.5464352895
 30
0.0
 10
26.3285120442
 20
60.5464352895
 30
0.0
 10
26.0027964143
 20
60.5400257935
 30
0.0
 10
25.5306752373
 20
60.5125325198
 30
0.0
 10
25.096561923
 20
60.4696666002
 30
0.0
 10
24.7668886113
 20
60.4223799109
 30
0.0
 10
24.53470506
 20
60.3789787321
 30
0.0
 10
24.3874112493
 20
60.3466075889
 30
0.0
 10
24.2602683524
 20
60.3135815902
 30
0.0
 10
24.1543317842
 20
60.2805308689
 30
0.0
 10
24.0705445673
 20
60.2479025791
 30
0.0
 10
24.0154538117
 20
60.2197836691
 30
0.0
 10
23.983910483
 20
60.1966553668
 30
0.0
 10
23.9648207255
 20
60.1781187056
 30
0.0
 10
23.9556890043
 20
60.1606542874
 30
0.0
 10
23.9556936391
 20
60.149922413
 30
0.0
  0
SPLINE
  5
276
100
AcDbEntity
  8
0
100
AcDbSpline
 62
7
  6
CONTINUOUS
 70
0
 71
3
 72
20
 73
16
 74
0
 42
0.0000001
 43
0.0000001
 44
0.0000000001
 40
0.0
 40
0.0
 40
0.0
 40
0.0
 40
0.190889055
 40
0.3745553889
 40
0.5437539937
 40
0.6924402378
 40
0.7574047165
 40
0.8153694904
 40
0.8658446451
 40
0.9084406593
 40
0.9429149189
 40
0.9691720902
 40
0.9793275316
 40
0.9876575494
 40
1.0
 40
1.0
 40
1.0
 40
1.0
 10
34.1108931037
 20
60.5464352895
 30
0.0
 10
33.9449119819
 20
60.5464352895
 30
0.0
 10
33.6191961011
 20
60.5400279608
 30
0.0
 10
33.1470746742
 20
60.5125333032
 30
0.0
 10
32.7129616226
 20
60.4696652255
 30
0.0
 10
32.3832882149
 20
60.4223802867
 30
0.0
 10
32.151104854
 20
60.3789788355
 30
0.0
 10
32.0038110835
 20
60.3466072651
 30
0.0
 10
31.8766682059
 20
60.3135812156
 30
0.0
 10
31.7707316308
 20
60.2805309651
 30
0.0
 10
31.68694439
 20
60.2479031862
 30
0.0
 10
31.6318536784
 20
60.2197843252
 30
0.0
 10
31.6003104133
 20
60.1966558647
 30
0.0
 10
31.5812206601
 20
60.1781189787
 30
0.0
 10
31.5720889806
 20
60.1606544005
 30
0.0
 10
31.5720936468
 20
60.149922441
 30
0.0
  0
SPLINE
  5
277
100
AcDbEntity
  8
0
100
AcDbSpline
 62
7
  6
CONTINUOUS
 70
0
 71
3
 72
20
 73
16
 74
0
 42
0.0000001
 43
0.0000001
 44
0.0000000001
 40
0.0
 40
0.0
 40
0.0
 40
0.0
 40
0.190889007
 40
0.3745551906
 40
0.5437537635
 40
0.692440244
 40
0.7574047367
 40
0.8153694663
 40
0.8658446109
 40
0.9084406963
 40
0.9429150549
 40
0.9691722585
 40
0.9793276731
 40
0.9876576457
 40
1.0
 40
1.0
 40
1.0
 40
1.0
 10
41.7272931037
 20
60.5464352895
 30
0.0
 10
41.5613120442
 20
60.5464352895
 30
0.0
 10
41.2355964143
 20
60.5400257935
 30
0.0
 10
40.7634752373
 20
60.5125325198
 30
0.0
 10
40.329361923
 20
60.4696666002
 30
0.0
 10
39.9996886113
 20
60.4223799109
 30
0.0
 10
39.76750506
 20
60.3789787321
 30
0.0
 10
39.6202112493
 20
60.3466075889
 30
0.0
 10
39.4930683524
 20
60.3135815902
 30
0.0
 10
39.3871317842
 20
60.2805308689
 30
0.0
 10
39.3033445673
 20
60.2479025791
 30
0.0
 10
39.2482538117
 20
60.2197836691
 30
0.0
 10
39.216710483
 20
60.1966553668
 30
0.0
 10
39.1976207255
 20
60.1781187056
 30
0.0
 10
39.1884890043
 20
60.1606542874
 30
0.0
 10
39.1884936391
 20
60.149922413
 30
0.0
  0
SPLINE
  5
278
100
AcDbEntity
  8
0
100
AcDbSpline
 62
7
  6
CONTINUOUS
 70
0
 71
3
 72
20
 73
16
 74
0
 42
0.0000001
 43
0.0000001
 44
0.0000000001
 40
0.0
 40
0.0
 40
0.0
 40
0.0
 40
0.190889055
 40
0.3745553889
 40
0.5437539937
 40
0.6924402378
 40
0.7574047165
 40
0.8153694904
 40
0.8658446451
 40
0.9084406593
 40
0.9429149189
 40
0.9691720902
 40
0.9793275316
 40
0.9876575494
 40
1.0
 40
1.0
 40
1.0
 40
1.0
 10
26.4944931037
 20
39.8464352895
 30
0.0
 10
26.3285119819
 20
39.8464352895
 30
0.0
 10
26.0027961011
 20
39.8400279608
 30
0.0
 10
25.5306746742
 20
39.8125333032
 30
0.0
 10
25.0965616226
 20
39.7696652255
 30
0.0
 10
24.7668882149
 20
39.7223802867
 30
0.0
 10
24.534704854
 20
39.6789788355
 30
0.0
 10
24.3874110835
 20
39.6466072651
 30
0.0
 10
24.2602682059
 20
39.6135812156
 30
0.0
 10
24.1543316308
 20
39.5805309651
 30
0.0
 10
24.07054439
 20
39.5479031862
 30
0.0
 10
24.0154536784
 20
39.5197843252
 30
0.0
 10
23.9839104133
 20
39.4966558647
 30
0.0
 10
23.9648206601
 20
39.4781189787
 30
0.0
 10
23.9556889806
 20
39.4606544005
 30
0.0
 10
23.9556936468
 20
39.449922441
 30
0.0
  0
SPLINE
  5
279
100
AcDbEntity
  8
0
100
AcDbSpline
 62
7
  6
CONTINUOUS
 70
0
 71
3
 72
20
 73
16
 74
0
 42
0.0000001
 43
0.0000001
 44
0.0000000001
 40
0.0
 40
0.0
 40
0.0
 40
0.0
 40
0.190889055
 40
0.3745553889
 40
0.5437539937
 40
0.6924402378
 40
0.7574047165
 40
0.8153694904
 40
0.8658446451
 40
0.9084406593
 40
0.9429149189
 40
0.9691720902
 40
0.9793275316
 40
0.9876575494
 40
1.0
 40
1.0
 40
1.0
 40
1.0
 10
34.1108931037
 20
39.8464352895
 30
0.0
 10
33.9449119819
 20
39.8464352895
 30
0.0
 10
33.6191961011
 20
39.8400279608
 30
0.0
 10
33.1470746742
 20
39.8125333032
 30
0.0
 10
32.7129616226
 20
39.7696652255
 30
0.0
 10
32.3832882149
 20
39.7223802867
 30
0.0
 10
32.151104854
 20
39.6789788355
 30
0.0
 10
32.0038110835
 20
39.6466072651
 30
0.0
 10
31.8766682059
 20
39.6135812156
 30
0.0
 10
31.7707316308
 20
39.5805309651
 30
0.0
 10
31.68694439
 20
39.5479031862
 30
0.0
 10
31.6318536784
 20
39.5197843252
 30
0.0
 10
31.6003104133
 20
39.4966558647
 30
0.0
 10
31.5812206601
 20
39.4781189787
 30
0.0
 10
31.5720889806
 20
39.4606544005
 30
0.0
 10
31.5720936468
 20
39.449922441
 30
0.0
  0
SPLINE
  5
27A
100
AcDbEntity
  8
0
100
AcDbSpline
 62
7
  6
CONTINUOUS
 70
0
 71
3
 72
20
 73
16
 74
0
 42
0.0000001
 43
0.0000001
 44
0.0000000001
 40
0.0
 40
0.0
 40
0.0
 40
0.0
 40
0.190889007
 40
0.3745551906
 40
0.5437537635
 40
0.692440244
 40
0.7574047367
 40
0.8153694663
 40
0.8658446109
 40
0.9084406963
 40
0.9429150549
 40
0.9691722585
 40
0.9793276731
 40
0.9876576457
 40
1.0
 40
1.0
 40
1.0
 40
1.0
 10
41.7272931037
 20
39.8464352895
 30
0.0
 10
41.5613120442
 20
39.8464352895
 30
0.0
 10
41.2355964143
 20
39.8400257935
 30
0.0
 10
40.7634752373
 20
39.8125325198
 30
0.0
 10
40.329361923
 20
39.7696666002
 30
0.0
 10
39.9996886113
 20
39.7223799109
 30
0.0
 10
39.76750506
 20
39.6789787321
 30
0.0
 10
39.6202112493
 20
39.6466075889
 30
0.0
 10
39.4930683524
 20
39.6135815902
 30
0.0
 10
39.3871317842
 20
39.5805308689
 30
0.0
 10
39.3033445673
 20
39.5479025791
 30
0.0
 10
39.2482538117
 20
39.5197836691
 30
0.0
 10
39.216710483
 20
39.4966553668
 30
0.0
 10
39.1976207255
 20
39.4781187056
 30
0.0
 10
39.1884890043
 20
39.4606542874
 30
0.0
 10
39.1884936391
 20
39.449922413
 30
0.0
  0
SPLINE
  5
27B
100
AcDbEntity
  8
0
100
AcDbSpline
 62
7
  6
CONTINUOUS
 70
0
 71
3
 72
20
 73
16
 74
0
 42
0.0000001
 43
0.0000001
 44
0.0000000001
 40
0.0
 40
0.0
 40
0.0
 40
0.0
 40
0.0279708858
 40
0.0394794308
 40
0.0530559691
 40
0.0865207371
 40
0.1283743866
 40
0.178419184
 40
0.2362543699
 40
0.3013707044
 40
0.3732030275
 40
0.4510501503
 40
0.621801338
 40
0.8072668319
 40
1.0
 40
1.0
 40
1.0
 40
1.0
 10
31.5720936468
 20
60.149922441
 30
0.0
 10
31.5721040798
 20
60.1259269308
 30
0.0
 10
31.6085351793
 20
60.1008962022
 30
0.0
 10
31.6488493132
 20
60.0838033045
 30
0.0
 10
31.6969362746
 20
60.0674769208
 30
0.0
 10
31.7709645214
 20
60.0499732181
 30
0.0
 10
31.8771546246
 20
60.0319505031
 30
0.0
 10
32.0046437995
 20
60.0163166143
 30
0.0
 10
32.1524678056
 20
60.0028266992
 30
0.0
 10
32.3191863551
 20
59.9914412312
 30
0.0
 10
32.5032215877
 20
59.9820301446
 30
0.0
 10
32.777914716
 20
59.9715178143
 30
0.0
 10
33.1502002389
 20
59.9627087276
 30
0.0
 10
33.6211031175
 20
59.9571505248
 30
0.0
 10
33.9455522147
 20
59.9560768906
 30
0.0
 10
34.1108931037
 20
59.9560768906
 30
0.0
  0
SPLINE
  5
27C
100
AcDbEntity
  8
0
100
AcDbSpline
 62
7
  6
CONTINUOUS
 70
0
 71
3
 72
20
 73
16
 74
0
 42
0.0000001
 43
0.0000001
 44
0.0000000001
 40
0.0
 40
0.0
 40
0.0
 40
0.0
 40
0.1927262302
 40
0.3781879147
 40
0.5489455279
 40
0.626793938
 40
0.6986260108
 40
0.7637413764
 40
0.8215755305
 40
0.8716189878
 40
0.9134735147
 40
0.9469399396
 40
0.9605167828
 40
0.9720259146
 40
1.0
 40
1.0
 40
1.0
 40
1.0
 10
26.4944931037
 20
59.9560768906
 30
0.0
 10
26.6598279849
 20
59.9560768906
 30
0.0
 10
26.9842677542
 20
59.9571506488
 30
0.0
 10
27.4551667542
 20
59.9627093108
 30
0.0
 10
27.8274555296
 20
59.9715170252
 30
0.0
 10
28.1021549929
 20
59.9820288543
 30
0.0
 10
28.2861902112
 20
59.9914402862
 30
0.0
 10
28.4529067058
 20
60.0028265815
 30
0.0
 10
28.6007277961
 20
60.0163164784
 30
0.0
 10
28.7282154859
 20
60.0319514835
 30
0.0
 10
28.834406904
 20
60.0499717892
 30
0.0
 10
28.9084384272
 20
60.0674721327
 30
0.0
 10
28.9565276704
 20
60.0837990337
 30
0.0
 10
28.9968441764
 20
60.1008941203
 30
0.0
 10
29.0332823637
 20
60.1259242685
 30
0.0
 10
29.0332925872
 20
60.1499225155
 30
0.0
  0
SPLINE
  5
27D
100
AcDbEntity
  8
0
100
AcDbSpline
 62
7
  6
CONTINUOUS
 70
0
 71
3
 72
20
 73
16
 74
0
 42
0.0000001
 43
0.0000001
 44
0.0000000001
 40
0.0
 40
0.0
 40
0.0
 40
0.0
 40
0.0279708686
 40
0.0394794187
 40
0.0530559592
 40
0.0865207468
 40
0.1283744103
 40
0.1784192036
 40
0.2362543997
 40
0.3013707332
 40
0.3732030506
 40
0.451050176
 40
0.6218013611
 40
0.807266828
 40
1.0
 40
1.0
 40
1.0
 40
1.0
 10
23.9556936391
 20
60.149922413
 30
0.0
 10
23.9557040019
 20
60.1259269178
 30
0.0
 10
23.9921352126
 20
60.100896245
 30
0.0
 10
24.0324492986
 20
60.0838033076
 30
0.0
 10
24.0805362838
 20
60.0674769013
 30
0.0
 10
24.1545645663
 20
60.0499732311
 30
0.0
 10
24.2607546978
 20
60.0319505372
 30
0.0
 10
24.388243885
 20
60.0163166218
 30
0.0
 10
24.5360678941
 20
60.0028267046
 30
0.0
 10
24.7027864434
 20
59.9914412164
 30
0.0
 10
24.8868216702
 20
59.9820301228
 30
0.0
 10
25.1615147915
 20
59.9715178096
 30
0.0
 10
25.5338002875
 20
59.9627087394
 30
0.0
 10
26.004703139
 20
59.9571505214
 30
0.0
 10
26.3291522131
 20
59.9560768906
 30
0.0
 10
26.4944931037
 20
59.9560768906
 30
0.0
  0
SPLINE
  5
27E
100
AcDbEntity
  8
0
100
AcDbSpline
 62
7
  6
CONTINUOUS
 70
0
 71
3
 72
20
 73
16
 74
0
 42
0.0000001
 43
0.0000001
 44
0.0000000001
 40
0.0
 40
0.0
 40
0.0
 40
0.0
 40
0.0279708858
 40
0.0394794308
 40
0.0530559691
 40
0.0865207371
 40
0.1283743866
 40
0.178419184
 40
0.2362543699
 40
0.3013707044
 40
0.3732030275
 40
0.4510501503
 40
0.621801338
 40
0.8072668319
 40
1.0
 40
1.0
 40
1.0
 40
1.0
 10
31.5720936468
 20
39.449922441
 30
0.0
 10
31.5721040798
 20
39.4259269308
 30
0.0
 10
31.6085351793
 20
39.4008962022
 30
0.0
 10
31.6488493132
 20
39.3838033045
 30
0.0
 10
31.6969362746
 20
39.3674769208
 30
0.0
 10
31.7709645214
 20
39.3499732181
 30
0.0
 10
31.8771546246
 20
39.3319505031
 30
0.0
 10
32.0046437995
 20
39.3163166143
 30
0.0
 10
32.1524678056
 20
39.3028266992
 30
0.0
 10
32.3191863551
 20
39.2914412312
 30
0.0
 10
32.5032215877
 20
39.2820301446
 30
0.0
 10
32.777914716
 20
39.2715178143
 30
0.0
 10
33.1502002389
 20
39.2627087276
 30
0.0
 10
33.6211031175
 20
39.2571505248
 30
0.0
 10
33.9455522147
 20
39.2560768906
 30
0.0
 10
34.1108931037
 20
39.2560768906
 30
0.0
  0
SPLINE
  5
27F
100
AcDbEntity
  8
0
100
AcDbSpline
 62
7
  6
CONTINUOUS
 70
0
 71
3
 72
20
 73
16
 74
0
 42
0.0000001
 43
0.0000001
 44
0.0000000001
 40
0.0
 40
0.0
 40
0.0
 40
0.0
 40
0.0279708858
 40
0.0394794308
 40
0.0530559691
 40
0.0865207371
 40
0.1283743866
 40
0.178419184
 40
0.2362543699
 40
0.3013707044
 40
0.3732030275
 40
0.4510501503
 40
0.621801338
 40
0.8072668319
 40
1.0
 40
1.0
 40
1.0
 40
1.0
 10
23.9556936468
 20
39.449922441
 30
0.0
 10
23.9557040798
 20
39.4259269308
 30
0.0
 10
23.9921351793
 20
39.4008962022
 30
0.0
 10
24.0324493132
 20
39.3838033045
 30
0.0
 10
24.0805362746
 20
39.3674769208
 30
0.0
 10
24.1545645214
 20
39.3499732181
 30
0.0
 10
24.2607546246
 20
39.3319505031
 30
0.0
 10
24.3882437995
 20
39.3163166143
 30
0.0
 10
24.5360678056
 20
39.3028266992
 30
0.0
 10
24.7027863551
 20
39.2914412312
 30
0.0
 10
24.8868215877
 20
39.2820301446
 30
0.0
 10
25.161514716
 20
39.2715178143
 30
0.0
 10
25.5338002389
 20
39.2627087276
 30
0.0
 10
26.0047031175
 20
39.2571505248
 30
0.0
 10
26.3291522147
 20
39.2560768906
 30
0.0
 10
26.4944931037
 20
39.2560768906
 30
0.0
  0
SPLINE
  5
280
100
AcDbEntity
  8
0
100
AcDbSpline
 62
7
  6
CONTINUOUS
 70
0
 71
3
 72
20
 73
16
 74
0
 42
0.0000001
 43
0.0000001
 44
0.0000000001
 40
0.0
 40
0.0
 40
0.0
 40
0.0
 40
0.1927262709
 40
0.3781878944
 40
0.548945502
 40
0.6267939425
 40
0.6986260254
 40
0.7637413919
 40
0.8215755524
 40
0.8716189763
 40
0.9134735033
 40
0.9469399247
 40
0.960516744
 40
0.9720258697
 40
1.0
 40
1.0
 40
1.0
 40
1.0
 10
26.4944931037
 20
39.2560768906
 30
0.0
 10
26.6598280226
 20
39.2560768906
 30
0.0
 10
26.9842677806
 20
39.2571504829
 30
0.0
 10
27.4551667657
 20
39.2627093083
 30
0.0
 10
27.8274555123
 20
39.2715171176
 30
0.0
 10
28.1021550159
 20
39.2820287873
 30
0.0
 10
28.2861902755
 20
39.2914401847
 30
0.0
 10
28.4529067798
 20
39.3028266045
 30
0.0
 10
28.6007278393
 20
39.3163166259
 30
0.0
 10
28.7282154956
 20
39.3319517145
 30
0.0
 10
28.8344069091
 20
39.3499718388
 30
0.0
 10
28.9084384659
 20
39.3674719428
 30
0.0
 10
28.9565276987
 20
39.3837988163
 30
0.0
 10
28.9968441793
 20
39.4008939299
 30
0.0
 10
29.0332825514
 20
39.4259241463
 30
0.0
 10
29.0332926067
 20
39.4499224322
 30
0.0
  0
SPLINE
  5
281
100
AcDbEntity
  8
0
100
AcDbSpline
 62
7
  6
CONTINUOUS
 70
0
 71
3
 72
20
 73
16
 74
0
 42
0.0000001
 43
0.0000001
 44
0.0000000001
 40
0.0
 40
0.0
 40
0.0
 40
0.0
 40
0.1927262302
 40
0.3781879147
 40
0.5489455279
 40
0.626793938
 40
0.6986260108
 40
0.7637413764
 40
0.8215755305
 40
0.8716189878
 40
0.9134735147
 40
0.9469399396
 40
0.9605167828
 40
0.9720259146
 40
1.0
 40
1.0
 40
1.0
 40
1.0
 10
34.1108931037
 20
59.9560768906
 30
0.0
 10
34.2762279849
 20
59.9560768906
 30
0.0
 10
34.6006677542
 20
59.9571506488
 30
0.0
 10
35.0715667542
 20
59.9627093108
 30
0.0
 10
35.4438555296
 20
59.9715170252
 30
0.0
 10
35.7185549929
 20
59.9820288543
 30
0.0
 10
35.9025902112
 20
59.9914402862
 30
0.0
 10
36.0693067058
 20
60.0028265815
 30
0.0
 10
36.2171277961
 20
60.0163164784
 30
0.0
 10
36.3446154859
 20
60.0319514835
 30
0.0
 10
36.450806904
 20
60.0499717892
 30
0.0
 10
36.5248384272
 20
60.0674721327
 30
0.0
 10
36.5729276704
 20
60.0837990337
 30
0.0
 10
36.6132441764
 20
60.1008941203
 30
0.0
 10
36.6496823637
 20
60.1259242685
 30
0.0
 10
36.6496925872
 20
60.1499225155
 30
0.0
  0
SPLINE
  5
282
100
AcDbEntity
  8
0
100
AcDbSpline
 62
7
  6
CONTINUOUS
 70
0
 71
3
 72
20
 73
16
 74
0
 42
0.0000001
 43
0.0000001
 44
0.0000000001
 40
0.0
 40
0.0
 40
0.0
 40
0.0
 40
0.0279708686
 40
0.0394794187
 40
0.0530559592
 40
0.0865207468
 40
0.1283744103
 40
0.1784192036
 40
0.2362543997
 40
0.3013707332
 40
0.3732030506
 40
0.451050176
 40
0.6218013611
 40
0.807266828
 40
1.0
 40
1.0
 40
1.0
 40
1.0
 10
39.1884936391
 20
39.449922413
 30
0.0
 10
39.1885040019
 20
39.4259269178
 30
0.0
 10
39.2249352126
 20
39.400896245
 30
0.0
 10
39.2652492986
 20
39.3838033076
 30
0.0
 10
39.3133362838
 20
39.3674769013
 30
0.0
 10
39.3873645663
 20
39.3499732311
 30
0.0
 10
39.4935546978
 20
39.3319505372
 30
0.0
 10
39.621043885
 20
39.3163166218
 30
0.0
 10
39.7688678941
 20
39.3028267046
 30
0.0
 10
39.9355864434
 20
39.2914412164
 30
0.0
 10
40.1196216702
 20
39.2820301228
 30
0.0
 10
40.3943147915
 20
39.2715178096
 30
0.0
 10
40.7666002875
 20
39.2627087394
 30
0.0
 10
41.237503139
 20
39.2571505214
 30
0.0
 10
41.5619522131
 20
39.2560768906
 30
0.0
 10
41.7272931037
 20
39.2560768906
 30
0.0
  0
SPLINE
  5
283
100
AcDbEntity
  8
0
100
AcDbSpline
 62
7
  6
CONTINUOUS
 70
0
 71
3
 72
20
 73
16
 74
0
 42
0.0000001
 43
0.0000001
 44
0.0000000001
 40
0.0
 40
0.0
 40
0.0
 40
0.0
 40
0.1927262302
 40
0.3781879147
 40
0.5489455279
 40
0.626793938
 40
0.6986260108
 40
0.7637413764
 40
0.8215755305
 40
0.8716189878
 40
0.9134735147
 40
0.9469399396
 40
0.9605167828
 40
0.9720259146
 40
1.0
 40
1.0
 40
1.0
 40
1.0
 10
34.1108931037
 20
39.2560768906
 30
0.0
 10
34.2762279849
 20
39.2560768906
 30
0.0
 10
34.6006677542
 20
39.2571506488
 30
0.0
 10
35.0715667542
 20
39.2627093108
 30
0.0
 10
35.4438555296
 20
39.2715170252
 30
0.0
 10
35.7185549929
 20
39.2820288543
 30
0.0
 10
35.9025902112
 20
39.2914402862
 30
0.0
 10
36.0693067058
 20
39.3028265815
 30
0.0
 10
36.2171277961
 20
39.3163164784
 30
0.0
 10
36.3446154859
 20
39.3319514835
 30
0.0
 10
36.450806904
 20
39.3499717892
 30
0.0
 10
36.5248384272
 20
39.3674721327
 30
0.0
 10
36.5729276704
 20
39.3837990337
 30
0.0
 10
36.6132441764
 20
39.4008941203
 30
0.0
 10
36.6496823637
 20
39.4259242685
 30
0.0
 10
36.6496925872
 20
39.4499225155
 30
0.0
  0
SPLINE
  5
284
100
AcDbEntity
  8
0
100
AcDbSpline
 62
7
  6
CONTINUOUS
 70
0
 71
3
 72
20
 73
16
 74
0
 42
0.0000001
 43
0.0000001
 44
0.0000000001
 40
0.0
 40
0.0
 40
0.0
 40
0.0
 40
0.1927262302
 40
0.3781879147
 40
0.5489455279
 40
0.626793938
 40
0.6986260108
 40
0.7637413764
 40
0.8215755305
 40
0.8716189878
 40
0.9134735147
 40
0.9469399396
 40
0.9605167828
 40
0.9720259146
 40
1.0
 40
1.0
 40
1.0
 40
1.0
 10
41.7272931037
 20
39.2560768906
 30
0.0
 10
41.8926279849
 20
39.2560768906
 30
0.0
 10
42.2170677542
 20
39.2571506488
 30
0.0
 10
42.6879667542
 20
39.2627093108
 30
0.0
 10
43.0602555296
 20
39.2715170252
 30
0.0
 10
43.3349549929
 20
39.2820288543
 30
0.0
 10
43.5189902112
 20
39.2914402862
 30
0.0
 10
43.6857067058
 20
39.3028265815
 30
0.0
 10
43.8335277961
 20
39.3163164784
 30
0.0
 10
43.9610154859
 20
39.3319514835
 30
0.0
 10
44.067206904
 20
39.3499717892
 30
0.0
 10
44.1412384272
 20
39.3674721327
 30
0.0
 10
44.1893276704
 20
39.3837990337
 30
0.0
 10
44.2296441764
 20
39.4008941203
 30
0.0
 10
44.2660823637
 20
39.4259242685
 30
0.0
 10
44.2660925872
 20
39.4499225155
 30
0.0
  0
SPLINE
  5
285
100
AcDbEntity
  8
0
100
AcDbSpline
 62
7
  6
CONTINUOUS
 70
0
 71
3
 72
20
 73
16
 74
0
 42
0.0000001
 43
0.0000001
 44
0.0000000001
 40
0.0
 40
0.0
 40
0.0
 40
0.0
 40
0.1927262302
 40
0.3781879147
 40
0.5489455279
 40
0.626793938
 40
0.6986260108
 40
0.7637413764
 40
0.8215755305
 40
0.8716189878
 40
0.9134735147
 40
0.9469399396
 40
0.9605167828
 40
0.9720259146
 40
1.0
 40
1.0
 40
1.0
 40
1.0
 10
41.7272931037
 20
59.9560768906
 30
0.0
 10
41.8926279849
 20
59.9560768906
 30
0.0
 10
42.2170677542
 20
59.9571506488
 30
0.0
 10
42.6879667542
 20
59.9627093108
 30
0.0
 10
43.0602555296
 20
59.9715170252
 30
0.0
 10
43.3349549929
 20
59.9820288543
 30
0.0
 10
43.5189902112
 20
59.9914402862
 30
0.0
 10
43.6857067058
 20
60.0028265815
 30
0.0
 10
43.8335277961
 20
60.0163164784
 30
0.0
 10
43.9610154859
 20
60.0319514835
 30
0.0
 10
44.067206904
 20
60.0499717892
 30
0.0
 10
44.1412384272
 20
60.0674721327
 30
0.0
 10
44.1893276704
 20
60.0837990337
 30
0.0
 10
44.2296441764
 20
60.1008941203
 30
0.0
 10
44.2660823637
 20
60.1259242685
 30
0.0
 10
44.2660925872
 20
60.1499225155
 30
0.0
  0
SPLINE
  5
286
100
AcDbEntity
  8
0
100
AcDbSpline
 62
7
  6
CONTINUOUS
 70
0
 71
3
 72
20
 73
16
 74
0
 42
0.0000001
 43
0.0000001
 44
0.0000000001
 40
0.0
 40
0.0
 40
0.0
 40
0.0
 40
0.0279708686
 40
0.0394794187
 40
0.0530559592
 40
0.0865207468
 40
0.1283744103
 40
0.1784192036
 40
0.2362543997
 40
0.3013707332
 40
0.3732030506
 40
0.451050176
 40
0.6218013611
 40
0.807266828
 40
1.0
 40
1.0
 40
1.0
 40
1.0
 10
39.1884936391
 20
60.149922413
 30
0.0
 10
39.1885040019
 20
60.1259269178
 30
0.0
 10
39.2249352126
 20
60.100896245
 30
0.0
 10
39.2652492986
 20
60.0838033076
 30
0.0
 10
39.3133362838
 20
60.0674769013
 30
0.0
 10
39.3873645663
 20
60.0499732311
 30
0.0
 10
39.4935546978
 20
60.0319505372
 30
0.0
 10
39.621043885
 20
60.0163166218
 30
0.0
 10
39.7688678941
 20
60.0028267046
 30
0.0
 10
39.9355864434
 20
59.9914412164
 30
0.0
 10
40.1196216702
 20
59.9820301228
 30
0.0
 10
40.3943147915
 20
59.9715178096
 30
0.0
 10
40.7666002875
 20
59.9627087394
 30
0.0
 10
41.237503139
 20
59.9571505214
 30
0.0
 10
41.5619522131
 20
59.9560768906
 30
0.0
 10
41.7272931037
 20
59.9560768906
 30
0.0
  0
ENDSEC
  0
SECTION
  2
OBJECTS
  0
DICTIONARY
  5
C
100
AcDbDictionary
280
0
281
1
  3
ACAD_GROUP
350
D
  3
ACAD_MLINESTYLE
350
17
  3
ACAD_LAYOUT
350
1A
  3
ACAD_PLOTSETTINGS
350
19
  3
ACAD_PLOTSTYLENAME
350
E
  0
DICTIONARY
  5
D
102
{ACAD_REACTORS
330
C
102
}
100
AcDbDictionary
280
0
281
1
  0
ACDBDICTIONARYWDFLT
  5
E
102
{ACAD_REACTORS
330
C
102
}
100
AcDbDictionary
281
1
  3
Normal
350
F
100
AcDbDictionaryWithDefault
340
F
  0
DICTIONARY
  5
17
102
{ACAD_REACTORS
330
C
102
}
100
AcDbDictionary
280
0
281
1
  3
Standard
350
18
  0
DICTIONARY
  5
19
102
{ACAD_REACTORS
330
C
102
}
100
AcDbDictionary
281
1
  0
DICTIONARY
  5
1A
102
{ACAD_REACTORS
330
C
102
}
100
AcDbDictionary
281
1
  3
Model
350
287
  3
Layout1
350
288
  0
ACDBPLACEHOLDER
  5
F
102
{ACAD_REACTORS
330
E
102
}
  0
MLINESTYLE
  5
18
102
{ACAD_REACTORS
330
17
102
}
100
AcDbMlineStyle
  2
STANDARD
 70
0
  3

 62
256
 51
90.0
 52
90.0
 71
2
 49
0.5
 62
256
  6
BYLAYER
 49
-0.5
 62
256
  6
BYLAYER
  0
LAYOUT
  5
287
102
{ACAD_REACTORS
330
1A
102
}
100
AcDbPlotSettings
  1

  2
none_device
  4

  6

 40
0.0
 41
0.0
 42
0.0
 43
0.0
 44
210.0
 45
297.0
 46
0.0
 47
0.0
 48
0.0
 49
0.0
140
0.0
141
0.0
142
1.0
143
1.0
 70
1024
 72
1
 73
0
 74
0
  7

 75
0
147
1.0
148
0.0
149
0.0
100
AcDbLayout
  1
Model
 70
0
 71
0
 10
0.0
 20
0.0
 11
210.0
 21
297.0
 12
0.0
 22
0.0
 32
0.0
 14
0.0
 24
0.0
 34
0.0
 15
0.0
 25
0.0
 35
0.0
146
0.0
 13
0.0
 23
0.0
 33
0.0
 16
1.0
 26
0.0
 36
0.0
 17
0.0
 27
1.0
 37
0.0
 76
0
330
210
345
0
346
0
  0
LAYOUT
  5
288
102
{ACAD_REACTORS
330
1A
102
}
100
AcDbPlotSettings
  1

  2
none_device
  4

  6

 40
0.0
 41
0.0
 42
0.0
 43
0.0
 44
210.0
 45
297.0
 46
0.0
 47
0.0
 48
0.0
 49
0.0
140
0.0
141
0.0
142
1.0
143
1.0
 70
0
 72
1
 73
0
 74
0
  7

 75
0
147
1.0
148
0.0
149
0.0
100
AcDbLayout
  1
Layout1
 70
0
 71
1
 10
0.0
 20
0.0
 11
210.0
 21
297.0
 12
0.0
 22
0.0
 32
0.0
 14
0.0
 24
0.0
 34
0.0
 15
0.0
 25
0.0
 35
0.0
146
0.0
 13
0.0
 23
0.0
 33
0.0
 16
1.0
 26
0.0
 36
0.0
 17
0.0
 27
1.0
 37
0.0
 76
0
330
211
345
0
346
0
  0
ENDSEC
  0
EOF
