999
DXF file: C:\Users\sesa63760\Dev\_Creo\CAD\MCADID0004237_3D-CAD\drw0001_5.dxf
999
Pro/ENGINEER 2019471 by Parametric Technology Corporation
  0
SECTION
  2
HEADER
  9
$ACADVER
  1
AC1024
  9
$DWGCODEPAGE
  3
ANSI_1252
  9
$EXTMAX
 10
1396.9961048392
 20
1975.7516339869
 30
0.0
  9
$EXTMIN
 10
0.0
 20
0.0
 30
0.0
  9
$LIMMIN
 10
0.0
 20
0.0
  9
$LIMMAX
 10
1396.9961048392
 20
1975.7516339869
  9
$VIEWCTR
 10
698.4980524196
 20
987.8758169935
  9
$VIEWSIZE
 40
1975.7516339869
  9
$CLAYER
  8
0
  9
$LTSCALE
 40
128.7897361414
  9
$CELTYPE
  6
BYLAYER
  9
$DIMSCALE
 40
1.0
  9
$DIMASZ
 40
16.63090601
  9
$DIMEXO
 40
1.0
  9
$DIMDLI
 40
88.9819995159
  9
$DIMEXE
 40
1.0
  9
$DIMCEN
 40
21.0746840959
  9
$DIMLFAC
 40
1.0
  9
$DIMBLK
  1
_FILLED
  9
$DIMALT
 70
0
  9
$DIMALTF
 40
0.0393700787
  9
$DIMTXT
 40
23.283268414
  9
$DIMTOL
 70
1
  9
$DIMLIM
 70
0
  9
$DIMTFAC
 40
1.0
  9
$DIMTP
 40
0.01
  9
$DIMTM
 40
0.01
  9
$DIMGAP
 40
0.625
  9
$DIMDSEP
 70
46
  9
$AUNITS
 70
0
  9
$PDMODE
 70
3
  9
$PDSIZE
 40
0.3125
  9
$HANDSEED
  5
396
  9
$TILEMODE
 70
1
  9
$MEASUREMENT
 70
1
  9
$INSUNITS
 70
4
  0
ENDSEC
  0
SECTION
  2
CLASSES
  0
CLASS
  1
ACDBDICTIONARYWDFLT
  2
AcDbDictionaryWithDefault
  3
AutoCAD 2000
 90
0
 91
1
280
0
281
0
  0
CLASS
  1
ACDBPLACEHOLDER
  2
AcDbPlaceHolder
  3
AutoCAD 2000
 90
0
 91
1
280
0
281
0
  0
CLASS
  1
LAYOUT
  2
AcDbLayout
  3
AutoCAD 2000
 90
0
 91
0
280
0
281
0
  0
ENDSEC
  0
SECTION
  2
TABLES
  0
TABLE
  2
VPORT
  5
8
100
AcDbSymbolTable
 70
2
  0
VPORT
  5
1F4
100
AcDbSymbolTableRecord
100
AcDbViewportTableRecord
  2
*ACTIVE
 70
0
 10
0.0
 20
0.0
 11
1.0
 21
1.0
 12
698.4980524196
 22
987.8758169935
 13
0.0
 23
0.0
 14
1.0
 24
1.0
 15
0.0
 25
0.0
 16
0.0
 26
0.0
 36
1.0
 17
0.0
 27
0.0
 37
0.0
 40
1975.7516339869
 41
0.7070707071
 42
50.0
 43
0.0
 44
0.0
 50
0.0
 51
0.0
 71
0
 72
100
 73
1
 74
1
 75
0
 76
0
 77
0
 78
0
  0
ENDTAB
  0
TABLE
  2
LTYPE
  5
5
100
AcDbSymbolTable
 70
6
  0
LTYPE
  5
14
100
AcDbSymbolTableRecord
100
AcDbLinetypeTableRecord
  2
BYBLOCK
 70
0
  3

 72
65
 73
0
 40
0.0
  0
LTYPE
  5
15
100
AcDbSymbolTableRecord
100
AcDbLinetypeTableRecord
  2
BYLAYER
 70
0
  3

 72
65
 73
0
 40
0.0
  0
LTYPE
  5
16
100
AcDbSymbolTableRecord
100
AcDbLinetypeTableRecord
  2
CONTINUOUS
 70
64
  3
Solid line
 72
65
 73
0
 40
0.0
  0
LTYPE
  5
1F5
100
AcDbSymbolTableRecord
100
AcDbLinetypeTableRecord
  2
CENTER
 70
64
  3
____ _ ____ _ ____ _ ____ _ ____ _ ____ _ ____
 72
65
 73
4
 40
0.6
 49
0.375
 74
0
 49
-0.075
 74
0
 49
0.075
 74
0
 49
-0.075
 74
0
  0
LTYPE
  5
1F6
100
AcDbSymbolTableRecord
100
AcDbLinetypeTableRecord
  2
HIDDEN
 70
64
  3
- - - - - - - - - - - - - - - - - - - -
 72
65
 73
2
 40
0.2
 49
0.1
 74
0
 49
-0.1
 74
0
  0
LTYPE
  5
1F7
100
AcDbSymbolTableRecord
100
AcDbLinetypeTableRecord
  2
PHANTOM
 70
64
  3
_____ _ _ _____ _ _ _____ _ _ _____
 72
65
 73
6
 40
0.8
 49
0.45
 74
0
 49
-0.05
 74
0
 49
0.1
 74
0
 49
-0.05
 74
0
 49
0.1
 74
0
 49
-0.05
 74
0
  0
LTYPE
  5
1F8
100
AcDbSymbolTableRecord
100
AcDbLinetypeTableRecord
  2
DOT
 70
64
  3
. . . . . . . . . . . . . . . . . . . .
 72
65
 73
2
 40
0.2
 49
0.1
 74
0
 49
-0.1
 74
0
  0
LTYPE
  5
1F9
100
AcDbSymbolTableRecord
100
AcDbLinetypeTableRecord
  2
DASHED
 70
64
  3
- - - - - - - - - - - - - - - - - - - -
 72
65
 73
2
 40
0.2
 49
0.1
 74
0
 49
-0.1
 74
0
  0
ENDTAB
  0
TABLE
  2
LAYER
  5
2
100
AcDbSymbolTable
 70
36
  0
LAYER
  5
10
100
AcDbSymbolTableRecord
100
AcDbLayerTableRecord
  2
0
 70
0
 62
7
  6
CONTINUOUS
370
-3
390
F
  0
LAYER
  5
1FA
100
AcDbSymbolTableRecord
100
AcDbLayerTableRecord
  2
DEFAULT_1
 70
0
 62
7
  6
CENTER
370
-3
390
F
  0
LAYER
  5
1FB
100
AcDbSymbolTableRecord
100
AcDbLayerTableRecord
  2
DEFAULT_2
 70
0
 62
7
  6
HIDDEN
370
-3
390
F
  0
LAYER
  5
1FC
100
AcDbSymbolTableRecord
100
AcDbLayerTableRecord
  2
DEFAULT_3
 70
0
 62
7
  6
PHANTOM
370
-3
390
F
  0
LAYER
  5
1FD
100
AcDbSymbolTableRecord
100
AcDbLayerTableRecord
  2
00_COMPONENTS
 70
0
 62
7
  6
CONTINUOUS
370
-3
390
F
  0
LAYER
  5
1FE
100
AcDbSymbolTableRecord
100
AcDbLayerTableRecord
  2
01_1_DEFAULT_DATUMS
 70
0
 62
7
  6
CONTINUOUS
370
-3
390
F
  0
LAYER
  5
1FF
100
AcDbSymbolTableRecord
100
AcDbLayerTableRecord
  2
01_PLANES
 70
0
 62
7
  6
CONTINUOUS
370
-3
390
F
  0
LAYER
  5
200
100
AcDbSymbolTableRecord
100
AcDbLayerTableRecord
  2
02_COORD_SYS
 70
0
 62
7
  6
CONTINUOUS
370
-3
390
F
  0
LAYER
  5
201
100
AcDbSymbolTableRecord
100
AcDbLayerTableRecord
  2
03_AXES
 70
0
 62
7
  6
CONTINUOUS
370
-3
390
F
  0
LAYER
  5
202
100
AcDbSymbolTableRecord
100
AcDbLayerTableRecord
  2
04_POINTS
 70
0
 62
7
  6
CONTINUOUS
370
-3
390
F
  0
LAYER
  5
203
100
AcDbSymbolTableRecord
100
AcDbLayerTableRecord
  2
05_CURVES
 70
0
 62
7
  6
CONTINUOUS
370
-3
390
F
  0
LAYER
  5
204
100
AcDbSymbolTableRecord
100
AcDbLayerTableRecord
  2
06_SURFS
 70
0
 62
7
  6
CONTINUOUS
370
-3
390
F
  0
LAYER
  5
205
100
AcDbSymbolTableRecord
100
AcDbLayerTableRecord
  2
07_COSMETICS
 70
0
 62
7
  6
CONTINUOUS
370
-3
390
F
  0
LAYER
  5
206
100
AcDbSymbolTableRecord
100
AcDbLayerTableRecord
  2
10_NOTES
 70
0
 62
7
  6
CONTINUOUS
370
-3
390
F
  0
LAYER
  5
207
100
AcDbSymbolTableRecord
100
AcDbLayerTableRecord
  2
11_NOTES_PUB
 70
0
 62
7
  6
CONTINUOUS
370
-3
390
F
  0
LAYER
  5
208
100
AcDbSymbolTableRecord
100
AcDbLayerTableRecord
  2
13_REF_GTOL
 70
0
 62
7
  6
CONTINUOUS
370
-3
390
F
  0
LAYER
  5
209
100
AcDbSymbolTableRecord
100
AcDbLayerTableRecord
  2
16_MISC
 70
0
 62
7
  6
CONTINUOUS
370
-3
390
F
  0
LAYER
  5
20A
100
AcDbSymbolTableRecord
100
AcDbLayerTableRecord
  2
17_NO_PRINT
 70
0
 62
7
  6
CONTINUOUS
370
-3
390
F
  0
LAYER
  5
20B
100
AcDbSymbolTableRecord
100
AcDbLayerTableRecord
  2
18_DATUM_CAMS_JOINTS
 70
0
 62
7
  6
CONTINUOUS
370
-3
390
F
  0
LAYER
  5
20C
100
AcDbSymbolTableRecord
100
AcDbLayerTableRecord
  2
19_DATUM_FUNCTIONAL
 70
0
 62
7
  6
CONTINUOUS
370
-3
390
F
  0
LAYER
  5
20D
100
AcDbSymbolTableRecord
100
AcDbLayerTableRecord
  2
20_DATUM_KINEMATIC_SCHEME
 70
0
 62
7
  6
CONTINUOUS
370
-3
390
F
  0
LAYER
  5
20E
100
AcDbSymbolTableRecord
100
AcDbLayerTableRecord
  2
4
 70
0
 62
7
  6
CONTINUOUS
370
-3
390
F
  0
LAYER
  5
20F
100
AcDbSymbolTableRecord
100
AcDbLayerTableRecord
  2
7
 70
0
 62
7
  6
CONTINUOUS
370
-3
390
F
  0
ENDTAB
  0
TABLE
  2
STYLE
  5
3
100
AcDbSymbolTable
 70
1
  0
STYLE
  5
11
100
AcDbSymbolTableRecord
100
AcDbTextStyleTableRecord
  2
STANDARD
 70
0
 40
0.0
 41
1.0
 50
0.0
 71
0
 42
0.2
  3
ARIAL.TTF
  4

  0
STYLE
  5
210
100
AcDbSymbolTableRecord
100
AcDbTextStyleTableRecord
  2
TEXTSTYLE_1
 70
0
 40
0.0
 41
0.8
 50
0.0
 71
0
 42
0.2
  3
gdt
  4

  0
ENDTAB
  0
TABLE
  2
VIEW
  5
6
100
AcDbSymbolTable
 70
0
  0
ENDTAB
  0
TABLE
  2
UCS
  5
7
100
AcDbSymbolTable
 70
0
  0
ENDTAB
  0
TABLE
  2
APPID
  5
9
100
AcDbSymbolTable
 70
1
  0
APPID
  5
211
100
AcDbSymbolTableRecord
100
AcDbRegAppTableRecord
  2
ACAD
 70
0
  0
ENDTAB
  0
TABLE
  2
BLOCK_RECORD
  5
1
100
AcDbSymbolTable
 70
0
  0
BLOCK_RECORD
  5
212
100
AcDbSymbolTableRecord
100
AcDbBlockTableRecord
  2
*Model_Space
  0
BLOCK_RECORD
  5
213
100
AcDbSymbolTableRecord
100
AcDbBlockTableRecord
  2
*Paper_Space
  0
BLOCK_RECORD
  5
214
100
AcDbSymbolTableRecord
100
AcDbBlockTableRecord
  2
_FILLED
  0
ENDTAB
  0
TABLE
  2
DIMSTYLE
  5
A
100
AcDbSymbolTable
 70
1
100
AcDbDimStyleTable
 71
0
  0
DIMSTYLE
105
215
100
AcDbSymbolTableRecord
100
AcDbDimStyleTableRecord
  2
STANDARD
 70
0
  3

  4

 40
1.0
 41
16.63090601
 42
1.0
 43
0.38
 44
1.0
 45
0.0
 46
0.0
 47
0.01
 48
0.01
140
23.283268414
141
0.09
142
0.0
143
25.4
144
1.0
145
0.0
146
1.0
147
0.625
 71
1
 72
0
 73
0
 74
0
 75
0
 76
0
 77
1
 78
8
 79
2
170
0
171
1
172
0
173
0
174
0
175
0
176
0
177
0
178
0
270
2
179
2
271
2
272
2
273
2
274
2
275
0
280
0
281
0
282
0
283
1
284
8
285
0
286
0
287
3
288
0
340
11
278
46
341
214
342
214
343
214
344
214
  0
ENDTAB
  0
ENDSEC
  0
SECTION
  2
BLOCKS
  0
BLOCK
  5
20
100
AcDbEntity
  8
0
100
AcDbBlockBegin
  2
*Model_Space
 70
0
 10
0.0
 20
0.0
 30
0.0
  3
*Model_Space
  1

  0
ENDBLK
  5
21
100
AcDbEntity
  8
0
100
AcDbBlockEnd
  0
BLOCK
  5
1C
100
AcDbEntity
  8
0
100
AcDbBlockBegin
  2
*Paper_Space
 70
0
 10
0.0
 20
0.0
 30
0.0
  3
*Paper_Space
  1

  0
ENDBLK
  5
1D
100
AcDbEntity
  8
0
100
AcDbBlockEnd
  0
BLOCK
  5
216
100
AcDbEntity
  8
0
100
AcDbBlockBegin
  2
_FILLED
 70
64
 10
0.0
 20
0.0
  3
_FILLED
  1

  0
SOLID
  5
217
100
AcDbEntity
  8
0
  6
BYBLOCK
 62
0
100
AcDbTrace
 10
0.0
 20
0.0
 11
-1.0
 21
0.25
 12
-1.0
 22
-0.25
 13
-1.0
 23
-0.25
  0
ENDBLK
  5
218
100
AcDbEntity
  8
0
  6
BYBLOCK
 62
0
100
AcDbBlockEnd
  0
ENDSEC
  0
SECTION
  2
ENTITIES
  0
LINE
  5
219
100
AcDbEntity
  8
4
100
AcDbLine
 62
7
  6
BYLAYER
 10
162.8444576484
 20
903.3720764636
 11
162.8444576484
 21
913.3720709666
  0
LINE
  5
21A
100
AcDbEntity
  8
7
100
AcDbLine
 62
7
  6
BYLAYER
 10
162.8444576484
 20
1059.4053905496
 11
162.8444576484
 21
1069.4053850526
  0
LINE
  5
21B
100
AcDbEntity
  8
4
100
AcDbLine
 62
7
  6
BYLAYER
 10
163.8444576484
 20
902.3720709666
 11
163.8444576484
 21
914.3720709666
  0
LINE
  5
21C
100
AcDbEntity
  8
7
100
AcDbLine
 62
7
  6
BYLAYER
 10
163.8444576484
 20
1058.4053850526
 11
163.8444576484
 21
1070.4053850526
  0
LINE
  5
21D
100
AcDbEntity
  8
7
100
AcDbLine
 62
7
  6
BYLAYER
 10
164.5444576484
 20
1079.4053891874
 11
164.5444576484
 21
1085.4053809178
  0
LINE
  5
21E
100
AcDbEntity
  8
7
100
AcDbLine
 62
7
  6
BYLAYER
 10
165.0444576484
 20
1075.6553887832
 11
165.0444576484
 21
1089.155381322
  0
LINE
  5
21F
100
AcDbEntity
  8
7
100
AcDbLine
 62
7
  6
BYLAYER
 10
166.0444576484
 20
1074.6553850526
 11
166.0444576484
 21
1090.1553850526
  0
LINE
  5
220
100
AcDbEntity
  8
4
100
AcDbLine
 62
7
  6
BYLAYER
 10
166.3444576484
 20
905.3720751014
 11
166.3444576484
 21
911.3720668318
  0
LINE
  5
221
100
AcDbEntity
  8
4
100
AcDbLine
 62
7
  6
BYLAYER
 10
166.3444576484
 20
923.3720751014
 11
166.3444576484
 21
929.3720668318
  0
LINE
  5
222
100
AcDbEntity
  8
7
100
AcDbLine
 62
7
  6
BYLAYER
 10
166.3444576484
 20
1061.4053891874
 11
166.3444576484
 21
1067.4053809178
  0
LINE
  5
223
100
AcDbEntity
  8
7
100
AcDbLine
 62
7
  6
BYLAYER
 10
166.3444576484
 20
1079.4053891874
 11
166.3444576484
 21
1085.4053809178
  0
LINE
  5
224
100
AcDbEntity
  8
4
100
AcDbLine
 62
7
  6
BYLAYER
 10
166.8444576484
 20
901.6220746972
 11
166.8444576484
 21
915.122067236
  0
LINE
  5
225
100
AcDbEntity
  8
4
100
AcDbLine
 62
7
  6
BYLAYER
 10
166.8444576484
 20
919.6220746972
 11
166.8444576484
 21
933.122067236
  0
LINE
  5
226
100
AcDbEntity
  8
7
100
AcDbLine
 62
7
  6
BYLAYER
 10
166.8444576484
 20
1057.6553887832
 11
166.8444576484
 21
1071.155381322
  0
LINE
  5
227
100
AcDbEntity
  8
7
100
AcDbLine
 62
7
  6
BYLAYER
 10
166.8444576484
 20
1075.6553887832
 11
166.8444576484
 21
1089.155381322
  0
LINE
  5
228
100
AcDbEntity
  8
4
100
AcDbLine
 62
7
  6
BYLAYER
 10
167.8444576484
 20
900.6220709666
 11
167.8444576484
 21
916.1220709666
  0
LINE
  5
229
100
AcDbEntity
  8
4
100
AcDbLine
 62
7
  6
BYLAYER
 10
167.8444576484
 20
918.6220709666
 11
167.8444576484
 21
934.1220709666
  0
LINE
  5
22A
100
AcDbEntity
  8
7
100
AcDbLine
 62
7
  6
BYLAYER
 10
167.8444576484
 20
1056.6553850526
 11
167.8444576484
 21
1072.1553850526
  0
LINE
  5
22B
100
AcDbEntity
  8
7
100
AcDbLine
 62
7
  6
BYLAYER
 10
167.8444576484
 20
1074.6553850526
 11
167.8444576484
 21
1090.1553850526
  0
LINE
  5
22C
100
AcDbEntity
  8
7
100
AcDbLine
 62
7
  6
BYLAYER
 10
171.5444576484
 20
1090.1553850526
 11
171.5444576484
 21
1090.1581534255
  0
LINE
  5
22D
100
AcDbEntity
  8
7
100
AcDbLine
 62
7
  6
BYLAYER
 10
172.5444576484
 20
1074.6553850526
 11
172.5444576484
 21
1074.6526166796
  0
LINE
  5
22E
100
AcDbEntity
  8
4
100
AcDbLine
 62
7
  6
BYLAYER
 10
173.3444576484
 20
900.6193025936
 11
173.3444576484
 21
916.1248393395
  0
LINE
  5
22F
100
AcDbEntity
  8
4
100
AcDbLine
 62
7
  6
BYLAYER
 10
173.3444576484
 20
918.6193025936
 11
173.3444576484
 21
934.1248393395
  0
LINE
  5
230
100
AcDbEntity
  8
7
100
AcDbLine
 62
7
  6
BYLAYER
 10
173.3444576484
 20
1056.6526166796
 11
173.3444576484
 21
1072.1581534255
  0
LINE
  5
231
100
AcDbEntity
  8
7
100
AcDbLine
 62
7
  6
BYLAYER
 10
173.3444576484
 20
1074.6526166796
 11
173.3444576484
 21
1090.1581534255
  0
LINE
  5
232
100
AcDbEntity
  8
4
100
AcDbLine
 62
7
  6
BYLAYER
 10
174.3444576484
 20
892.3720709666
 11
174.3444576484
 21
942.3720709666
  0
LINE
  5
233
100
AcDbEntity
  8
7
100
AcDbLine
 62
7
  6
BYLAYER
 10
174.3444576484
 20
1048.4053850526
 11
174.3444576484
 21
1098.4053850526
  0
LINE
  5
234
100
AcDbEntity
  8
4
100
AcDbLine
 62
7
  6
BYLAYER
 10
191.8444576484
 20
892.3720709666
 11
191.8444576484
 21
942.3720709666
  0
LINE
  5
235
100
AcDbEntity
  8
7
100
AcDbLine
 62
7
  6
BYLAYER
 10
191.8444576484
 20
1048.4053850526
 11
191.8444576484
 21
1098.4053850526
  0
LINE
  5
236
100
AcDbEntity
  8
4
100
AcDbLine
 62
7
  6
BYLAYER
 10
223.2662638716
 20
882.1828502415
 11
223.2662638716
 21
927.1828502415
  0
LINE
  5
237
100
AcDbEntity
  8
7
100
AcDbLine
 62
7
  6
BYLAYER
 10
223.2662638716
 20
1038.2161643275
 11
223.2662638716
 21
1083.2161643275
  0
LINE
  5
238
100
AcDbEntity
  8
4
100
AcDbLine
 62
7
  6
BYLAYER
 10
228.2662638716
 20
882.1828502415
 11
228.2662638716
 21
885.1828502415
  0
LINE
  5
239
100
AcDbEntity
  8
7
100
AcDbLine
 62
7
  6
BYLAYER
 10
228.2662638716
 20
1038.2161643275
 11
228.2662638716
 21
1041.2161643275
  0
LINE
  5
23A
100
AcDbEntity
  8
4
100
AcDbLine
 62
7
  6
BYLAYER
 10
228.5897266912
 20
914.6720709666
 11
228.5897266912
 21
920.0720709666
  0
LINE
  5
23B
100
AcDbEntity
  8
7
100
AcDbLine
 62
7
  6
BYLAYER
 10
228.5897266912
 20
1070.7053850526
 11
228.5897266912
 21
1076.1053850526
  0
LINE
  5
23C
100
AcDbEntity
  8
7
100
AcDbLine
 62
7
  6
BYLAYER
 10
230.0162638716
 20
1080.0161643275
 11
230.0162638716
 21
1078.8096945214
  0
LINE
  5
23D
100
AcDbEntity
  8
7
100
AcDbLine
 62
7
  6
BYLAYER
 10
230.0162638716
 20
1068.0014131234
 11
230.0162638716
 21
1066.5161643275
  0
LINE
  5
23E
100
AcDbEntity
  8
4
100
AcDbLine
 62
7
  6
BYLAYER
 10
230.0162638716
 20
923.9828502415
 11
230.0162638716
 21
922.7763804354
  0
LINE
  5
23F
100
AcDbEntity
  8
4
100
AcDbLine
 62
7
  6
BYLAYER
 10
230.0162638716
 20
911.9680990374
 11
230.0162638716
 21
910.4828502415
  0
LINE
  5
240
100
AcDbEntity
  8
4
100
AcDbLine
 62
7
  6
BYLAYER
 10
236.5162638716
 20
910.4828502415
 11
236.5162638716
 21
911.9677614978
  0
LINE
  5
241
100
AcDbEntity
  8
4
100
AcDbLine
 62
7
  6
BYLAYER
 10
236.5162638716
 20
922.7760428958
 11
236.5162638716
 21
923.9828502415
  0
LINE
  5
242
100
AcDbEntity
  8
7
100
AcDbLine
 62
7
  6
BYLAYER
 10
236.5162638716
 20
1066.5161643275
 11
236.5162638716
 21
1068.0010755838
  0
LINE
  5
243
100
AcDbEntity
  8
7
100
AcDbLine
 62
7
  6
BYLAYER
 10
236.5162638716
 20
1078.8093569818
 11
236.5162638716
 21
1080.0161643275
  0
LINE
  5
244
100
AcDbEntity
  8
7
100
AcDbLine
 62
7
  6
BYLAYER
 10
237.942801052
 20
1076.1053850526
 11
237.942801052
 21
1070.7053850526
  0
LINE
  5
245
100
AcDbEntity
  8
4
100
AcDbLine
 62
7
  6
BYLAYER
 10
237.942801052
 20
920.0720709666
 11
237.942801052
 21
914.6720709666
  0
LINE
  5
246
100
AcDbEntity
  8
4
100
AcDbLine
 62
7
  6
BYLAYER
 10
258.5897266912
 20
914.6720709666
 11
258.5897266912
 21
920.0720709666
  0
LINE
  5
247
100
AcDbEntity
  8
7
100
AcDbLine
 62
7
  6
BYLAYER
 10
258.5897266912
 20
1070.7053850526
 11
258.5897266912
 21
1076.1053850526
  0
LINE
  5
248
100
AcDbEntity
  8
7
100
AcDbLine
 62
7
  6
BYLAYER
 10
260.0162638716
 20
1080.0161643275
 11
260.0162638716
 21
1078.8096945214
  0
LINE
  5
249
100
AcDbEntity
  8
7
100
AcDbLine
 62
7
  6
BYLAYER
 10
260.0162638716
 20
1068.0014131234
 11
260.0162638716
 21
1066.5161643275
  0
LINE
  5
24A
100
AcDbEntity
  8
4
100
AcDbLine
 62
7
  6
BYLAYER
 10
260.0162638716
 20
923.9828502415
 11
260.0162638716
 21
922.7763804354
  0
LINE
  5
24B
100
AcDbEntity
  8
4
100
AcDbLine
 62
7
  6
BYLAYER
 10
260.0162638716
 20
911.9680990374
 11
260.0162638716
 21
910.4828502415
  0
LINE
  5
24C
100
AcDbEntity
  8
4
100
AcDbLine
 62
7
  6
BYLAYER
 10
266.5162638716
 20
910.4828502415
 11
266.5162638716
 21
911.9677614978
  0
LINE
  5
24D
100
AcDbEntity
  8
4
100
AcDbLine
 62
7
  6
BYLAYER
 10
266.5162638716
 20
922.7760428958
 11
266.5162638716
 21
923.9828502415
  0
LINE
  5
24E
100
AcDbEntity
  8
7
100
AcDbLine
 62
7
  6
BYLAYER
 10
266.5162638716
 20
1066.5161643275
 11
266.5162638716
 21
1068.0010755838
  0
LINE
  5
24F
100
AcDbEntity
  8
7
100
AcDbLine
 62
7
  6
BYLAYER
 10
266.5162638716
 20
1078.8093569818
 11
266.5162638716
 21
1080.0161643275
  0
LINE
  5
250
100
AcDbEntity
  8
7
100
AcDbLine
 62
7
  6
BYLAYER
 10
267.942801052
 20
1076.1053850526
 11
267.942801052
 21
1070.7053850526
  0
LINE
  5
251
100
AcDbEntity
  8
4
100
AcDbLine
 62
7
  6
BYLAYER
 10
267.942801052
 20
920.0720709666
 11
267.942801052
 21
914.6720709666
  0
LINE
  5
252
100
AcDbEntity
  8
7
100
AcDbLine
 62
7
  6
BYLAYER
 10
268.2662638716
 20
1041.2161643275
 11
268.2662638716
 21
1038.2161643275
  0
LINE
  5
253
100
AcDbEntity
  8
4
100
AcDbLine
 62
7
  6
BYLAYER
 10
268.2662638716
 20
885.1828502415
 11
268.2662638716
 21
882.1828502415
  0
LINE
  5
254
100
AcDbEntity
  8
4
100
AcDbLine
 62
7
  6
BYLAYER
 10
273.2662638716
 20
882.1828502415
 11
273.2662638716
 21
927.1828502415
  0
LINE
  5
255
100
AcDbEntity
  8
7
100
AcDbLine
 62
7
  6
BYLAYER
 10
273.2662638716
 20
1038.2161643275
 11
273.2662638716
 21
1083.2161643275
  0
LINE
  5
256
100
AcDbEntity
  8
7
100
AcDbLine
 62
7
  6
BYLAYER
 10
233.2662638716
 20
1078.8053850526
 11
228.5897266912
 21
1076.1053850526
  0
LINE
  5
257
100
AcDbEntity
  8
7
100
AcDbLine
 62
7
  6
BYLAYER
 10
233.2662638716
 20
1068.0053850526
 11
237.942801052
 21
1070.7053850526
  0
LINE
  5
258
100
AcDbEntity
  8
7
100
AcDbLine
 62
7
  6
BYLAYER
 10
263.2662638716
 20
1078.8053850526
 11
258.5897266912
 21
1076.1053850526
  0
LINE
  5
259
100
AcDbEntity
  8
4
100
AcDbLine
 62
7
  6
BYLAYER
 10
228.5897266912
 20
914.6720709666
 11
233.2662638716
 21
911.9720709666
  0
LINE
  5
25A
100
AcDbEntity
  8
4
100
AcDbLine
 62
7
  6
BYLAYER
 10
237.942801052
 20
920.0720709666
 11
233.2662638716
 21
922.7720709666
  0
LINE
  5
25B
100
AcDbEntity
  8
7
100
AcDbLine
 62
7
  6
BYLAYER
 10
263.2662638716
 20
1068.0053850526
 11
267.942801052
 21
1070.7053850526
  0
LINE
  5
25C
100
AcDbEntity
  8
4
100
AcDbLine
 62
7
  6
BYLAYER
 10
258.5897266912
 20
914.6720709666
 11
263.2662638716
 21
911.9720709666
  0
LINE
  5
25D
100
AcDbEntity
  8
4
100
AcDbLine
 62
7
  6
BYLAYER
 10
267.942801052
 20
920.0720709666
 11
263.2662638716
 21
922.7720709666
  0
LINE
  5
25E
100
AcDbEntity
  8
4
100
AcDbLine
 62
7
  6
BYLAYER
 10
233.2662638716
 20
922.7720709666
 11
228.5897266912
 21
920.0720709666
  0
LINE
  5
25F
100
AcDbEntity
  8
4
100
AcDbLine
 62
7
  6
BYLAYER
 10
233.2662638716
 20
911.9720709666
 11
237.942801052
 21
914.6720709666
  0
LINE
  5
260
100
AcDbEntity
  8
4
100
AcDbLine
 62
7
  6
BYLAYER
 10
263.2662638716
 20
922.7720709666
 11
258.5897266912
 21
920.0720709666
  0
LINE
  5
261
100
AcDbEntity
  8
4
100
AcDbLine
 62
7
  6
BYLAYER
 10
263.2662638716
 20
911.9720709666
 11
267.942801052
 21
914.6720709666
  0
LINE
  5
262
100
AcDbEntity
  8
7
100
AcDbLine
 62
7
  6
BYLAYER
 10
228.5897266912
 20
1070.7053850526
 11
233.2662638716
 21
1068.0053850526
  0
LINE
  5
263
100
AcDbEntity
  8
7
100
AcDbLine
 62
7
  6
BYLAYER
 10
237.942801052
 20
1076.1053850526
 11
233.2662638716
 21
1078.8053850526
  0
LINE
  5
264
100
AcDbEntity
  8
7
100
AcDbLine
 62
7
  6
BYLAYER
 10
258.5897266912
 20
1070.7053850526
 11
263.2662638716
 21
1068.0053850526
  0
LINE
  5
265
100
AcDbEntity
  8
7
100
AcDbLine
 62
7
  6
BYLAYER
 10
267.942801052
 20
1076.1053850526
 11
263.2662638716
 21
1078.8053850526
  0
LINE
  5
266
100
AcDbEntity
  8
4
100
AcDbLine
 62
7
  6
BYLAYER
 10
223.2662638716
 20
882.1828502415
 11
273.2662638716
 21
882.1828502415
  0
LINE
  5
267
100
AcDbEntity
  8
4
100
AcDbLine
 62
7
  6
BYLAYER
 10
667.1026665538
 20
882.1828502415
 11
717.1026665538
 21
882.1828502415
  0
LINE
  5
268
100
AcDbEntity
  8
4
100
AcDbLine
 62
7
  6
BYLAYER
 10
1144.6599216684
 20
882.1828502415
 11
1194.6599216684
 21
882.1828502415
  0
LINE
  5
269
100
AcDbEntity
  8
7
100
AcDbLine
 62
7
  6
BYLAYER
 10
677.1026665538
 20
1078.8053850526
 11
672.4261293734
 21
1076.1053850526
  0
LINE
  5
26A
100
AcDbEntity
  8
7
100
AcDbLine
 62
7
  6
BYLAYER
 10
677.1026665538
 20
1068.0053850526
 11
681.7792037342
 21
1070.7053850526
  0
LINE
  5
26B
100
AcDbEntity
  8
7
100
AcDbLine
 62
7
  6
BYLAYER
 10
707.1026665538
 20
1078.8053850526
 11
702.4261293734
 21
1076.1053850526
  0
LINE
  5
26C
100
AcDbEntity
  8
7
100
AcDbLine
 62
7
  6
BYLAYER
 10
707.1026665538
 20
1068.0053850526
 11
711.7792037342
 21
1070.7053850526
  0
LINE
  5
26D
100
AcDbEntity
  8
4
100
AcDbLine
 62
7
  6
BYLAYER
 10
223.2662638716
 20
885.1828502415
 11
273.2662638716
 21
885.1828502415
  0
LINE
  5
26E
100
AcDbEntity
  8
4
100
AcDbLine
 62
7
  6
BYLAYER
 10
667.1026665538
 20
885.1828502415
 11
717.1026665538
 21
885.1828502415
  0
LINE
  5
26F
100
AcDbEntity
  8
4
100
AcDbLine
 62
7
  6
BYLAYER
 10
1144.6599216684
 20
885.1828502415
 11
1194.6599216684
 21
885.1828502415
  0
LINE
  5
270
100
AcDbEntity
  8
4
100
AcDbLine
 62
7
  6
BYLAYER
 10
1194.6599216684
 20
889.1828502415
 11
1144.6599216684
 21
889.1828502415
  0
LINE
  5
271
100
AcDbEntity
  8
4
100
AcDbLine
 62
7
  6
BYLAYER
 10
717.1026665538
 20
889.1828502415
 11
667.1026665538
 21
889.1828502415
  0
LINE
  5
272
100
AcDbEntity
  8
4
100
AcDbLine
 62
7
  6
BYLAYER
 10
273.2662638716
 20
889.1828502415
 11
223.2662638716
 21
889.1828502415
  0
LINE
  5
273
100
AcDbEntity
  8
4
100
AcDbLine
 62
7
  6
BYLAYER
 10
174.3444576484
 20
892.3720709666
 11
223.2662638716
 21
892.3720709666
  0
LINE
  5
274
100
AcDbEntity
  8
4
100
AcDbLine
 62
7
  6
BYLAYER
 10
273.2662638716
 20
892.3720709666
 11
667.1026665538
 21
892.3720709666
  0
LINE
  5
275
100
AcDbEntity
  8
4
100
AcDbLine
 62
7
  6
BYLAYER
 10
717.1026665538
 20
892.3720709666
 11
1144.6599216684
 21
892.3720709666
  0
LINE
  5
276
100
AcDbEntity
  8
4
100
AcDbLine
 62
7
  6
BYLAYER
 10
1194.6599216684
 20
892.3720709666
 11
1247.8444576484
 21
892.3720709666
  0
LINE
  5
277
100
AcDbEntity
  8
4
100
AcDbLine
 62
7
  6
BYLAYER
 10
1247.8444576484
 20
896.3720709666
 11
1194.6599216684
 21
896.3720709666
  0
LINE
  5
278
100
AcDbEntity
  8
4
100
AcDbLine
 62
7
  6
BYLAYER
 10
1144.6599216684
 20
896.3720709666
 11
717.1026665538
 21
896.3720709666
  0
LINE
  5
279
100
AcDbEntity
  8
4
100
AcDbLine
 62
7
  6
BYLAYER
 10
667.1026665538
 20
896.3720709666
 11
273.2662638716
 21
896.3720709666
  0
LINE
  5
27A
100
AcDbEntity
  8
4
100
AcDbLine
 62
7
  6
BYLAYER
 10
223.2662638716
 20
896.3720709666
 11
174.3444576484
 21
896.3720709666
  0
LINE
  5
27B
100
AcDbEntity
  8
4
100
AcDbLine
 62
7
  6
BYLAYER
 10
173.3444576484
 20
900.6192358491
 11
174.3444576484
 21
900.6192358491
  0
LINE
  5
27C
100
AcDbEntity
  8
4
100
AcDbLine
 62
7
  6
BYLAYER
 10
167.8444576484
 20
900.6220709666
 11
173.3444576484
 21
900.6220709666
  0
LINE
  5
27D
100
AcDbEntity
  8
4
100
AcDbLine
 62
7
  6
BYLAYER
 10
163.8444576484
 20
902.3720709666
 11
166.8444576484
 21
902.3720709666
  0
LINE
  5
27E
100
AcDbEntity
  8
4
100
AcDbLine
 62
7
  6
BYLAYER
 10
174.3444576484
 20
912.8720709666
 11
223.2662638716
 21
912.8720709666
  0
LINE
  5
27F
100
AcDbEntity
  8
4
100
AcDbLine
 62
7
  6
BYLAYER
 10
273.2662638716
 20
912.8720709666
 11
667.1026665538
 21
912.8720709666
  0
LINE
  5
280
100
AcDbEntity
  8
4
100
AcDbLine
 62
7
  6
BYLAYER
 10
717.1026665538
 20
912.8720709666
 11
1144.6599216684
 21
912.8720709666
  0
LINE
  5
281
100
AcDbEntity
  8
4
100
AcDbLine
 62
7
  6
BYLAYER
 10
1194.6599216684
 20
912.8720709666
 11
1247.8444576484
 21
912.8720709666
  0
LINE
  5
282
100
AcDbEntity
  8
4
100
AcDbLine
 62
7
  6
BYLAYER
 10
1247.8444576484
 20
913.3720709666
 11
1194.6599216684
 21
913.3720709666
  0
LINE
  5
283
100
AcDbEntity
  8
4
100
AcDbLine
 62
7
  6
BYLAYER
 10
1144.6599216684
 20
913.3720709666
 11
717.1026665538
 21
913.3720709666
  0
LINE
  5
284
100
AcDbEntity
  8
4
100
AcDbLine
 62
7
  6
BYLAYER
 10
667.1026665538
 20
913.3720709666
 11
273.2662638716
 21
913.3720709666
  0
LINE
  5
285
100
AcDbEntity
  8
4
100
AcDbLine
 62
7
  6
BYLAYER
 10
223.2662638716
 20
913.3720709666
 11
174.3444576484
 21
913.3720709666
  0
LINE
  5
286
100
AcDbEntity
  8
4
100
AcDbLine
 62
7
  6
BYLAYER
 10
163.8444576484
 20
914.3720709666
 11
166.8444576484
 21
914.3720709666
  0
LINE
  5
287
100
AcDbEntity
  8
4
100
AcDbLine
 62
7
  6
BYLAYER
 10
167.8444576484
 20
916.1220709666
 11
173.3444576484
 21
916.1220709666
  0
LINE
  5
288
100
AcDbEntity
  8
4
100
AcDbLine
 62
7
  6
BYLAYER
 10
173.3444576484
 20
916.124906084
 11
174.3444576484
 21
916.124906084
  0
LINE
  5
289
100
AcDbEntity
  8
4
100
AcDbLine
 62
7
  6
BYLAYER
 10
173.3444576484
 20
918.6192358491
 11
174.3444576484
 21
918.6192358491
  0
LINE
  5
28A
100
AcDbEntity
  8
4
100
AcDbLine
 62
7
  6
BYLAYER
 10
167.8444576484
 20
918.6220709666
 11
173.3444576484
 21
918.6220709666
  0
LINE
  5
28B
100
AcDbEntity
  8
4
100
AcDbLine
 62
7
  6
BYLAYER
 10
672.4261293734
 20
914.6720709666
 11
677.1026665538
 21
911.9720709666
  0
LINE
  5
28C
100
AcDbEntity
  8
4
100
AcDbLine
 62
7
  6
BYLAYER
 10
681.7792037342
 20
920.0720709666
 11
677.1026665538
 21
922.7720709666
  0
LINE
  5
28D
100
AcDbEntity
  8
4
100
AcDbLine
 62
7
  6
BYLAYER
 10
702.4261293734
 20
914.6720709666
 11
707.1026665538
 21
911.9720709666
  0
LINE
  5
28E
100
AcDbEntity
  8
4
100
AcDbLine
 62
7
  6
BYLAYER
 10
667.1026665538
 20
882.1828502415
 11
667.1026665538
 21
927.1828502415
  0
LINE
  5
28F
100
AcDbEntity
  8
7
100
AcDbLine
 62
7
  6
BYLAYER
 10
667.1026665538
 20
1038.2161643275
 11
667.1026665538
 21
1083.2161643275
  0
LINE
  5
290
100
AcDbEntity
  8
4
100
AcDbLine
 62
7
  6
BYLAYER
 10
672.1026665538
 20
882.1828502415
 11
672.1026665538
 21
885.1828502415
  0
LINE
  5
291
100
AcDbEntity
  8
7
100
AcDbLine
 62
7
  6
BYLAYER
 10
672.1026665538
 20
1038.2161643275
 11
672.1026665538
 21
1041.2161643275
  0
LINE
  5
292
100
AcDbEntity
  8
4
100
AcDbLine
 62
7
  6
BYLAYER
 10
672.4261293734
 20
914.6720709666
 11
672.4261293734
 21
920.0720709666
  0
LINE
  5
293
100
AcDbEntity
  8
7
100
AcDbLine
 62
7
  6
BYLAYER
 10
672.4261293734
 20
1070.7053850526
 11
672.4261293734
 21
1076.1053850526
  0
LINE
  5
294
100
AcDbEntity
  8
7
100
AcDbLine
 62
7
  6
BYLAYER
 10
673.8526665538
 20
1080.0161643275
 11
673.8526665538
 21
1078.8096945214
  0
LINE
  5
295
100
AcDbEntity
  8
7
100
AcDbLine
 62
7
  6
BYLAYER
 10
673.8526665538
 20
1068.0014131234
 11
673.8526665538
 21
1066.5161643275
  0
LINE
  5
296
100
AcDbEntity
  8
4
100
AcDbLine
 62
7
  6
BYLAYER
 10
673.8526665538
 20
923.9828502415
 11
673.8526665538
 21
922.7763804354
  0
LINE
  5
297
100
AcDbEntity
  8
4
100
AcDbLine
 62
7
  6
BYLAYER
 10
673.8526665538
 20
911.9680990374
 11
673.8526665538
 21
910.4828502415
  0
LINE
  5
298
100
AcDbEntity
  8
4
100
AcDbLine
 62
7
  6
BYLAYER
 10
680.3526665538
 20
910.4828502415
 11
680.3526665538
 21
911.9677614978
  0
LINE
  5
299
100
AcDbEntity
  8
4
100
AcDbLine
 62
7
  6
BYLAYER
 10
680.3526665538
 20
922.7760428958
 11
680.3526665538
 21
923.9828502415
  0
LINE
  5
29A
100
AcDbEntity
  8
7
100
AcDbLine
 62
7
  6
BYLAYER
 10
680.3526665538
 20
1066.5161643275
 11
680.3526665538
 21
1068.0010755838
  0
LINE
  5
29B
100
AcDbEntity
  8
7
100
AcDbLine
 62
7
  6
BYLAYER
 10
680.3526665538
 20
1078.8093569818
 11
680.3526665538
 21
1080.0161643275
  0
LINE
  5
29C
100
AcDbEntity
  8
7
100
AcDbLine
 62
7
  6
BYLAYER
 10
681.7792037342
 20
1076.1053850526
 11
681.7792037342
 21
1070.7053850526
  0
LINE
  5
29D
100
AcDbEntity
  8
4
100
AcDbLine
 62
7
  6
BYLAYER
 10
681.7792037342
 20
920.0720709666
 11
681.7792037342
 21
914.6720709666
  0
LINE
  5
29E
100
AcDbEntity
  8
4
100
AcDbLine
 62
7
  6
BYLAYER
 10
174.3444576484
 20
921.3720709666
 11
223.2662638716
 21
921.3720709666
  0
LINE
  5
29F
100
AcDbEntity
  8
4
100
AcDbLine
 62
7
  6
BYLAYER
 10
273.2662638716
 20
921.3720709666
 11
667.1026665538
 21
921.3720709666
  0
LINE
  5
2A0
100
AcDbEntity
  8
4
100
AcDbLine
 62
7
  6
BYLAYER
 10
717.1026665538
 20
921.3720709666
 11
1144.6599216684
 21
921.3720709666
  0
LINE
  5
2A1
100
AcDbEntity
  8
4
100
AcDbLine
 62
7
  6
BYLAYER
 10
1194.6599216684
 20
921.3720709666
 11
1247.8444576484
 21
921.3720709666
  0
LINE
  5
2A2
100
AcDbEntity
  8
4
100
AcDbLine
 62
7
  6
BYLAYER
 10
1247.8444576484
 20
921.8720709666
 11
1194.6599216684
 21
921.8720709666
  0
LINE
  5
2A3
100
AcDbEntity
  8
4
100
AcDbLine
 62
7
  6
BYLAYER
 10
1144.6599216684
 20
921.8720709666
 11
717.1026665538
 21
921.8720709666
  0
LINE
  5
2A4
100
AcDbEntity
  8
4
100
AcDbLine
 62
7
  6
BYLAYER
 10
667.1026665538
 20
921.8720709666
 11
273.2662638716
 21
921.8720709666
  0
LINE
  5
2A5
100
AcDbEntity
  8
4
100
AcDbLine
 62
7
  6
BYLAYER
 10
223.2662638716
 20
921.8720709666
 11
174.3444576484
 21
921.8720709666
  0
LINE
  5
2A6
100
AcDbEntity
  8
4
100
AcDbLine
 62
7
  6
BYLAYER
 10
228.2662638716
 20
932.1828502415
 11
268.2662638716
 21
932.1828502415
  0
LINE
  5
2A7
100
AcDbEntity
  8
4
100
AcDbLine
 62
7
  6
BYLAYER
 10
672.1026665538
 20
932.1828502415
 11
712.1026665538
 21
932.1828502415
  0
LINE
  5
2A8
100
AcDbEntity
  8
4
100
AcDbLine
 62
7
  6
BYLAYER
 10
1149.6599216684
 20
932.1828502415
 11
1189.6599216684
 21
932.1828502415
  0
LINE
  5
2A9
100
AcDbEntity
  8
4
100
AcDbLine
 62
7
  6
BYLAYER
 10
167.8444576484
 20
934.1220709666
 11
173.3444576484
 21
934.1220709666
  0
LINE
  5
2AA
100
AcDbEntity
  8
4
100
AcDbLine
 62
7
  6
BYLAYER
 10
173.3444576484
 20
934.124906084
 11
174.3444576484
 21
934.124906084
  0
LINE
  5
2AB
100
AcDbEntity
  8
4
100
AcDbLine
 62
7
  6
BYLAYER
 10
174.3444576484
 20
938.3720709666
 11
1247.8444576484
 21
938.3720709666
  0
LINE
  5
2AC
100
AcDbEntity
  8
4
100
AcDbLine
 62
7
  6
BYLAYER
 10
1247.8444576484
 20
942.3720709666
 11
174.3444576484
 21
942.3720709666
  0
LINE
  5
2AD
100
AcDbEntity
  8
4
100
AcDbLine
 62
7
  6
BYLAYER
 10
711.7792037342
 20
920.0720709666
 11
707.1026665538
 21
922.7720709666
  0
LINE
  5
2AE
100
AcDbEntity
  8
4
100
AcDbLine
 62
7
  6
BYLAYER
 10
702.4261293734
 20
914.6720709666
 11
702.4261293734
 21
920.0720709666
  0
LINE
  5
2AF
100
AcDbEntity
  8
7
100
AcDbLine
 62
7
  6
BYLAYER
 10
702.4261293734
 20
1070.7053850526
 11
702.4261293734
 21
1076.1053850526
  0
LINE
  5
2B0
100
AcDbEntity
  8
7
100
AcDbLine
 62
7
  6
BYLAYER
 10
703.8526665538
 20
1080.0161643275
 11
703.8526665538
 21
1078.8096945214
  0
LINE
  5
2B1
100
AcDbEntity
  8
7
100
AcDbLine
 62
7
  6
BYLAYER
 10
703.8526665538
 20
1068.0014131234
 11
703.8526665538
 21
1066.5161643275
  0
LINE
  5
2B2
100
AcDbEntity
  8
4
100
AcDbLine
 62
7
  6
BYLAYER
 10
703.8526665538
 20
923.9828502415
 11
703.8526665538
 21
922.7763804354
  0
LINE
  5
2B3
100
AcDbEntity
  8
4
100
AcDbLine
 62
7
  6
BYLAYER
 10
703.8526665538
 20
911.9680990374
 11
703.8526665538
 21
910.4828502415
  0
LINE
  5
2B4
100
AcDbEntity
  8
4
100
AcDbLine
 62
7
  6
BYLAYER
 10
710.3526665538
 20
910.4828502415
 11
710.3526665538
 21
911.9677614978
  0
LINE
  5
2B5
100
AcDbEntity
  8
4
100
AcDbLine
 62
7
  6
BYLAYER
 10
710.3526665538
 20
922.7760428958
 11
710.3526665538
 21
923.9828502415
  0
LINE
  5
2B6
100
AcDbEntity
  8
7
100
AcDbLine
 62
7
  6
BYLAYER
 10
710.3526665538
 20
1066.5161643275
 11
710.3526665538
 21
1068.0010755838
  0
LINE
  5
2B7
100
AcDbEntity
  8
7
100
AcDbLine
 62
7
  6
BYLAYER
 10
710.3526665538
 20
1078.8093569818
 11
710.3526665538
 21
1080.0161643275
  0
LINE
  5
2B8
100
AcDbEntity
  8
7
100
AcDbLine
 62
7
  6
BYLAYER
 10
711.7792037342
 20
1076.1053850526
 11
711.7792037342
 21
1070.7053850526
  0
LINE
  5
2B9
100
AcDbEntity
  8
4
100
AcDbLine
 62
7
  6
BYLAYER
 10
711.7792037342
 20
920.0720709666
 11
711.7792037342
 21
914.6720709666
  0
LINE
  5
2BA
100
AcDbEntity
  8
7
100
AcDbLine
 62
7
  6
BYLAYER
 10
712.1026665538
 20
1041.2161643275
 11
712.1026665538
 21
1038.2161643275
  0
LINE
  5
2BB
100
AcDbEntity
  8
4
100
AcDbLine
 62
7
  6
BYLAYER
 10
712.1026665538
 20
885.1828502415
 11
712.1026665538
 21
882.1828502415
  0
LINE
  5
2BC
100
AcDbEntity
  8
4
100
AcDbLine
 62
7
  6
BYLAYER
 10
717.1026665538
 20
882.1828502415
 11
717.1026665538
 21
927.1828502415
  0
LINE
  5
2BD
100
AcDbEntity
  8
7
100
AcDbLine
 62
7
  6
BYLAYER
 10
717.1026665538
 20
1038.2161643275
 11
717.1026665538
 21
1083.2161643275
  0
LINE
  5
2BE
100
AcDbEntity
  8
4
100
AcDbLine
 62
7
  6
BYLAYER
 10
677.1026665538
 20
922.7720709666
 11
672.4261293734
 21
920.0720709666
  0
LINE
  5
2BF
100
AcDbEntity
  8
4
100
AcDbLine
 62
7
  6
BYLAYER
 10
677.1026665538
 20
911.9720709666
 11
681.7792037342
 21
914.6720709666
  0
LINE
  5
2C0
100
AcDbEntity
  8
4
100
AcDbLine
 62
7
  6
BYLAYER
 10
707.1026665538
 20
922.7720709666
 11
702.4261293734
 21
920.0720709666
  0
LINE
  5
2C1
100
AcDbEntity
  8
4
100
AcDbLine
 62
7
  6
BYLAYER
 10
707.1026665538
 20
911.9720709666
 11
711.7792037342
 21
914.6720709666
  0
LINE
  5
2C2
100
AcDbEntity
  8
7
100
AcDbLine
 62
7
  6
BYLAYER
 10
223.2662638716
 20
1038.2161643275
 11
273.2662638716
 21
1038.2161643275
  0
LINE
  5
2C3
100
AcDbEntity
  8
7
100
AcDbLine
 62
7
  6
BYLAYER
 10
667.1026665538
 20
1038.2161643275
 11
717.1026665538
 21
1038.2161643275
  0
LINE
  5
2C4
100
AcDbEntity
  8
7
100
AcDbLine
 62
7
  6
BYLAYER
 10
1144.6599216684
 20
1038.2161643275
 11
1194.6599216684
 21
1038.2161643275
  0
LINE
  5
2C5
100
AcDbEntity
  8
7
100
AcDbLine
 62
7
  6
BYLAYER
 10
223.2662638716
 20
1041.2161643275
 11
273.2662638716
 21
1041.2161643275
  0
LINE
  5
2C6
100
AcDbEntity
  8
7
100
AcDbLine
 62
7
  6
BYLAYER
 10
667.1026665538
 20
1041.2161643275
 11
717.1026665538
 21
1041.2161643275
  0
LINE
  5
2C7
100
AcDbEntity
  8
7
100
AcDbLine
 62
7
  6
BYLAYER
 10
1144.6599216684
 20
1041.2161643275
 11
1194.6599216684
 21
1041.2161643275
  0
LINE
  5
2C8
100
AcDbEntity
  8
7
100
AcDbLine
 62
7
  6
BYLAYER
 10
1194.6599216684
 20
1045.2161643275
 11
1144.6599216684
 21
1045.2161643275
  0
LINE
  5
2C9
100
AcDbEntity
  8
7
100
AcDbLine
 62
7
  6
BYLAYER
 10
717.1026665538
 20
1045.2161643275
 11
667.1026665538
 21
1045.2161643275
  0
LINE
  5
2CA
100
AcDbEntity
  8
7
100
AcDbLine
 62
7
  6
BYLAYER
 10
273.2662638716
 20
1045.2161643275
 11
223.2662638716
 21
1045.2161643275
  0
LINE
  5
2CB
100
AcDbEntity
  8
7
100
AcDbLine
 62
7
  6
BYLAYER
 10
174.3444576484
 20
1048.4053850526
 11
223.2662638716
 21
1048.4053850526
  0
LINE
  5
2CC
100
AcDbEntity
  8
7
100
AcDbLine
 62
7
  6
BYLAYER
 10
273.2662638716
 20
1048.4053850526
 11
667.1026665538
 21
1048.4053850526
  0
LINE
  5
2CD
100
AcDbEntity
  8
7
100
AcDbLine
 62
7
  6
BYLAYER
 10
717.1026665538
 20
1048.4053850526
 11
1144.6599216684
 21
1048.4053850526
  0
LINE
  5
2CE
100
AcDbEntity
  8
7
100
AcDbLine
 62
7
  6
BYLAYER
 10
1194.6599216684
 20
1048.4053850526
 11
1247.8444576484
 21
1048.4053850526
  0
LINE
  5
2CF
100
AcDbEntity
  8
7
100
AcDbLine
 62
7
  6
BYLAYER
 10
1247.8444576484
 20
1052.4053850526
 11
1194.6599216684
 21
1052.4053850526
  0
LINE
  5
2D0
100
AcDbEntity
  8
7
100
AcDbLine
 62
7
  6
BYLAYER
 10
1144.6599216684
 20
1052.4053850526
 11
717.1026665538
 21
1052.4053850526
  0
LINE
  5
2D1
100
AcDbEntity
  8
7
100
AcDbLine
 62
7
  6
BYLAYER
 10
667.1026665538
 20
1052.4053850526
 11
273.2662638716
 21
1052.4053850526
  0
LINE
  5
2D2
100
AcDbEntity
  8
7
100
AcDbLine
 62
7
  6
BYLAYER
 10
223.2662638716
 20
1052.4053850526
 11
174.3444576484
 21
1052.4053850526
  0
LINE
  5
2D3
100
AcDbEntity
  8
7
100
AcDbLine
 62
7
  6
BYLAYER
 10
173.3444576484
 20
1056.6525499352
 11
174.3444576484
 21
1056.6525499352
  0
LINE
  5
2D4
100
AcDbEntity
  8
7
100
AcDbLine
 62
7
  6
BYLAYER
 10
167.8444576484
 20
1056.6553850526
 11
173.3444576484
 21
1056.6553850526
  0
LINE
  5
2D5
100
AcDbEntity
  8
7
100
AcDbLine
 62
7
  6
BYLAYER
 10
1256.8444576484
 20
1056.9053850526
 11
1248.8444576484
 21
1056.9053850526
  0
LINE
  5
2D6
100
AcDbEntity
  8
7
100
AcDbLine
 62
7
  6
BYLAYER
 10
1260.8444576484
 20
1058.4053850526
 11
1257.8444576484
 21
1058.4053850526
  0
LINE
  5
2D7
100
AcDbEntity
  8
7
100
AcDbLine
 62
7
  6
BYLAYER
 10
163.8444576484
 20
1058.4053850526
 11
166.8444576484
 21
1058.4053850526
  0
LINE
  5
2D8
100
AcDbEntity
  8
7
100
AcDbLine
 62
7
  6
BYLAYER
 10
174.3444576484
 20
1068.9053850526
 11
223.2662638716
 21
1068.9053850526
  0
LINE
  5
2D9
100
AcDbEntity
  8
7
100
AcDbLine
 62
7
  6
BYLAYER
 10
273.2662638716
 20
1068.9053850526
 11
667.1026665538
 21
1068.9053850526
  0
LINE
  5
2DA
100
AcDbEntity
  8
7
100
AcDbLine
 62
7
  6
BYLAYER
 10
717.1026665538
 20
1068.9053850526
 11
1144.6599216684
 21
1068.9053850526
  0
LINE
  5
2DB
100
AcDbEntity
  8
7
100
AcDbLine
 62
7
  6
BYLAYER
 10
1194.6599216684
 20
1068.9053850526
 11
1247.8444576484
 21
1068.9053850526
  0
LINE
  5
2DC
100
AcDbEntity
  8
7
100
AcDbLine
 62
7
  6
BYLAYER
 10
1247.8444576484
 20
1069.4053850526
 11
1194.6599216684
 21
1069.4053850526
  0
LINE
  5
2DD
100
AcDbEntity
  8
7
100
AcDbLine
 62
7
  6
BYLAYER
 10
1144.6599216684
 20
1069.4053850526
 11
717.1026665538
 21
1069.4053850526
  0
LINE
  5
2DE
100
AcDbEntity
  8
7
100
AcDbLine
 62
7
  6
BYLAYER
 10
667.1026665538
 20
1069.4053850526
 11
273.2662638716
 21
1069.4053850526
  0
LINE
  5
2DF
100
AcDbEntity
  8
7
100
AcDbLine
 62
7
  6
BYLAYER
 10
223.2662638716
 20
1069.4053850526
 11
174.3444576484
 21
1069.4053850526
  0
LINE
  5
2E0
100
AcDbEntity
  8
7
100
AcDbLine
 62
7
  6
BYLAYER
 10
163.8444576484
 20
1070.4053850526
 11
166.8444576484
 21
1070.4053850526
  0
LINE
  5
2E1
100
AcDbEntity
  8
7
100
AcDbLine
 62
7
  6
BYLAYER
 10
672.4261293734
 20
1070.7053850526
 11
677.1026665538
 21
1068.0053850526
  0
LINE
  5
2E2
100
AcDbEntity
  8
7
100
AcDbLine
 62
7
  6
BYLAYER
 10
681.7792037342
 20
1076.1053850526
 11
677.1026665538
 21
1078.8053850526
  0
LINE
  5
2E3
100
AcDbEntity
  8
7
100
AcDbLine
 62
7
  6
BYLAYER
 10
702.4261293734
 20
1070.7053850526
 11
707.1026665538
 21
1068.0053850526
  0
LINE
  5
2E4
100
AcDbEntity
  8
7
100
AcDbLine
 62
7
  6
BYLAYER
 10
711.7792037342
 20
1076.1053850526
 11
707.1026665538
 21
1078.8053850526
  0
LINE
  5
2E5
100
AcDbEntity
  8
7
100
AcDbLine
 62
7
  6
BYLAYER
 10
167.8444576484
 20
1072.1553850526
 11
173.3444576484
 21
1072.1553850526
  0
LINE
  5
2E6
100
AcDbEntity
  8
7
100
AcDbLine
 62
7
  6
BYLAYER
 10
173.3444576484
 20
1072.15822017
 11
174.3444576484
 21
1072.15822017
  0
LINE
  5
2E7
100
AcDbEntity
  8
7
100
AcDbLine
 62
7
  6
BYLAYER
 10
171.5444576484
 20
1074.6525499352
 11
172.5444576484
 21
1074.6525499352
  0
LINE
  5
2E8
100
AcDbEntity
  8
7
100
AcDbLine
 62
7
  6
BYLAYER
 10
173.3444576484
 20
1074.6525499352
 11
174.3444576484
 21
1074.6525499352
  0
LINE
  5
2E9
100
AcDbEntity
  8
7
100
AcDbLine
 62
7
  6
BYLAYER
 10
166.0444576484
 20
1074.6553850526
 11
173.3444576484
 21
1074.6553850526
  0
LINE
  5
2EA
100
AcDbEntity
  8
7
100
AcDbLine
 62
7
  6
BYLAYER
 10
174.3444576484
 20
1077.4053850526
 11
223.2662638716
 21
1077.4053850526
  0
LINE
  5
2EB
100
AcDbEntity
  8
7
100
AcDbLine
 62
7
  6
BYLAYER
 10
273.2662638716
 20
1077.4053850526
 11
667.1026665538
 21
1077.4053850526
  0
LINE
  5
2EC
100
AcDbEntity
  8
7
100
AcDbLine
 62
7
  6
BYLAYER
 10
717.1026665538
 20
1077.4053850526
 11
1144.6599216684
 21
1077.4053850526
  0
LINE
  5
2ED
100
AcDbEntity
  8
7
100
AcDbLine
 62
7
  6
BYLAYER
 10
1194.6599216684
 20
1077.4053850526
 11
1247.8444576484
 21
1077.4053850526
  0
LINE
  5
2EE
100
AcDbEntity
  8
7
100
AcDbLine
 62
7
  6
BYLAYER
 10
1247.8444576484
 20
1077.9053850526
 11
1194.6599216684
 21
1077.9053850526
  0
LINE
  5
2EF
100
AcDbEntity
  8
7
100
AcDbLine
 62
7
  6
BYLAYER
 10
1144.6599216684
 20
1077.9053850526
 11
717.1026665538
 21
1077.9053850526
  0
LINE
  5
2F0
100
AcDbEntity
  8
7
100
AcDbLine
 62
7
  6
BYLAYER
 10
667.1026665538
 20
1077.9053850526
 11
273.2662638716
 21
1077.9053850526
  0
LINE
  5
2F1
100
AcDbEntity
  8
7
100
AcDbLine
 62
7
  6
BYLAYER
 10
223.2662638716
 20
1077.9053850526
 11
174.3444576484
 21
1077.9053850526
  0
LINE
  5
2F2
100
AcDbEntity
  8
7
100
AcDbLine
 62
7
  6
BYLAYER
 10
228.2662638716
 20
1088.2161643275
 11
268.2662638716
 21
1088.2161643275
  0
LINE
  5
2F3
100
AcDbEntity
  8
7
100
AcDbLine
 62
7
  6
BYLAYER
 10
672.1026665538
 20
1088.2161643275
 11
712.1026665538
 21
1088.2161643275
  0
LINE
  5
2F4
100
AcDbEntity
  8
7
100
AcDbLine
 62
7
  6
BYLAYER
 10
1149.6599216684
 20
1088.2161643275
 11
1189.6599216684
 21
1088.2161643275
  0
LINE
  5
2F5
100
AcDbEntity
  8
7
100
AcDbLine
 62
7
  6
BYLAYER
 10
1260.8444576484
 20
1088.4053850526
 11
1257.8444576484
 21
1088.4053850526
  0
LINE
  5
2F6
100
AcDbEntity
  8
7
100
AcDbLine
 62
7
  6
BYLAYER
 10
1256.8444576484
 20
1089.9053850526
 11
1248.8444576484
 21
1089.9053850526
  0
LINE
  5
2F7
100
AcDbEntity
  8
7
100
AcDbLine
 62
7
  6
BYLAYER
 10
166.0444576484
 20
1090.1553850526
 11
173.3444576484
 21
1090.1553850526
  0
LINE
  5
2F8
100
AcDbEntity
  8
7
100
AcDbLine
 62
7
  6
BYLAYER
 10
171.5444576484
 20
1090.15822017
 11
172.5444576484
 21
1090.15822017
  0
LINE
  5
2F9
100
AcDbEntity
  8
7
100
AcDbLine
 62
7
  6
BYLAYER
 10
173.3444576484
 20
1090.15822017
 11
174.3444576484
 21
1090.15822017
  0
LINE
  5
2FA
100
AcDbEntity
  8
7
100
AcDbLine
 62
7
  6
BYLAYER
 10
174.3444576484
 20
1094.4053850526
 11
1247.8444576484
 21
1094.4053850526
  0
LINE
  5
2FB
100
AcDbEntity
  8
7
100
AcDbLine
 62
7
  6
BYLAYER
 10
1247.8444576484
 20
1098.4053850526
 11
174.3444576484
 21
1098.4053850526
  0
LINE
  5
2FC
100
AcDbEntity
  8
7
100
AcDbLine
 62
7
  6
BYLAYER
 10
1154.6599216684
 20
1078.8053850526
 11
1149.9833844879
 21
1076.1053850526
  0
LINE
  5
2FD
100
AcDbEntity
  8
7
100
AcDbLine
 62
7
  6
BYLAYER
 10
1154.6599216684
 20
1068.0053850526
 11
1159.3364588488
 21
1070.7053850526
  0
LINE
  5
2FE
100
AcDbEntity
  8
4
100
AcDbLine
 62
7
  6
BYLAYER
 10
1149.9833844879
 20
914.6720709666
 11
1154.6599216684
 21
911.9720709666
  0
LINE
  5
2FF
100
AcDbEntity
  8
7
100
AcDbLine
 62
7
  6
BYLAYER
 10
1184.6599216684
 20
1078.8053850526
 11
1179.9833844879
 21
1076.1053850526
  0
LINE
  5
300
100
AcDbEntity
  8
7
100
AcDbLine
 62
7
  6
BYLAYER
 10
1184.6599216684
 20
1068.0053850526
 11
1189.3364588488
 21
1070.7053850526
  0
LINE
  5
301
100
AcDbEntity
  8
4
100
AcDbLine
 62
7
  6
BYLAYER
 10
1159.3364588488
 20
920.0720709666
 11
1154.6599216684
 21
922.7720709666
  0
LINE
  5
302
100
AcDbEntity
  8
4
100
AcDbLine
 62
7
  6
BYLAYER
 10
1179.9833844879
 20
914.6720709666
 11
1184.6599216684
 21
911.9720709666
  0
LINE
  5
303
100
AcDbEntity
  8
4
100
AcDbLine
 62
7
  6
BYLAYER
 10
1189.3364588488
 20
920.0720709666
 11
1184.6599216684
 21
922.7720709666
  0
LINE
  5
304
100
AcDbEntity
  8
4
100
AcDbLine
 62
7
  6
BYLAYER
 10
1154.6599216684
 20
922.7720709666
 11
1149.9833844879
 21
920.0720709666
  0
LINE
  5
305
100
AcDbEntity
  8
4
100
AcDbLine
 62
7
  6
BYLAYER
 10
1154.6599216684
 20
911.9720709666
 11
1159.3364588488
 21
914.6720709666
  0
LINE
  5
306
100
AcDbEntity
  8
4
100
AcDbLine
 62
7
  6
BYLAYER
 10
1184.6599216684
 20
922.7720709666
 11
1179.9833844879
 21
920.0720709666
  0
LINE
  5
307
100
AcDbEntity
  8
4
100
AcDbLine
 62
7
  6
BYLAYER
 10
1184.6599216684
 20
911.9720709666
 11
1189.3364588488
 21
914.6720709666
  0
LINE
  5
308
100
AcDbEntity
  8
7
100
AcDbLine
 62
7
  6
BYLAYER
 10
1149.9833844879
 20
1070.7053850526
 11
1154.6599216684
 21
1068.0053850526
  0
LINE
  5
309
100
AcDbEntity
  8
7
100
AcDbLine
 62
7
  6
BYLAYER
 10
1159.3364588488
 20
1076.1053850526
 11
1154.6599216684
 21
1078.8053850526
  0
LINE
  5
30A
100
AcDbEntity
  8
7
100
AcDbLine
 62
7
  6
BYLAYER
 10
1179.9833844879
 20
1070.7053850526
 11
1184.6599216684
 21
1068.0053850526
  0
LINE
  5
30B
100
AcDbEntity
  8
7
100
AcDbLine
 62
7
  6
BYLAYER
 10
1257.8444576484
 20
1057.9053850526
 11
1256.8444576484
 21
1056.9053850526
  0
LINE
  5
30C
100
AcDbEntity
  8
7
100
AcDbLine
 62
7
  6
BYLAYER
 10
1189.3364588488
 20
1076.1053850526
 11
1184.6599216684
 21
1078.8053850526
  0
LINE
  5
30D
100
AcDbEntity
  8
4
100
AcDbLine
 62
7
  6
BYLAYER
 10
1144.6599216684
 20
882.1828502415
 11
1144.6599216684
 21
927.1828502415
  0
LINE
  5
30E
100
AcDbEntity
  8
7
100
AcDbLine
 62
7
  6
BYLAYER
 10
1144.6599216684
 20
1038.2161643275
 11
1144.6599216684
 21
1083.2161643275
  0
LINE
  5
30F
100
AcDbEntity
  8
4
100
AcDbLine
 62
7
  6
BYLAYER
 10
1149.6599216684
 20
882.1828502415
 11
1149.6599216684
 21
885.1828502415
  0
LINE
  5
310
100
AcDbEntity
  8
7
100
AcDbLine
 62
7
  6
BYLAYER
 10
1149.6599216684
 20
1038.2161643275
 11
1149.6599216684
 21
1041.2161643275
  0
LINE
  5
311
100
AcDbEntity
  8
4
100
AcDbLine
 62
7
  6
BYLAYER
 10
1149.9833844879
 20
914.6720709666
 11
1149.9833844879
 21
920.0720709666
  0
LINE
  5
312
100
AcDbEntity
  8
7
100
AcDbLine
 62
7
  6
BYLAYER
 10
1149.9833844879
 20
1070.7053850526
 11
1149.9833844879
 21
1076.1053850526
  0
LINE
  5
313
100
AcDbEntity
  8
7
100
AcDbLine
 62
7
  6
BYLAYER
 10
1151.4099216684
 20
1080.0161643275
 11
1151.4099216684
 21
1078.8096945214
  0
LINE
  5
314
100
AcDbEntity
  8
7
100
AcDbLine
 62
7
  6
BYLAYER
 10
1151.4099216684
 20
1068.0014131234
 11
1151.4099216684
 21
1066.5161643275
  0
LINE
  5
315
100
AcDbEntity
  8
4
100
AcDbLine
 62
7
  6
BYLAYER
 10
1151.4099216684
 20
923.9828502415
 11
1151.4099216684
 21
922.7763804354
  0
LINE
  5
316
100
AcDbEntity
  8
4
100
AcDbLine
 62
7
  6
BYLAYER
 10
1151.4099216684
 20
911.9680990374
 11
1151.4099216684
 21
910.4828502415
  0
LINE
  5
317
100
AcDbEntity
  8
4
100
AcDbLine
 62
7
  6
BYLAYER
 10
1157.9099216684
 20
910.4828502415
 11
1157.9099216684
 21
911.9677614978
  0
LINE
  5
318
100
AcDbEntity
  8
4
100
AcDbLine
 62
7
  6
BYLAYER
 10
1157.9099216684
 20
922.7760428958
 11
1157.9099216684
 21
923.9828502415
  0
LINE
  5
319
100
AcDbEntity
  8
7
100
AcDbLine
 62
7
  6
BYLAYER
 10
1157.9099216684
 20
1066.5161643275
 11
1157.9099216684
 21
1068.0010755838
  0
LINE
  5
31A
100
AcDbEntity
  8
7
100
AcDbLine
 62
7
  6
BYLAYER
 10
1157.9099216684
 20
1078.8093569818
 11
1157.9099216684
 21
1080.0161643275
  0
LINE
  5
31B
100
AcDbEntity
  8
7
100
AcDbLine
 62
7
  6
BYLAYER
 10
1159.3364588488
 20
1076.1053850526
 11
1159.3364588488
 21
1070.7053850526
  0
LINE
  5
31C
100
AcDbEntity
  8
4
100
AcDbLine
 62
7
  6
BYLAYER
 10
1159.3364588488
 20
920.0720709666
 11
1159.3364588488
 21
914.6720709666
  0
LINE
  5
31D
100
AcDbEntity
  8
7
100
AcDbLine
 62
7
  6
BYLAYER
 10
1257.8444576484
 20
1088.9053850526
 11
1256.8444576484
 21
1089.9053850526
  0
LINE
  5
31E
100
AcDbEntity
  8
4
100
AcDbLine
 62
7
  6
BYLAYER
 10
1179.9833844879
 20
914.6720709666
 11
1179.9833844879
 21
920.0720709666
  0
LINE
  5
31F
100
AcDbEntity
  8
7
100
AcDbLine
 62
7
  6
BYLAYER
 10
1179.9833844879
 20
1070.7053850526
 11
1179.9833844879
 21
1076.1053850526
  0
LINE
  5
320
100
AcDbEntity
  8
7
100
AcDbLine
 62
7
  6
BYLAYER
 10
1181.4099216684
 20
1080.0161643275
 11
1181.4099216684
 21
1078.8096945214
  0
LINE
  5
321
100
AcDbEntity
  8
7
100
AcDbLine
 62
7
  6
BYLAYER
 10
1181.4099216684
 20
1068.0014131234
 11
1181.4099216684
 21
1066.5161643275
  0
LINE
  5
322
100
AcDbEntity
  8
4
100
AcDbLine
 62
7
  6
BYLAYER
 10
1181.4099216684
 20
923.9828502415
 11
1181.4099216684
 21
922.7763804354
  0
LINE
  5
323
100
AcDbEntity
  8
4
100
AcDbLine
 62
7
  6
BYLAYER
 10
1181.4099216684
 20
911.9680990374
 11
1181.4099216684
 21
910.4828502415
  0
LINE
  5
324
100
AcDbEntity
  8
4
100
AcDbLine
 62
7
  6
BYLAYER
 10
1187.9099216684
 20
910.4828502415
 11
1187.9099216684
 21
911.9677614978
  0
LINE
  5
325
100
AcDbEntity
  8
4
100
AcDbLine
 62
7
  6
BYLAYER
 10
1187.9099216684
 20
922.7760428958
 11
1187.9099216684
 21
923.9828502415
  0
LINE
  5
326
100
AcDbEntity
  8
7
100
AcDbLine
 62
7
  6
BYLAYER
 10
1187.9099216684
 20
1066.5161643275
 11
1187.9099216684
 21
1068.0010755838
  0
LINE
  5
327
100
AcDbEntity
  8
7
100
AcDbLine
 62
7
  6
BYLAYER
 10
1187.9099216684
 20
1078.8093569818
 11
1187.9099216684
 21
1080.0161643275
  0
LINE
  5
328
100
AcDbEntity
  8
7
100
AcDbLine
 62
7
  6
BYLAYER
 10
1189.3364588488
 20
1076.1053850526
 11
1189.3364588488
 21
1070.7053850526
  0
LINE
  5
329
100
AcDbEntity
  8
4
100
AcDbLine
 62
7
  6
BYLAYER
 10
1189.3364588488
 20
920.0720709666
 11
1189.3364588488
 21
914.6720709666
  0
LINE
  5
32A
100
AcDbEntity
  8
7
100
AcDbLine
 62
7
  6
BYLAYER
 10
1189.6599216684
 20
1041.2161643275
 11
1189.6599216684
 21
1038.2161643275
  0
LINE
  5
32B
100
AcDbEntity
  8
4
100
AcDbLine
 62
7
  6
BYLAYER
 10
1189.6599216684
 20
885.1828502415
 11
1189.6599216684
 21
882.1828502415
  0
LINE
  5
32C
100
AcDbEntity
  8
4
100
AcDbLine
 62
7
  6
BYLAYER
 10
1194.6599216684
 20
882.1828502415
 11
1194.6599216684
 21
927.1828502415
  0
LINE
  5
32D
100
AcDbEntity
  8
7
100
AcDbLine
 62
7
  6
BYLAYER
 10
1194.6599216684
 20
1038.2161643275
 11
1194.6599216684
 21
1083.2161643275
  0
LINE
  5
32E
100
AcDbEntity
  8
4
100
AcDbLine
 62
7
  6
BYLAYER
 10
1230.3444576484
 20
892.3720709666
 11
1230.3444576484
 21
942.3720709666
  0
LINE
  5
32F
100
AcDbEntity
  8
7
100
AcDbLine
 62
7
  6
BYLAYER
 10
1230.3444576484
 20
1048.4053850526
 11
1230.3444576484
 21
1098.4053850526
  0
LINE
  5
330
100
AcDbEntity
  8
4
100
AcDbLine
 62
7
  6
BYLAYER
 10
1247.8444576484
 20
892.3720709666
 11
1247.8444576484
 21
942.3720709666
  0
LINE
  5
331
100
AcDbEntity
  8
7
100
AcDbLine
 62
7
  6
BYLAYER
 10
1247.8444576484
 20
1048.4053850526
 11
1247.8444576484
 21
1098.4053850526
  0
LINE
  5
332
100
AcDbEntity
  8
7
100
AcDbLine
 62
7
  6
BYLAYER
 10
1248.8444576484
 20
1056.9053850526
 11
1248.8444576484
 21
1089.9053850526
  0
LINE
  5
333
100
AcDbEntity
  8
7
100
AcDbLine
 62
7
  6
BYLAYER
 10
1252.8444576484
 20
1089.905168251
 11
1252.8444576484
 21
1056.9056018541
  0
LINE
  5
334
100
AcDbEntity
  8
7
100
AcDbLine
 62
7
  6
BYLAYER
 10
1255.8444576484
 20
1089.9040602389
 11
1255.8444576484
 21
1056.905521441
  0
LINE
  5
335
100
AcDbEntity
  8
7
100
AcDbLine
 62
7
  6
BYLAYER
 10
1256.8444576484
 20
1089.9053850526
 11
1256.8444576484
 21
1056.9053850526
  0
LINE
  5
336
100
AcDbEntity
  8
7
100
AcDbLine
 62
7
  6
BYLAYER
 10
1257.8444576484
 20
1088.9053764353
 11
1257.8444576484
 21
1057.9053936699
  0
LINE
  5
337
100
AcDbEntity
  8
7
100
AcDbLine
 62
7
  6
BYLAYER
 10
1260.8444576484
 20
1088.4053850526
 11
1260.8444576484
 21
1058.4053850526
  0
LINE
  5
338
100
AcDbEntity
  8
7
100
AcDbLine
 62
7
  6
BYLAYER
 10
1271.3444576484
 20
1062.6932424098
 11
1271.3444576484
 21
1084.1175276954
  0
LINE
  5
339
100
AcDbEntity
  8
7
100
AcDbLine
 62
7
  6
BYLAYER
 10
1272.8444576484
 20
1080.5468134811
 11
1272.8444576484
 21
1066.263956624
  0
ARC
  5
33A
100
AcDbEntity
  8
4
100
AcDbCircle
 62
7
  6
BYLAYER
 10
263.2662638716
 20
910.4828502415
 40
3.25
100
AcDbArc
 50
179.9999999999
 51
360.0
  0
ARC
  5
33B
100
AcDbEntity
  8
4
100
AcDbCircle
 62
7
  6
BYLAYER
 10
233.2662638716
 20
910.4828502415
 40
3.25
100
AcDbArc
 50
180.0
 51
360.0
  0
ARC
  5
33C
100
AcDbEntity
  8
4
100
AcDbCircle
 62
7
  6
BYLAYER
 10
163.8444576484
 20
903.3720709666
 40
1.0
100
AcDbArc
 50
180.0
 51
270.0
  0
ARC
  5
33D
100
AcDbEntity
  8
4
100
AcDbCircle
 62
7
  6
BYLAYER
 10
163.8444576484
 20
913.3720709666
 40
1.0
100
AcDbArc
 50
90.0
 51
180.0
  0
ARC
  5
33E
100
AcDbEntity
  8
4
100
AcDbCircle
 62
7
  6
BYLAYER
 10
167.3444576484
 20
911.3720709666
 40
1.0
100
AcDbArc
 50
120.4563864893
 51
180.0
  0
ARC
  5
33F
100
AcDbEntity
  8
4
100
AcDbCircle
 62
7
  6
BYLAYER
 10
167.3444576484
 20
905.3720709666
 40
1.0
100
AcDbArc
 50
180.0
 51
239.5436135107
  0
ARC
  5
340
100
AcDbEntity
  8
4
100
AcDbCircle
 62
7
  6
BYLAYER
 10
167.8444576484
 20
915.1220709666
 40
1.0
100
AcDbArc
 50
90.0
 51
180.0
  0
ARC
  5
341
100
AcDbEntity
  8
4
100
AcDbCircle
 62
7
  6
BYLAYER
 10
167.8444576484
 20
901.6220709666
 40
1.0
100
AcDbArc
 50
180.0
 51
270.0
  0
CIRCLE
  5
342
100
AcDbEntity
  8
4
100
AcDbCircle
 62
7
  6
BYLAYER
 10
263.2662638716
 20
917.3720709666
 40
6.3525
  0
CIRCLE
  5
343
100
AcDbEntity
  8
4
100
AcDbCircle
 62
7
  6
BYLAYER
 10
233.2662638716
 20
917.3720709666
 40
6.3525
  0
ARC
  5
344
100
AcDbEntity
  8
4
100
AcDbCircle
 62
7
  6
BYLAYER
 10
268.2662638716
 20
927.1828502415
 40
5.0
100
AcDbArc
 50
0.0
 51
90.0
  0
ARC
  5
345
100
AcDbEntity
  8
4
100
AcDbCircle
 62
7
  6
BYLAYER
 10
228.2662638716
 20
927.1828502415
 40
5.0
100
AcDbArc
 50
90.0
 51
180.0
  0
ARC
  5
346
100
AcDbEntity
  8
4
100
AcDbCircle
 62
7
  6
BYLAYER
 10
263.2662638716
 20
923.9828502415
 40
3.25
100
AcDbArc
 50
0.0
 51
180.0000000001
  0
ARC
  5
347
100
AcDbEntity
  8
4
100
AcDbCircle
 62
7
  6
BYLAYER
 10
233.2662638716
 20
923.9828502415
 40
3.25
100
AcDbArc
 50
0.0
 51
180.0
  0
CIRCLE
  5
348
100
AcDbEntity
  8
4
100
AcDbCircle
 62
7
  6
BYLAYER
 10
263.2662638716
 20
917.3720709666
 40
3.0
  0
CIRCLE
  5
349
100
AcDbEntity
  8
4
100
AcDbCircle
 62
7
  6
BYLAYER
 10
233.2662638716
 20
917.3720709666
 40
3.0
  0
ARC
  5
34A
100
AcDbEntity
  8
4
100
AcDbCircle
 62
7
  6
BYLAYER
 10
167.3444576484
 20
929.3720709666
 40
1.0
100
AcDbArc
 50
120.4563864893
 51
180.0
  0
ARC
  5
34B
100
AcDbEntity
  8
4
100
AcDbCircle
 62
7
  6
BYLAYER
 10
167.3444576484
 20
923.3720709666
 40
1.0
100
AcDbArc
 50
180.0
 51
239.5436135107
  0
ARC
  5
34C
100
AcDbEntity
  8
4
100
AcDbCircle
 62
7
  6
BYLAYER
 10
167.8444576484
 20
933.1220709666
 40
1.0
100
AcDbArc
 50
90.0
 51
180.0
  0
ARC
  5
34D
100
AcDbEntity
  8
4
100
AcDbCircle
 62
7
  6
BYLAYER
 10
167.8444576484
 20
919.6220709666
 40
1.0
100
AcDbArc
 50
180.0
 51
270.0
  0
ARC
  5
34E
100
AcDbEntity
  8
4
100
AcDbCircle
 62
7
  6
BYLAYER
 10
707.1026665538
 20
910.4828502415
 40
3.25
100
AcDbArc
 50
180.0
 51
360.0
  0
ARC
  5
34F
100
AcDbEntity
  8
4
100
AcDbCircle
 62
7
  6
BYLAYER
 10
677.1026665538
 20
910.4828502415
 40
3.25
100
AcDbArc
 50
180.0
 51
360.0
  0
CIRCLE
  5
350
100
AcDbEntity
  8
4
100
AcDbCircle
 62
7
  6
BYLAYER
 10
677.1026665538
 20
917.3720709666
 40
6.3525
  0
CIRCLE
  5
351
100
AcDbEntity
  8
4
100
AcDbCircle
 62
7
  6
BYLAYER
 10
707.1026665538
 20
917.3720709666
 40
6.3525
  0
ARC
  5
352
100
AcDbEntity
  8
4
100
AcDbCircle
 62
7
  6
BYLAYER
 10
712.1026665538
 20
927.1828502415
 40
5.0
100
AcDbArc
 50
0.0
 51
90.0
  0
ARC
  5
353
100
AcDbEntity
  8
4
100
AcDbCircle
 62
7
  6
BYLAYER
 10
672.1026665538
 20
927.1828502415
 40
5.0
100
AcDbArc
 50
90.0
 51
180.0
  0
ARC
  5
354
100
AcDbEntity
  8
4
100
AcDbCircle
 62
7
  6
BYLAYER
 10
707.1026665538
 20
923.9828502415
 40
3.25
100
AcDbArc
 50
0.0
 51
180.0
  0
ARC
  5
355
100
AcDbEntity
  8
4
100
AcDbCircle
 62
7
  6
BYLAYER
 10
677.1026665538
 20
923.9828502415
 40
3.25
100
AcDbArc
 50
0.0
 51
180.0
  0
CIRCLE
  5
356
100
AcDbEntity
  8
4
100
AcDbCircle
 62
7
  6
BYLAYER
 10
707.1026665538
 20
917.3720709666
 40
3.0
  0
CIRCLE
  5
357
100
AcDbEntity
  8
4
100
AcDbCircle
 62
7
  6
BYLAYER
 10
677.1026665538
 20
917.3720709666
 40
3.0
  0
ARC
  5
358
100
AcDbEntity
  8
7
100
AcDbCircle
 62
7
  6
BYLAYER
 10
263.2662638716
 20
1066.5161643275
 40
3.25
100
AcDbArc
 50
179.9999999999
 51
360.0
  0
ARC
  5
359
100
AcDbEntity
  8
7
100
AcDbCircle
 62
7
  6
BYLAYER
 10
233.2662638716
 20
1066.5161643275
 40
3.25
100
AcDbArc
 50
180.0
 51
360.0
  0
ARC
  5
35A
100
AcDbEntity
  8
7
100
AcDbCircle
 62
7
  6
BYLAYER
 10
163.8444576484
 20
1059.4053850526
 40
1.0
100
AcDbArc
 50
180.0
 51
270.0
  0
ARC
  5
35B
100
AcDbEntity
  8
7
100
AcDbCircle
 62
7
  6
BYLAYER
 10
163.8444576484
 20
1069.4053850526
 40
1.0
100
AcDbArc
 50
90.0
 51
180.0
  0
ARC
  5
35C
100
AcDbEntity
  8
7
100
AcDbCircle
 62
7
  6
BYLAYER
 10
167.3444576484
 20
1067.4053850526
 40
1.0
100
AcDbArc
 50
120.4563864893
 51
180.0
  0
ARC
  5
35D
100
AcDbEntity
  8
7
100
AcDbCircle
 62
7
  6
BYLAYER
 10
167.3444576484
 20
1061.4053850526
 40
1.0
100
AcDbArc
 50
180.0
 51
239.5436135107
  0
ARC
  5
35E
100
AcDbEntity
  8
7
100
AcDbCircle
 62
7
  6
BYLAYER
 10
167.8444576484
 20
1071.1553850526
 40
1.0
100
AcDbArc
 50
90.0
 51
180.0
  0
ARC
  5
35F
100
AcDbEntity
  8
7
100
AcDbCircle
 62
7
  6
BYLAYER
 10
167.8444576484
 20
1057.6553850526
 40
1.0
100
AcDbArc
 50
180.0
 51
270.0
  0
CIRCLE
  5
360
100
AcDbEntity
  8
7
100
AcDbCircle
 62
7
  6
BYLAYER
 10
233.2662638716
 20
1073.4053850526
 40
6.3525
  0
CIRCLE
  5
361
100
AcDbEntity
  8
7
100
AcDbCircle
 62
7
  6
BYLAYER
 10
263.2662638716
 20
1073.4053850526
 40
6.3525
  0
ARC
  5
362
100
AcDbEntity
  8
7
100
AcDbCircle
 62
7
  6
BYLAYER
 10
268.2662638716
 20
1083.2161643275
 40
5.0
100
AcDbArc
 50
0.0
 51
90.0
  0
ARC
  5
363
100
AcDbEntity
  8
7
100
AcDbCircle
 62
7
  6
BYLAYER
 10
228.2662638716
 20
1083.2161643275
 40
5.0
100
AcDbArc
 50
90.0
 51
180.0
  0
ARC
  5
364
100
AcDbEntity
  8
7
100
AcDbCircle
 62
7
  6
BYLAYER
 10
263.2662638716
 20
1080.0161643275
 40
3.25
100
AcDbArc
 50
0.0
 51
180.0000000001
  0
ARC
  5
365
100
AcDbEntity
  8
7
100
AcDbCircle
 62
7
  6
BYLAYER
 10
233.2662638716
 20
1080.0161643275
 40
3.25
100
AcDbArc
 50
0.0
 51
180.0
  0
CIRCLE
  5
366
100
AcDbEntity
  8
7
100
AcDbCircle
 62
7
  6
BYLAYER
 10
263.2662638716
 20
1073.4053850526
 40
3.0
  0
CIRCLE
  5
367
100
AcDbEntity
  8
7
100
AcDbCircle
 62
7
  6
BYLAYER
 10
233.2662638716
 20
1073.4053850526
 40
3.0
  0
ARC
  5
368
100
AcDbEntity
  8
7
100
AcDbCircle
 62
7
  6
BYLAYER
 10
165.5444576484
 20
1085.4053850526
 40
1.0
100
AcDbArc
 50
120.4563864893
 51
180.0
  0
ARC
  5
369
100
AcDbEntity
  8
7
100
AcDbCircle
 62
7
  6
BYLAYER
 10
165.5444576484
 20
1079.4053850526
 40
1.0
100
AcDbArc
 50
180.0
 51
239.5436135107
  0
ARC
  5
36A
100
AcDbEntity
  8
7
100
AcDbCircle
 62
7
  6
BYLAYER
 10
166.0444576484
 20
1089.1553850526
 40
1.0
100
AcDbArc
 50
90.0
 51
180.0
  0
ARC
  5
36B
100
AcDbEntity
  8
7
100
AcDbCircle
 62
7
  6
BYLAYER
 10
166.0444576484
 20
1075.6553850526
 40
1.0
100
AcDbArc
 50
180.0
 51
270.0
  0
ARC
  5
36C
100
AcDbEntity
  8
7
100
AcDbCircle
 62
7
  6
BYLAYER
 10
167.3444576484
 20
1085.4053850526
 40
1.0
100
AcDbArc
 50
120.4563864893
 51
180.0
  0
ARC
  5
36D
100
AcDbEntity
  8
7
100
AcDbCircle
 62
7
  6
BYLAYER
 10
167.3444576484
 20
1079.4053850526
 40
1.0
100
AcDbArc
 50
180.0
 51
239.5436135107
  0
ARC
  5
36E
100
AcDbEntity
  8
7
100
AcDbCircle
 62
7
  6
BYLAYER
 10
167.8444576484
 20
1089.1553850526
 40
1.0
100
AcDbArc
 50
90.0
 51
180.0
  0
ARC
  5
36F
100
AcDbEntity
  8
7
100
AcDbCircle
 62
7
  6
BYLAYER
 10
167.8444576484
 20
1075.6553850526
 40
1.0
100
AcDbArc
 50
180.0
 51
270.0
  0
ARC
  5
370
100
AcDbEntity
  8
7
100
AcDbCircle
 62
7
  6
BYLAYER
 10
707.1026665538
 20
1066.5161643275
 40
3.25
100
AcDbArc
 50
180.0
 51
360.0
  0
ARC
  5
371
100
AcDbEntity
  8
7
100
AcDbCircle
 62
7
  6
BYLAYER
 10
677.1026665538
 20
1066.5161643275
 40
3.25
100
AcDbArc
 50
180.0
 51
360.0
  0
CIRCLE
  5
372
100
AcDbEntity
  8
7
100
AcDbCircle
 62
7
  6
BYLAYER
 10
677.1026665538
 20
1073.4053850526
 40
6.3525
  0
CIRCLE
  5
373
100
AcDbEntity
  8
7
100
AcDbCircle
 62
7
  6
BYLAYER
 10
707.1026665538
 20
1073.4053850526
 40
6.3525
  0
ARC
  5
374
100
AcDbEntity
  8
7
100
AcDbCircle
 62
7
  6
BYLAYER
 10
712.1026665538
 20
1083.2161643275
 40
5.0
100
AcDbArc
 50
0.0
 51
90.0
  0
ARC
  5
375
100
AcDbEntity
  8
7
100
AcDbCircle
 62
7
  6
BYLAYER
 10
672.1026665538
 20
1083.2161643275
 40
5.0
100
AcDbArc
 50
90.0
 51
180.0
  0
ARC
  5
376
100
AcDbEntity
  8
7
100
AcDbCircle
 62
7
  6
BYLAYER
 10
707.1026665538
 20
1080.0161643275
 40
3.25
100
AcDbArc
 50
0.0
 51
180.0
  0
ARC
  5
377
100
AcDbEntity
  8
7
100
AcDbCircle
 62
7
  6
BYLAYER
 10
677.1026665538
 20
1080.0161643275
 40
3.25
100
AcDbArc
 50
0.0
 51
180.0
  0
CIRCLE
  5
378
100
AcDbEntity
  8
7
100
AcDbCircle
 62
7
  6
BYLAYER
 10
707.1026665538
 20
1073.4053850526
 40
3.0
  0
CIRCLE
  5
379
100
AcDbEntity
  8
7
100
AcDbCircle
 62
7
  6
BYLAYER
 10
677.1026665538
 20
1073.4053850526
 40
3.0
  0
CIRCLE
  5
37A
100
AcDbEntity
  8
4
100
AcDbCircle
 62
7
  6
BYLAYER
 10
1154.6599216684
 20
917.3720709666
 40
6.3525
  0
CIRCLE
  5
37B
100
AcDbEntity
  8
4
100
AcDbCircle
 62
7
  6
BYLAYER
 10
1184.6599216684
 20
917.3720709666
 40
6.3525
  0
ARC
  5
37C
100
AcDbEntity
  8
4
100
AcDbCircle
 62
7
  6
BYLAYER
 10
1189.6599216684
 20
927.1828502415
 40
5.0
100
AcDbArc
 50
0.0
 51
90.0
  0
ARC
  5
37D
100
AcDbEntity
  8
4
100
AcDbCircle
 62
7
  6
BYLAYER
 10
1149.6599216684
 20
927.1828502415
 40
5.0
100
AcDbArc
 50
90.0
 51
180.0
  0
ARC
  5
37E
100
AcDbEntity
  8
4
100
AcDbCircle
 62
7
  6
BYLAYER
 10
1184.6599216684
 20
910.4828502415
 40
3.25
100
AcDbArc
 50
180.0
 51
360.0
  0
ARC
  5
37F
100
AcDbEntity
  8
4
100
AcDbCircle
 62
7
  6
BYLAYER
 10
1184.6599216684
 20
923.9828502415
 40
3.25
100
AcDbArc
 50
0.0
 51
180.0
  0
ARC
  5
380
100
AcDbEntity
  8
4
100
AcDbCircle
 62
7
  6
BYLAYER
 10
1154.6599216684
 20
910.4828502415
 40
3.25
100
AcDbArc
 50
180.0
 51
360.0
  0
ARC
  5
381
100
AcDbEntity
  8
4
100
AcDbCircle
 62
7
  6
BYLAYER
 10
1154.6599216684
 20
923.9828502415
 40
3.25
100
AcDbArc
 50
0.0
 51
180.0
  0
CIRCLE
  5
382
100
AcDbEntity
  8
4
100
AcDbCircle
 62
7
  6
BYLAYER
 10
1184.6599216684
 20
917.3720709666
 40
3.0
  0
CIRCLE
  5
383
100
AcDbEntity
  8
4
100
AcDbCircle
 62
7
  6
BYLAYER
 10
1154.6599216684
 20
917.3720709666
 40
3.0
  0
ARC
  5
384
100
AcDbEntity
  8
7
100
AcDbCircle
 62
7
  6
BYLAYER
 10
1260.8444576484
 20
1073.4053850526
 40
15.0
100
AcDbArc
 50
45.5729959992
 51
90.0
  0
ARC
  5
385
100
AcDbEntity
  8
7
100
AcDbCircle
 62
7
  6
BYLAYER
 10
1260.8444576484
 20
1073.4053850526
 40
15.0
100
AcDbArc
 50
270.0
 51
314.4270040008
  0
CIRCLE
  5
386
100
AcDbEntity
  8
7
100
AcDbCircle
 62
7
  6
BYLAYER
 10
1154.6599216684
 20
1073.4053850526
 40
6.3525
  0
CIRCLE
  5
387
100
AcDbEntity
  8
7
100
AcDbCircle
 62
7
  6
BYLAYER
 10
1184.6599216684
 20
1073.4053850526
 40
6.3525
  0
ARC
  5
388
100
AcDbEntity
  8
7
100
AcDbCircle
 62
7
  6
BYLAYER
 10
1267.8444576484
 20
1066.263956624
 40
5.0
100
AcDbArc
 50
314.4270040008
 51
360.0
  0
ARC
  5
389
100
AcDbEntity
  8
7
100
AcDbCircle
 62
7
  6
BYLAYER
 10
1267.8444576484
 20
1080.5468134811
 40
5.0
100
AcDbArc
 50
0.0
 51
45.5729959992
  0
ARC
  5
38A
100
AcDbEntity
  8
7
100
AcDbCircle
 62
7
  6
BYLAYER
 10
1189.6599216684
 20
1083.2161643275
 40
5.0
100
AcDbArc
 50
0.0
 51
90.0
  0
ARC
  5
38B
100
AcDbEntity
  8
7
100
AcDbCircle
 62
7
  6
BYLAYER
 10
1149.6599216684
 20
1083.2161643275
 40
5.0
100
AcDbArc
 50
90.0
 51
180.0
  0
ARC
  5
38C
100
AcDbEntity
  8
7
100
AcDbCircle
 62
7
  6
BYLAYER
 10
1184.6599216684
 20
1066.5161643275
 40
3.25
100
AcDbArc
 50
180.0
 51
360.0
  0
ARC
  5
38D
100
AcDbEntity
  8
7
100
AcDbCircle
 62
7
  6
BYLAYER
 10
1184.6599216684
 20
1080.0161643275
 40
3.25
100
AcDbArc
 50
0.0
 51
180.0
  0
ARC
  5
38E
100
AcDbEntity
  8
7
100
AcDbCircle
 62
7
  6
BYLAYER
 10
1154.6599216684
 20
1066.5161643275
 40
3.25
100
AcDbArc
 50
180.0
 51
360.0
  0
ARC
  5
38F
100
AcDbEntity
  8
7
100
AcDbCircle
 62
7
  6
BYLAYER
 10
1154.6599216684
 20
1080.0161643275
 40
3.25
100
AcDbArc
 50
0.0
 51
180.0
  0
CIRCLE
  5
390
100
AcDbEntity
  8
7
100
AcDbCircle
 62
7
  6
BYLAYER
 10
1184.6599216684
 20
1073.4053850526
 40
3.0
  0
CIRCLE
  5
391
100
AcDbEntity
  8
7
100
AcDbCircle
 62
7
  6
BYLAYER
 10
1154.6599216684
 20
1073.4053850526
 40
3.0
  0
ARC
  5
392
100
AcDbEntity
  8
7
100
AcDbCircle
 62
7
  6
BYLAYER
 10
1248.8444576484
 20
1055.9053850526
 40
1.0
100
AcDbArc
 50
90.0
 51
180.0
  0
ARC
  5
393
100
AcDbEntity
  8
7
100
AcDbCircle
 62
7
  6
BYLAYER
 10
1248.8444576484
 20
1090.9053850526
 40
1.0
100
AcDbArc
 50
180.0
 51
270.0
  0
ENDSEC
  0
SECTION
  2
OBJECTS
  0
DICTIONARY
  5
C
100
AcDbDictionary
280
0
281
1
  3
ACAD_GROUP
350
D
  3
ACAD_MLINESTYLE
350
17
  3
ACAD_LAYOUT
350
1A
  3
ACAD_PLOTSETTINGS
350
19
  3
ACAD_PLOTSTYLENAME
350
E
  0
DICTIONARY
  5
D
102
{ACAD_REACTORS
330
C
102
}
100
AcDbDictionary
280
0
281
1
  0
ACDBDICTIONARYWDFLT
  5
E
102
{ACAD_REACTORS
330
C
102
}
100
AcDbDictionary
281
1
  3
Normal
350
F
100
AcDbDictionaryWithDefault
340
F
  0
DICTIONARY
  5
17
102
{ACAD_REACTORS
330
C
102
}
100
AcDbDictionary
280
0
281
1
  3
Standard
350
18
  0
DICTIONARY
  5
19
102
{ACAD_REACTORS
330
C
102
}
100
AcDbDictionary
281
1
  0
DICTIONARY
  5
1A
102
{ACAD_REACTORS
330
C
102
}
100
AcDbDictionary
281
1
  3
Model
350
394
  3
Layout1
350
395
  0
ACDBPLACEHOLDER
  5
F
102
{ACAD_REACTORS
330
E
102
}
  0
MLINESTYLE
  5
18
102
{ACAD_REACTORS
330
17
102
}
100
AcDbMlineStyle
  2
STANDARD
 70
0
  3

 62
256
 51
90.0
 52
90.0
 71
2
 49
0.5
 62
256
  6
BYLAYER
 49
-0.5
 62
256
  6
BYLAYER
  0
LAYOUT
  5
394
102
{ACAD_REACTORS
330
1A
102
}
100
AcDbPlotSettings
  1

  2
none_device
  4

  6

 40
0.0
 41
0.0
 42
0.0
 43
0.0
 44
210.0
 45
297.0
 46
0.0
 47
0.0
 48
0.0
 49
0.0
140
0.0
141
0.0
142
1.0
143
1.0
 70
1024
 72
1
 73
0
 74
0
  7

 75
0
147
1.0
148
0.0
149
0.0
100
AcDbLayout
  1
Model
 70
0
 71
0
 10
0.0
 20
0.0
 11
210.0
 21
297.0
 12
0.0
 22
0.0
 32
0.0
 14
0.0
 24
0.0
 34
0.0
 15
0.0
 25
0.0
 35
0.0
146
0.0
 13
0.0
 23
0.0
 33
0.0
 16
1.0
 26
0.0
 36
0.0
 17
0.0
 27
1.0
 37
0.0
 76
0
330
212
345
0
346
0
  0
LAYOUT
  5
395
102
{ACAD_REACTORS
330
1A
102
}
100
AcDbPlotSettings
  1

  2
none_device
  4

  6

 40
0.0
 41
0.0
 42
0.0
 43
0.0
 44
210.0
 45
297.0
 46
0.0
 47
0.0
 48
0.0
 49
0.0
140
0.0
141
0.0
142
1.0
143
1.0
 70
0
 72
1
 73
0
 74
0
  7

 75
0
147
1.0
148
0.0
149
0.0
100
AcDbLayout
  1
Layout1
 70
0
 71
1
 10
0.0
 20
0.0
 11
210.0
 21
297.0
 12
0.0
 22
0.0
 32
0.0
 14
0.0
 24
0.0
 34
0.0
 15
0.0
 25
0.0
 35
0.0
146
0.0
 13
0.0
 23
0.0
 33
0.0
 16
1.0
 26
0.0
 36
0.0
 17
0.0
 27
1.0
 37
0.0
 76
0
330
213
345
0
346
0
  0
ENDSEC
  0
EOF
