999
DXF file: C:\Users\sesa63760\Dev\_Creo\CAD\MCADID0005533_3D-CAD\drw0001_7.dxf
999
Pro/ENGINEER 2019471 by Parametric Technology Corporation
  0
SECTION
  2
HEADER
  9
$ACADVER
  1
AC1024
  9
$DWGCODEPAGE
  3
ANSI_1252
  9
$EXTMAX
 10
60.0445470053
 20
84.9201450503
 30
0.0
  9
$EXTMIN
 10
0.0
 20
0.0
 30
0.0
  9
$LIMMIN
 10
0.0
 20
0.0
  9
$LIMMAX
 10
60.0445470053
 20
84.9201450503
  9
$VIEWCTR
 10
30.0222735026
 20
42.4600725252
  9
$VIEWSIZE
 40
84.9201450503
  9
$CLAYER
  8
0
  9
$LTSCALE
 40
5.5355353811
  9
$CELTYPE
  6
BYLAYER
  9
$DIMSCALE
 40
1.0
  9
$DIMASZ
 40
0.7148160358
  9
$DIMEXO
 40
1.0
  9
$DIMDLI
 40
3.8245517178
  9
$DIMEXE
 40
1.0
  9
$DIMCEN
 40
0.9058148805
  9
$DIMLFAC
 40
1.0
  9
$DIMBLK
  1
_FILLED
  9
$DIMALT
 70
0
  9
$DIMALTF
 40
0.0393700787
  9
$DIMTXT
 40
1.0007424501
  9
$DIMTOL
 70
1
  9
$DIMLIM
 70
0
  9
$DIMTFAC
 40
1.0
  9
$DIMTP
 40
0.01
  9
$DIMTM
 40
0.01
  9
$DIMGAP
 40
0.625
  9
$DIMDSEP
 70
46
  9
$AUNITS
 70
0
  9
$PDMODE
 70
3
  9
$PDSIZE
 40
0.3125
  9
$HANDSEED
  5
2F1
  9
$TILEMODE
 70
1
  9
$MEASUREMENT
 70
1
  9
$INSUNITS
 70
4
  0
ENDSEC
  0
SECTION
  2
CLASSES
  0
CLASS
  1
ACDBDICTIONARYWDFLT
  2
AcDbDictionaryWithDefault
  3
AutoCAD 2000
 90
0
 91
1
280
0
281
0
  0
CLASS
  1
ACDBPLACEHOLDER
  2
AcDbPlaceHolder
  3
AutoCAD 2000
 90
0
 91
1
280
0
281
0
  0
CLASS
  1
LAYOUT
  2
AcDbLayout
  3
AutoCAD 2000
 90
0
 91
0
280
0
281
0
  0
ENDSEC
  0
SECTION
  2
TABLES
  0
TABLE
  2
VPORT
  5
8
100
AcDbSymbolTable
 70
2
  0
VPORT
  5
1F4
100
AcDbSymbolTableRecord
100
AcDbViewportTableRecord
  2
*ACTIVE
 70
0
 10
0.0
 20
0.0
 11
1.0
 21
1.0
 12
30.0222735026
 22
42.4600725252
 13
0.0
 23
0.0
 14
1.0
 24
1.0
 15
0.0
 25
0.0
 16
0.0
 26
0.0
 36
1.0
 17
0.0
 27
0.0
 37
0.0
 40
84.9201450503
 41
0.7070707071
 42
50.0
 43
0.0
 44
0.0
 50
0.0
 51
0.0
 71
0
 72
100
 73
1
 74
1
 75
0
 76
0
 77
0
 78
0
  0
ENDTAB
  0
TABLE
  2
LTYPE
  5
5
100
AcDbSymbolTable
 70
6
  0
LTYPE
  5
14
100
AcDbSymbolTableRecord
100
AcDbLinetypeTableRecord
  2
BYBLOCK
 70
0
  3

 72
65
 73
0
 40
0.0
  0
LTYPE
  5
15
100
AcDbSymbolTableRecord
100
AcDbLinetypeTableRecord
  2
BYLAYER
 70
0
  3

 72
65
 73
0
 40
0.0
  0
LTYPE
  5
16
100
AcDbSymbolTableRecord
100
AcDbLinetypeTableRecord
  2
CONTINUOUS
 70
64
  3
Solid line
 72
65
 73
0
 40
0.0
  0
LTYPE
  5
1F5
100
AcDbSymbolTableRecord
100
AcDbLinetypeTableRecord
  2
CENTER
 70
64
  3
____ _ ____ _ ____ _ ____ _ ____ _ ____ _ ____
 72
65
 73
4
 40
0.6
 49
0.375
 74
0
 49
-0.075
 74
0
 49
0.075
 74
0
 49
-0.075
 74
0
  0
LTYPE
  5
1F6
100
AcDbSymbolTableRecord
100
AcDbLinetypeTableRecord
  2
HIDDEN
 70
64
  3
- - - - - - - - - - - - - - - - - - - -
 72
65
 73
2
 40
0.2
 49
0.1
 74
0
 49
-0.1
 74
0
  0
LTYPE
  5
1F7
100
AcDbSymbolTableRecord
100
AcDbLinetypeTableRecord
  2
PHANTOM
 70
64
  3
_____ _ _ _____ _ _ _____ _ _ _____
 72
65
 73
6
 40
0.8
 49
0.45
 74
0
 49
-0.05
 74
0
 49
0.1
 74
0
 49
-0.05
 74
0
 49
0.1
 74
0
 49
-0.05
 74
0
  0
LTYPE
  5
1F8
100
AcDbSymbolTableRecord
100
AcDbLinetypeTableRecord
  2
DOT
 70
64
  3
. . . . . . . . . . . . . . . . . . . .
 72
65
 73
2
 40
0.2
 49
0.1
 74
0
 49
-0.1
 74
0
  0
LTYPE
  5
1F9
100
AcDbSymbolTableRecord
100
AcDbLinetypeTableRecord
  2
DASHED
 70
64
  3
- - - - - - - - - - - - - - - - - - - -
 72
65
 73
2
 40
0.2
 49
0.1
 74
0
 49
-0.1
 74
0
  0
ENDTAB
  0
TABLE
  2
LAYER
  5
2
100
AcDbSymbolTable
 70
36
  0
LAYER
  5
10
100
AcDbSymbolTableRecord
100
AcDbLayerTableRecord
  2
0
 70
0
 62
7
  6
CONTINUOUS
370
-3
390
F
  0
LAYER
  5
1FA
100
AcDbSymbolTableRecord
100
AcDbLayerTableRecord
  2
DEFAULT_1
 70
0
 62
7
  6
CENTER
370
-3
390
F
  0
LAYER
  5
1FB
100
AcDbSymbolTableRecord
100
AcDbLayerTableRecord
  2
DEFAULT_2
 70
0
 62
7
  6
HIDDEN
370
-3
390
F
  0
LAYER
  5
1FC
100
AcDbSymbolTableRecord
100
AcDbLayerTableRecord
  2
DEFAULT_3
 70
0
 62
7
  6
PHANTOM
370
-3
390
F
  0
LAYER
  5
1FD
100
AcDbSymbolTableRecord
100
AcDbLayerTableRecord
  2
00_COMPONENTS
 70
0
 62
7
  6
CONTINUOUS
370
-3
390
F
  0
LAYER
  5
1FE
100
AcDbSymbolTableRecord
100
AcDbLayerTableRecord
  2
01_1_DEFAULT_DATUMS
 70
0
 62
7
  6
CONTINUOUS
370
-3
390
F
  0
LAYER
  5
1FF
100
AcDbSymbolTableRecord
100
AcDbLayerTableRecord
  2
01_PLANES
 70
0
 62
7
  6
CONTINUOUS
370
-3
390
F
  0
LAYER
  5
200
100
AcDbSymbolTableRecord
100
AcDbLayerTableRecord
  2
02_COORD_SYS
 70
0
 62
7
  6
CONTINUOUS
370
-3
390
F
  0
LAYER
  5
201
100
AcDbSymbolTableRecord
100
AcDbLayerTableRecord
  2
03_AXES
 70
0
 62
7
  6
CONTINUOUS
370
-3
390
F
  0
LAYER
  5
202
100
AcDbSymbolTableRecord
100
AcDbLayerTableRecord
  2
04_POINTS
 70
0
 62
7
  6
CONTINUOUS
370
-3
390
F
  0
LAYER
  5
203
100
AcDbSymbolTableRecord
100
AcDbLayerTableRecord
  2
05_CURVES
 70
0
 62
7
  6
CONTINUOUS
370
-3
390
F
  0
LAYER
  5
204
100
AcDbSymbolTableRecord
100
AcDbLayerTableRecord
  2
06_SURFS
 70
0
 62
7
  6
CONTINUOUS
370
-3
390
F
  0
LAYER
  5
205
100
AcDbSymbolTableRecord
100
AcDbLayerTableRecord
  2
07_COSMETICS
 70
0
 62
7
  6
CONTINUOUS
370
-3
390
F
  0
LAYER
  5
206
100
AcDbSymbolTableRecord
100
AcDbLayerTableRecord
  2
10_NOTES
 70
0
 62
7
  6
CONTINUOUS
370
-3
390
F
  0
LAYER
  5
207
100
AcDbSymbolTableRecord
100
AcDbLayerTableRecord
  2
11_NOTES_PUB
 70
0
 62
7
  6
CONTINUOUS
370
-3
390
F
  0
LAYER
  5
208
100
AcDbSymbolTableRecord
100
AcDbLayerTableRecord
  2
13_REF_GTOL
 70
0
 62
7
  6
CONTINUOUS
370
-3
390
F
  0
LAYER
  5
209
100
AcDbSymbolTableRecord
100
AcDbLayerTableRecord
  2
16_MISC
 70
0
 62
7
  6
CONTINUOUS
370
-3
390
F
  0
LAYER
  5
20A
100
AcDbSymbolTableRecord
100
AcDbLayerTableRecord
  2
17_NO_PRINT
 70
0
 62
7
  6
CONTINUOUS
370
-3
390
F
  0
LAYER
  5
20B
100
AcDbSymbolTableRecord
100
AcDbLayerTableRecord
  2
18_DATUM_CAMS_JOINTS
 70
0
 62
7
  6
CONTINUOUS
370
-3
390
F
  0
LAYER
  5
20C
100
AcDbSymbolTableRecord
100
AcDbLayerTableRecord
  2
19_DATUM_FUNCTIONAL
 70
0
 62
7
  6
CONTINUOUS
370
-3
390
F
  0
LAYER
  5
20D
100
AcDbSymbolTableRecord
100
AcDbLayerTableRecord
  2
20_DATUM_KINEMATIC_SCHEME
 70
0
 62
7
  6
CONTINUOUS
370
-3
390
F
  0
ENDTAB
  0
TABLE
  2
STYLE
  5
3
100
AcDbSymbolTable
 70
1
  0
STYLE
  5
11
100
AcDbSymbolTableRecord
100
AcDbTextStyleTableRecord
  2
STANDARD
 70
0
 40
0.0
 41
1.0
 50
0.0
 71
0
 42
0.2
  3
ARIAL.TTF
  4

  0
STYLE
  5
20E
100
AcDbSymbolTableRecord
100
AcDbTextStyleTableRecord
  2
TEXTSTYLE_1
 70
0
 40
0.0
 41
0.8
 50
0.0
 71
0
 42
0.2
  3
gdt
  4

  0
ENDTAB
  0
TABLE
  2
VIEW
  5
6
100
AcDbSymbolTable
 70
0
  0
ENDTAB
  0
TABLE
  2
UCS
  5
7
100
AcDbSymbolTable
 70
0
  0
ENDTAB
  0
TABLE
  2
APPID
  5
9
100
AcDbSymbolTable
 70
1
  0
APPID
  5
20F
100
AcDbSymbolTableRecord
100
AcDbRegAppTableRecord
  2
ACAD
 70
0
  0
ENDTAB
  0
TABLE
  2
BLOCK_RECORD
  5
1
100
AcDbSymbolTable
 70
0
  0
BLOCK_RECORD
  5
210
100
AcDbSymbolTableRecord
100
AcDbBlockTableRecord
  2
*Model_Space
  0
BLOCK_RECORD
  5
211
100
AcDbSymbolTableRecord
100
AcDbBlockTableRecord
  2
*Paper_Space
  0
BLOCK_RECORD
  5
212
100
AcDbSymbolTableRecord
100
AcDbBlockTableRecord
  2
_FILLED
  0
ENDTAB
  0
TABLE
  2
DIMSTYLE
  5
A
100
AcDbSymbolTable
 70
1
100
AcDbDimStyleTable
 71
0
  0
DIMSTYLE
105
213
100
AcDbSymbolTableRecord
100
AcDbDimStyleTableRecord
  2
STANDARD
 70
0
  3

  4

 40
1.0
 41
0.7148160358
 42
1.0
 43
0.38
 44
1.0
 45
0.0
 46
0.0
 47
0.01
 48
0.01
140
1.0007424501
141
0.09
142
0.0
143
25.4
144
1.0
145
0.0
146
1.0
147
0.625
 71
1
 72
0
 73
0
 74
0
 75
0
 76
0
 77
1
 78
8
 79
2
170
0
171
1
172
0
173
0
174
0
175
0
176
0
177
0
178
0
270
2
179
2
271
2
272
2
273
2
274
2
275
0
280
0
281
0
282
0
283
1
284
8
285
0
286
0
287
3
288
0
340
11
278
46
341
212
342
212
343
212
344
212
  0
ENDTAB
  0
ENDSEC
  0
SECTION
  2
BLOCKS
  0
BLOCK
  5
20
100
AcDbEntity
  8
0
100
AcDbBlockBegin
  2
*Model_Space
 70
0
 10
0.0
 20
0.0
 30
0.0
  3
*Model_Space
  1

  0
ENDBLK
  5
21
100
AcDbEntity
  8
0
100
AcDbBlockEnd
  0
BLOCK
  5
1C
100
AcDbEntity
  8
0
100
AcDbBlockBegin
  2
*Paper_Space
 70
0
 10
0.0
 20
0.0
 30
0.0
  3
*Paper_Space
  1

  0
ENDBLK
  5
1D
100
AcDbEntity
  8
0
100
AcDbBlockEnd
  0
BLOCK
  5
214
100
AcDbEntity
  8
0
100
AcDbBlockBegin
  2
_FILLED
 70
64
 10
0.0
 20
0.0
  3
_FILLED
  1

  0
SOLID
  5
215
100
AcDbEntity
  8
0
  6
BYBLOCK
 62
0
100
AcDbTrace
 10
0.0
 20
0.0
 11
-1.0
 21
0.25
 12
-1.0
 22
-0.25
 13
-1.0
 23
-0.25
  0
ENDBLK
  5
216
100
AcDbEntity
  8
0
  6
BYBLOCK
 62
0
100
AcDbBlockEnd
  0
ENDSEC
  0
SECTION
  2
ENTITIES
  0
LINE
  5
217
100
AcDbEntity
  8
0
100
AcDbLine
 62
7
  6
BYLAYER
 10
27.6439033458
 20
6.2884543394
 11
30.1187770799
 21
6.2884543394
  0
LINE
  5
218
100
AcDbEntity
  8
0
100
AcDbLine
 62
7
  6
BYLAYER
 10
27.6439033458
 20
6.2884592264
 11
20.5190310035
 21
7.3143653506
  0
LINE
  5
219
100
AcDbEntity
  8
0
100
AcDbLine
 62
7
  6
BYLAYER
 10
30.1187770799
 20
6.2884592264
 11
37.2629121194
 21
7.3199786333
  0
LINE
  5
21A
100
AcDbEntity
  8
0
100
AcDbLine
 62
7
  6
BYLAYER
 10
22.9939047377
 20
7.3143653506
 11
20.5190310035
 21
7.3143653506
  0
LINE
  5
21B
100
AcDbEntity
  8
0
100
AcDbLine
 62
7
  6
BYLAYER
 10
22.6779739369
 20
7.7879503304
 11
20.2031002027
 21
7.7879503304
  0
LINE
  5
21C
100
AcDbEntity
  8
0
100
AcDbLine
 62
7
  6
BYLAYER
 10
22.9939047377
 20
7.3143653506
 11
30.1187770799
 21
6.2884592264
  0
LINE
  5
21D
100
AcDbEntity
  8
0
100
AcDbLine
 62
7
  6
BYLAYER
 10
19.9419726277
 20
21.8905877991
 11
22.4168463619
 21
21.8905877991
  0
LINE
  5
21E
100
AcDbEntity
  8
0
100
AcDbLine
 62
7
  6
BYLAYER
 10
22.7478297041
 20
23.0638422006
 11
20.2729559699
 21
23.0638422006
  0
LINE
  5
21F
100
AcDbEntity
  8
0
100
AcDbLine
 62
7
  6
BYLAYER
 10
35.300880317
 20
25.9886938511
 11
35.2893994393
 21
25.9884544807
  0
LINE
  5
220
100
AcDbEntity
  8
0
100
AcDbLine
 62
7
  6
BYLAYER
 10
22.2374158772
 20
25.8420078713
 11
24.7122896113
 21
25.8420078713
  0
LINE
  5
221
100
AcDbEntity
  8
0
100
AcDbLine
 62
7
  6
BYLAYER
 10
22.4874158772
 20
25.9884544807
 11
35.300880478
 21
25.9887694262
  0
LINE
  5
222
100
AcDbEntity
  8
0
100
AcDbLine
 62
7
  6
BYLAYER
 10
16.7380317278
 20
36.277590689
 11
16.6258756095
 21
48.8390369551
  0
LINE
  5
223
100
AcDbEntity
  8
0
100
AcDbLine
 62
7
  6
BYLAYER
 10
15.8762149249
 20
57.7484544807
 11
15.8762149249
 21
49.0623786587
  0
LINE
  5
224
100
AcDbEntity
  8
0
100
AcDbLine
 62
7
  6
BYLAYER
 10
16.8005076401
 20
35.6502685666
 11
16.8005076401
 21
32.3233086586
  0
LINE
  5
225
100
AcDbEntity
  8
0
100
AcDbLine
 62
7
  6
BYLAYER
 10
38.225508032
 20
31.1502684963
 11
43.202602138
 21
32.0278645097
  0
LINE
  5
226
100
AcDbEntity
  8
0
100
AcDbLine
 62
7
  6
BYLAYER
 10
22.0255076118
 20
31.1502684963
 11
17.0484135057
 21
32.0278645097
  0
LINE
  5
227
100
AcDbEntity
  8
0
100
AcDbLine
 62
7
  6
BYLAYER
 10
22.7270012419
 20
31.1502684963
 11
22.0624964077
 21
31.3062594485
  0
LINE
  5
228
100
AcDbEntity
  8
0
100
AcDbLine
 62
7
  6
BYLAYER
 10
19.0052470217
 20
32.0275357357
 11
19.0923488572
 21
32.0064199447
  0
LINE
  5
229
100
AcDbEntity
  8
0
100
AcDbLine
 62
7
  6
BYLAYER
 10
19.0953458043
 20
32.0188029359
 11
19.0595859645
 21
32.0275348529
  0
LINE
  5
22A
100
AcDbEntity
  8
0
100
AcDbLine
 62
7
  6
BYLAYER
 10
20.2031002027
 20
7.7879503304
 11
19.9419726277
 21
21.8905877991
  0
LINE
  5
22B
100
AcDbEntity
  8
0
100
AcDbLine
 62
7
  6
BYLAYER
 10
17.5262149286
 20
60.1984544807
 11
17.5262149286
 21
58.9484544807
  0
LINE
  5
22C
100
AcDbEntity
  8
0
100
AcDbLine
 62
7
  6
BYLAYER
 10
18.7255076296
 20
35.9802684963
 11
18.7255076296
 21
35.6502685666
  0
LINE
  5
22D
100
AcDbEntity
  8
0
100
AcDbLine
 62
7
  6
BYLAYER
 10
18.8238925526
 20
32.3233072179
 11
18.8238925526
 21
35.6502685666
  0
LINE
  5
22E
100
AcDbEntity
  8
0
100
AcDbLine
 62
7
  6
BYLAYER
 10
18.8785502442
 20
35.6502685666
 11
18.8785502442
 21
32.3233072179
  0
LINE
  5
22F
100
AcDbEntity
  8
0
100
AcDbLine
 62
7
  6
BYLAYER
 10
19.2512149286
 20
62.8974544807
 11
19.2512149286
 21
60.1984544807
  0
LINE
  5
230
100
AcDbEntity
  8
0
100
AcDbLine
 62
7
  6
BYLAYER
 10
19.6019575239
 20
63.5584544807
 11
19.6019575239
 21
71.7584544807
  0
LINE
  5
231
100
AcDbEntity
  8
0
100
AcDbLine
 62
7
  6
BYLAYER
 10
19.6262149286
 20
63.5584544807
 11
19.6262149286
 21
63.1474544807
  0
LINE
  5
232
100
AcDbEntity
  8
0
100
AcDbLine
 62
7
  6
BYLAYER
 10
19.7997312813
 20
75.3474795356
 11
19.7997312813
 21
74.4474544807
  0
LINE
  5
233
100
AcDbEntity
  8
0
100
AcDbLine
 62
7
  6
BYLAYER
 10
19.9281759015
 20
63.5584544807
 11
19.9281759015
 21
71.7584544807
  0
LINE
  5
234
100
AcDbEntity
  8
0
100
AcDbLine
 62
7
  6
BYLAYER
 10
28.1262149286
 20
64.7484544807
 11
29.8527999323
 21
68.5719220464
  0
LINE
  5
235
100
AcDbEntity
  8
0
100
AcDbLine
 62
7
  6
BYLAYER
 10
37.6753439474
 20
30.8002684963
 11
22.5755078219
 21
30.8002684963
  0
LINE
  5
236
100
AcDbEntity
  8
0
100
AcDbLine
 62
7
  6
BYLAYER
 10
22.0256236256
 20
31.1502684963
 11
38.2252479159
 21
31.1502684963
  0
LINE
  5
237
100
AcDbEntity
  8
0
100
AcDbLine
 62
7
  6
BYLAYER
 10
17.0484133685
 20
32.0278645339
 11
19.0038986124
 21
32.0278645339
  0
LINE
  5
238
100
AcDbEntity
  8
0
100
AcDbLine
 62
7
  6
BYLAYER
 10
19.058235821
 20
32.0278645339
 11
23.1594551519
 21
32.0278645339
  0
LINE
  5
239
100
AcDbEntity
  8
0
100
AcDbLine
 62
7
  6
BYLAYER
 10
23.2465392995
 20
32.0278645339
 11
43.2026022752
 21
32.0278645339
  0
LINE
  5
23A
100
AcDbEntity
  8
0
100
AcDbLine
 62
7
  6
BYLAYER
 10
43.4505080037
 20
32.3233086586
 11
23.0665332398
 21
32.3233086586
  0
LINE
  5
23B
100
AcDbEntity
  8
0
100
AcDbLine
 62
7
  6
BYLAYER
 10
22.9797695751
 20
32.3233086586
 11
18.8785502442
 21
32.3233086586
  0
LINE
  5
23C
100
AcDbEntity
  8
0
100
AcDbLine
 62
7
  6
BYLAYER
 10
18.8238925526
 20
32.3233086586
 11
16.8005076401
 21
32.3233086586
  0
LINE
  5
23D
100
AcDbEntity
  8
0
100
AcDbLine
 62
7
  6
BYLAYER
 10
26.92658368
 20
31.1502684963
 11
26.8333322503
 21
31.1718989227
  0
LINE
  5
23E
100
AcDbEntity
  8
0
100
AcDbLine
 62
7
  6
BYLAYER
 10
23.2672776524
 20
32.0228076622
 11
23.2478923852
 21
32.0275345954
  0
LINE
  5
23F
100
AcDbEntity
  8
0
100
AcDbLine
 62
7
  6
BYLAYER
 10
23.1608010964
 20
32.0275358782
 11
23.2624339962
 21
32.0028315523
  0
LINE
  5
240
100
AcDbEntity
  8
0
100
AcDbLine
 62
7
  6
BYLAYER
 10
22.4168463619
 20
21.8905877991
 11
22.6779739369
 21
7.7879503304
  0
LINE
  5
241
100
AcDbEntity
  8
0
100
AcDbLine
 62
7
  6
BYLAYER
 10
20.2262149286
 20
66.9346340547
 11
20.2262149286
 21
67.961469844
  0
LINE
  5
242
100
AcDbEntity
  8
0
100
AcDbLine
 62
7
  6
BYLAYER
 10
20.2997201105
 20
74.4474544807
 11
20.2997201105
 21
74.7457234195
  0
LINE
  5
243
100
AcDbEntity
  8
0
100
AcDbLine
 62
7
  6
BYLAYER
 10
21.4262149286
 20
77.8474544807
 11
21.4262149286
 21
71.7584544807
  0
LINE
  5
244
100
AcDbEntity
  8
0
100
AcDbLine
 62
7
  6
BYLAYER
 10
21.8502518906
 20
60.9831049567
 11
21.8502168119
 21
60.1984544807
  0
LINE
  5
245
100
AcDbEntity
  8
0
100
AcDbLine
 62
7
  6
BYLAYER
 10
22.8430150824
 20
30.9919722786
 11
22.8430150824
 21
31.1502684963
  0
LINE
  5
246
100
AcDbEntity
  8
0
100
AcDbLine
 62
7
  6
BYLAYER
 10
22.9797695751
 20
32.3233072179
 11
22.9797695751
 21
35.6502685666
  0
LINE
  5
247
100
AcDbEntity
  8
0
100
AcDbLine
 62
7
  6
BYLAYER
 10
23.0665332398
 20
35.6502685666
 11
23.0665332398
 21
32.3233072179
  0
LINE
  5
248
100
AcDbEntity
  8
0
100
AcDbLine
 62
7
  6
BYLAYER
 10
23.1256517079
 20
71.7584544807
 11
23.1256517079
 21
63.5584544807
  0
LINE
  5
249
100
AcDbEntity
  8
0
100
AcDbLine
 62
7
  6
BYLAYER
 10
23.1262149286
 20
77.6474544807
 11
23.1262149286
 21
74.4474544807
  0
LINE
  5
24A
100
AcDbEntity
  8
0
100
AcDbLine
 62
7
  6
BYLAYER
 10
23.26482879
 20
74.4474544807
 11
23.26482879
 21
76.2474544808
  0
LINE
  5
24B
100
AcDbEntity
  8
0
100
AcDbLine
 62
7
  6
BYLAYER
 10
23.2771583249
 20
63.5584544807
 11
23.2771583249
 21
71.7584544807
  0
LINE
  5
24C
100
AcDbEntity
  8
0
100
AcDbLine
 62
7
  6
BYLAYER
 10
25.264855808
 20
30.8002684963
 11
25.264855808
 21
25.9884544807
  0
LINE
  5
24D
100
AcDbEntity
  8
0
100
AcDbLine
 62
7
  6
BYLAYER
 10
16.8003363111
 20
35.6502685666
 11
43.4503960382
 21
35.6502685666
  0
LINE
  5
24E
100
AcDbEntity
  8
0
100
AcDbLine
 62
7
  6
BYLAYER
 10
43.2129862665
 20
35.9802684963
 11
17.0380293772
 21
35.9802684963
  0
LINE
  5
24F
100
AcDbEntity
  8
0
100
AcDbLine
 62
7
  6
BYLAYER
 10
43.5129839159
 20
36.277590689
 11
16.7380317278
 21
36.277590689
  0
LINE
  5
250
100
AcDbEntity
  8
0
100
AcDbLine
 62
7
  6
BYLAYER
 10
37.4904550826
 20
23.0638461784
 11
35.5259981635
 21
25.842007243
  0
LINE
  5
251
100
AcDbEntity
  8
0
100
AcDbLine
 62
7
  6
BYLAYER
 10
25.2828924317
 20
60.1984544807
 11
25.2828440183
 21
60.9831049567
  0
LINE
  5
252
100
AcDbEntity
  8
0
100
AcDbLine
 62
7
  6
BYLAYER
 10
25.7684632147
 20
63.5584544807
 11
25.7684632147
 21
71.7584544807
  0
LINE
  5
253
100
AcDbEntity
  8
0
100
AcDbLine
 62
7
  6
BYLAYER
 10
25.8262149286
 20
77.5474544807
 11
25.8262149286
 21
77.8474544807
  0
LINE
  5
254
100
AcDbEntity
  8
0
100
AcDbLine
 62
7
  6
BYLAYER
 10
26.6437140313
 20
25.9884544807
 11
26.6437140313
 21
30.8002684963
  0
LINE
  5
255
100
AcDbEntity
  8
0
100
AcDbLine
 62
7
  6
BYLAYER
 10
27.0149450914
 20
30.9403433299
 11
27.0149450914
 21
31.1502684963
  0
LINE
  5
256
100
AcDbEntity
  8
0
100
AcDbLine
 62
7
  6
BYLAYER
 10
27.2556749098
 20
64.7484544807
 11
27.2556749098
 21
63.5584544807
  0
LINE
  5
257
100
AcDbEntity
  8
0
100
AcDbLine
 62
7
  6
BYLAYER
 10
27.2556749098
 20
74.4474544807
 11
27.2556749098
 21
76.2474544808
  0
LINE
  5
258
100
AcDbEntity
  8
0
100
AcDbLine
 62
7
  6
BYLAYER
 10
27.8762149286
 20
60.1984544807
 11
27.8762149286
 21
62.4484544807
  0
LINE
  5
259
100
AcDbEntity
  8
0
100
AcDbLine
 62
7
  6
BYLAYER
 10
43.6251371621
 20
48.8387173416
 11
44.3762149287
 21
49.0623786575
  0
LINE
  5
25A
100
AcDbEntity
  8
0
100
AcDbLine
 62
7
  6
BYLAYER
 10
32.3712789589
 20
30.8002684963
 11
32.3712789589
 21
25.9884544807
  0
LINE
  5
25B
100
AcDbEntity
  8
0
100
AcDbLine
 62
7
  6
BYLAYER
 10
32.3762149286
 20
62.4484544807
 11
32.3762149286
 21
60.1984544807
  0
LINE
  5
25C
100
AcDbEntity
  8
0
100
AcDbLine
 62
7
  6
BYLAYER
 10
32.9967549475
 20
76.2474544808
 11
32.9967549475
 21
74.4474544807
  0
LINE
  5
25D
100
AcDbEntity
  8
0
100
AcDbLine
 62
7
  6
BYLAYER
 10
32.9967549475
 20
63.5584544807
 11
32.9967549475
 21
64.7484544807
  0
LINE
  5
25E
100
AcDbEntity
  8
0
100
AcDbLine
 62
7
  6
BYLAYER
 10
16.6258747115
 20
48.839139599
 11
15.8762149286
 21
49.0623786575
  0
LINE
  5
25F
100
AcDbEntity
  8
0
100
AcDbLine
 62
7
  6
BYLAYER
 10
34.4262149286
 20
77.8474544807
 11
34.4262149286
 21
77.5474544807
  0
LINE
  5
260
100
AcDbEntity
  8
0
100
AcDbLine
 62
7
  6
BYLAYER
 10
34.4839666425
 20
71.7584544807
 11
34.4839666425
 21
63.5584544807
  0
LINE
  5
261
100
AcDbEntity
  8
0
100
AcDbLine
 62
7
  6
BYLAYER
 10
34.969585839
 20
60.9831049567
 11
34.9695374256
 21
60.1984544807
  0
LINE
  5
262
100
AcDbEntity
  8
0
100
AcDbLine
 62
7
  6
BYLAYER
 10
20.2729559699
 20
23.0638422006
 11
22.2374158772
 21
25.8420078713
  0
LINE
  5
263
100
AcDbEntity
  8
0
100
AcDbLine
 62
7
  6
BYLAYER
 10
24.7122896113
 20
25.8420078713
 11
22.7478297041
 21
23.0638422006
  0
LINE
  5
264
100
AcDbEntity
  8
0
100
AcDbLine
 62
7
  6
BYLAYER
 10
36.9752715324
 20
63.5584544807
 11
36.9752715324
 21
71.7584544807
  0
LINE
  5
265
100
AcDbEntity
  8
0
100
AcDbLine
 62
7
  6
BYLAYER
 10
36.9876010672
 20
74.4474544807
 11
36.9876010672
 21
76.2474544808
  0
LINE
  5
266
100
AcDbEntity
  8
0
100
AcDbLine
 62
7
  6
BYLAYER
 10
37.1262149286
 20
74.4474544807
 11
37.1262149286
 21
77.6474544807
  0
LINE
  5
267
100
AcDbEntity
  8
0
100
AcDbLine
 62
7
  6
BYLAYER
 10
37.1267781494
 20
63.5584544807
 11
37.1267781494
 21
71.7584544807
  0
LINE
  5
268
100
AcDbEntity
  8
0
100
AcDbLine
 62
7
  6
BYLAYER
 10
37.5605668111
 20
7.8016593987
 11
37.8214413582
 21
21.890587714
  0
LINE
  5
269
100
AcDbEntity
  8
0
100
AcDbLine
 62
7
  6
BYLAYER
 10
43.6251382524
 20
48.8388373841
 11
16.6258757647
 21
48.8390195652
  0
LINE
  5
26A
100
AcDbEntity
  8
0
100
AcDbLine
 62
7
  6
BYLAYER
 10
44.3762149324
 20
49.0623786575
 11
15.8762149249
 21
49.0623786575
  0
LINE
  5
26B
100
AcDbEntity
  8
0
100
AcDbLine
 62
7
  6
BYLAYER
 10
38.4022130454
 20
60.1984544807
 11
38.4021779667
 21
60.9831049567
  0
LINE
  5
26C
100
AcDbEntity
  8
0
100
AcDbLine
 62
7
  6
BYLAYER
 10
38.8262149286
 20
71.7584544807
 11
38.8262149286
 21
77.8474544807
  0
LINE
  5
26D
100
AcDbEntity
  8
0
100
AcDbLine
 62
7
  6
BYLAYER
 10
39.9527097259
 20
74.7457234197
 11
39.9527097259
 21
74.4474544807
  0
LINE
  5
26E
100
AcDbEntity
  8
0
100
AcDbLine
 62
7
  6
BYLAYER
 10
40.0262149286
 20
67.9551847683
 11
40.0262149286
 21
66.9454244422
  0
LINE
  5
26F
100
AcDbEntity
  8
0
100
AcDbLine
 62
7
  6
BYLAYER
 10
40.3242539558
 20
63.5584544807
 11
40.3242539558
 21
71.7584544807
  0
LINE
  5
270
100
AcDbEntity
  8
0
100
AcDbLine
 62
7
  6
BYLAYER
 10
40.4527216575
 20
74.4474544807
 11
40.4527216575
 21
75.3474276759
  0
LINE
  5
271
100
AcDbEntity
  8
0
100
AcDbLine
 62
7
  6
BYLAYER
 10
40.6262149286
 20
63.1474544807
 11
40.6262149286
 21
63.5584544807
  0
LINE
  5
272
100
AcDbEntity
  8
0
100
AcDbLine
 62
7
  6
BYLAYER
 10
40.6504723334
 20
71.7584544807
 11
40.6504723334
 21
63.5584544807
  0
LINE
  5
273
100
AcDbEntity
  8
0
100
AcDbLine
 62
7
  6
BYLAYER
 10
41.0012149286
 20
60.1984544807
 11
41.0012149286
 21
62.8974544807
  0
LINE
  5
274
100
AcDbEntity
  8
0
100
AcDbLine
 62
7
  6
BYLAYER
 10
41.5255080141
 20
35.9802684963
 11
41.5255080141
 21
35.6502685666
  0
LINE
  5
275
100
AcDbEntity
  8
0
100
AcDbLine
 62
7
  6
BYLAYER
 10
42.7262149286
 20
58.9484544807
 11
42.7262149286
 21
60.1984544807
  0
LINE
  5
276
100
AcDbEntity
  8
0
100
AcDbLine
 62
7
  6
BYLAYER
 10
43.4505080037
 20
35.6502685666
 11
43.4505080037
 21
32.3233086586
  0
LINE
  5
277
100
AcDbEntity
  8
0
100
AcDbLine
 62
7
  6
BYLAYER
 10
30.399629925
 20
68.5719220464
 11
32.1262149286
 21
64.7484544807
  0
LINE
  5
278
100
AcDbEntity
  8
0
100
AcDbLine
 62
7
  6
BYLAYER
 10
44.3762149324
 20
57.7484544807
 11
44.3762149324
 21
49.0623786587
  0
LINE
  5
279
100
AcDbEntity
  8
0
100
AcDbLine
 62
7
  6
BYLAYER
 10
43.5129839159
 20
36.277590689
 11
43.6251371807
 21
48.8387173527
  0
LINE
  5
27A
100
AcDbEntity
  8
0
100
AcDbLine
 62
7
  6
BYLAYER
 10
15.8762169803
 20
57.7484544807
 11
15.9149517861
 21
57.7484544807
  0
LINE
  5
27B
100
AcDbEntity
  8
0
100
AcDbLine
 62
7
  6
BYLAYER
 10
44.3374780712
 20
57.7484544807
 11
44.3762128769
 21
57.7484544807
  0
LINE
  5
27C
100
AcDbEntity
  8
0
100
AcDbLine
 62
7
  6
BYLAYER
 10
15.9230999473
 20
58.9484542759
 11
44.3293299114
 21
58.9484542759
  0
LINE
  5
27D
100
AcDbEntity
  8
0
100
AcDbLine
 62
7
  6
BYLAYER
 10
17.5262149286
 20
60.1984544807
 11
42.7262149286
 21
60.1984544807
  0
LINE
  5
27E
100
AcDbEntity
  8
0
100
AcDbLine
 62
7
  6
BYLAYER
 10
21.8502869703
 20
60.9831049567
 11
25.2827955953
 21
60.9831049567
  0
LINE
  5
27F
100
AcDbEntity
  8
0
100
AcDbLine
 62
7
  6
BYLAYER
 10
34.969634262
 20
60.9831049567
 11
38.402142887
 21
60.9831049567
  0
LINE
  5
280
100
AcDbEntity
  8
0
100
AcDbLine
 62
7
  6
BYLAYER
 10
38.3616177811
 20
61.1821571709
 11
35.0252798228
 21
61.1821571709
  0
LINE
  5
281
100
AcDbEntity
  8
0
100
AcDbLine
 62
7
  6
BYLAYER
 10
25.2271500306
 20
61.1821571709
 11
21.8908120759
 21
61.1821571709
  0
LINE
  5
282
100
AcDbEntity
  8
0
100
AcDbLine
 62
7
  6
BYLAYER
 10
32.3762149286
 20
62.4484544807
 11
27.8762149286
 21
62.4484544807
  0
LINE
  5
283
100
AcDbEntity
  8
0
100
AcDbLine
 62
7
  6
BYLAYER
 10
36.953387679
 20
62.8074544803
 11
36.6880717405
 21
62.8074544803
  0
LINE
  5
284
100
AcDbEntity
  8
0
100
AcDbLine
 62
7
  6
BYLAYER
 10
23.5643550589
 20
62.8074544803
 11
23.2990391935
 21
62.8074544803
  0
LINE
  5
285
100
AcDbEntity
  8
0
100
AcDbLine
 62
7
  6
BYLAYER
 10
19.2512149286
 20
62.8974544807
 11
41.0012149286
 21
62.8974544807
  0
LINE
  5
286
100
AcDbEntity
  8
0
100
AcDbLine
 62
7
  6
BYLAYER
 10
19.5012149286
 20
63.1474544807
 11
40.7512149286
 21
63.1474544807
  0
LINE
  5
287
100
AcDbEntity
  8
0
100
AcDbLine
 62
7
  6
BYLAYER
 10
37.1267781494
 20
63.5584544807
 11
32.9967549475
 21
63.5584544807
  0
LINE
  5
288
100
AcDbEntity
  8
0
100
AcDbLine
 62
7
  6
BYLAYER
 10
27.2556749098
 20
63.5584544807
 11
23.1256517079
 21
63.5584544807
  0
LINE
  5
289
100
AcDbEntity
  8
0
100
AcDbLine
 62
7
  6
BYLAYER
 10
19.6019575239
 20
63.5584544807
 11
19.9281759015
 21
63.5584544807
  0
LINE
  5
28A
100
AcDbEntity
  8
0
100
AcDbLine
 62
7
  6
BYLAYER
 10
40.3242539558
 20
63.5584544807
 11
40.6504723334
 21
63.5584544807
  0
LINE
  5
28B
100
AcDbEntity
  8
0
100
AcDbLine
 62
7
  6
BYLAYER
 10
27.2556749098
 20
64.7484544807
 11
28.1262149286
 21
64.7484544807
  0
LINE
  5
28C
100
AcDbEntity
  8
0
100
AcDbLine
 62
7
  6
BYLAYER
 10
32.1262149286
 20
64.7484544807
 11
32.9967549475
 21
64.7484544807
  0
LINE
  5
28D
100
AcDbEntity
  8
0
100
AcDbLine
 62
7
  6
BYLAYER
 10
19.6019575239
 20
71.7584544807
 11
40.6504723334
 21
71.7584544807
  0
LINE
  5
28E
100
AcDbEntity
  8
0
100
AcDbLine
 62
7
  6
BYLAYER
 10
40.4527216575
 20
74.4474544807
 11
38.8262149286
 21
74.4474544807
  0
LINE
  5
28F
100
AcDbEntity
  8
0
100
AcDbLine
 62
7
  6
BYLAYER
 10
37.1262149286
 20
74.4474544807
 11
23.1262149286
 21
74.4474544807
  0
LINE
  5
290
100
AcDbEntity
  8
0
100
AcDbLine
 62
7
  6
BYLAYER
 10
21.4262149286
 20
74.4474544807
 11
19.7997312813
 21
74.4474544807
  0
LINE
  5
291
100
AcDbEntity
  8
0
100
AcDbLine
 62
7
  6
BYLAYER
 10
20.2997201105
 20
74.7457234195
 11
21.4262149286
 21
74.7457234195
  0
LINE
  5
292
100
AcDbEntity
  8
0
100
AcDbLine
 62
7
  6
BYLAYER
 10
38.8262149286
 20
74.7457234197
 11
39.9527097259
 21
74.7457234197
  0
LINE
  5
293
100
AcDbEntity
  8
0
100
AcDbLine
 62
7
  6
BYLAYER
 10
40.2291500297
 20
74.9308039007
 11
38.8262149286
 21
74.9308039007
  0
LINE
  5
294
100
AcDbEntity
  8
0
100
AcDbLine
 62
7
  6
BYLAYER
 10
21.4262149286
 20
74.9308039007
 11
20.023339131
 21
74.9308039007
  0
LINE
  5
295
100
AcDbEntity
  8
0
100
AcDbLine
 62
7
  6
BYLAYER
 10
23.26482879
 20
76.2474544808
 11
27.2556749098
 21
76.2474544808
  0
LINE
  5
296
100
AcDbEntity
  8
0
100
AcDbLine
 62
7
  6
BYLAYER
 10
32.9967549475
 20
76.2474544808
 11
36.9876010672
 21
76.2474544808
  0
LINE
  5
297
100
AcDbEntity
  8
0
100
AcDbLine
 62
7
  6
BYLAYER
 10
25.8262149286
 20
77.5474544807
 11
34.4262149286
 21
77.5474544807
  0
LINE
  5
298
100
AcDbEntity
  8
0
100
AcDbLine
 62
7
  6
BYLAYER
 10
21.4262149286
 20
77.6474544807
 11
23.1262149286
 21
77.6474544807
  0
LINE
  5
299
100
AcDbEntity
  8
0
100
AcDbLine
 62
7
  6
BYLAYER
 10
37.1262149286
 20
77.6474544807
 11
38.8262149286
 21
77.6474544807
  0
LINE
  5
29A
100
AcDbEntity
  8
0
100
AcDbLine
 62
7
  6
BYLAYER
 10
21.039940787
 20
77.8474544807
 11
25.8262149286
 21
77.8474544807
  0
LINE
  5
29B
100
AcDbEntity
  8
0
100
AcDbLine
 62
7
  6
BYLAYER
 10
34.4262149286
 20
77.8474544807
 11
39.2073816158
 21
77.8474544807
  0
LINE
  5
29C
100
AcDbEntity
  8
0
100
AcDbLine
 62
7
  6
BYLAYER
 10
22.0881572609
 20
79.0474544807
 11
24.3876267744
 21
79.0474544807
  0
LINE
  5
29D
100
AcDbEntity
  8
0
100
AcDbLine
 62
7
  6
BYLAYER
 10
35.8648021764
 20
79.0474544807
 11
38.1642725964
 21
79.0474544807
  0
ARC
  5
29E
100
AcDbEntity
  8
0
100
AcDbCircle
 62
7
  6
BYLAYER
 10
116.4816288361
 20
431.0432141729
 40
410.7366099847
100
AcDbArc
 50
256.2844664039
 51
256.7101380225
  0
ARC
  5
29F
100
AcDbEntity
  8
0
100
AcDbCircle
 62
7
  6
BYLAYER
 10
117.1539352834
 20
416.8014380577
 40
396.0878734555
100
AcDbArc
 50
256.2876737255
 51
256.8180195636
  0
ARC
  5
2A0
100
AcDbEntity
  8
0
100
AcDbCircle
 62
7
  6
BYLAYER
 10
111.6378174889
 20
394.4690936153
 40
373.0638869952
100
AcDbArc
 50
256.2976634392
 51
256.8607220368
  0
ARC
  5
2A1
100
AcDbEntity
  8
0
100
AcDbCircle
 62
7
  6
BYLAYER
 10
22.203988494
 20
21.9324694358
 40
2.2624035561
100
AcDbArc
 50
179.9999659236
 51
181.0607206183
  0
ARC
  5
2A2
100
AcDbEntity
  8
0
100
AcDbCircle
 62
7
  6
BYLAYER
 10
24.6788622282
 20
21.9324694358
 40
2.2624035562
100
AcDbArc
 50
179.9999659236
 51
181.0607206183
  0
ARC
  5
2A3
100
AcDbEntity
  8
0
100
AcDbCircle
 62
7
  6
BYLAYER
 10
35.559426564
 20
21.9324695709
 40
2.2624024884
100
AcDbArc
 50
358.9392733029
 51
0.0000340769
  0
ARC
  5
2A4
100
AcDbEntity
  8
0
100
AcDbCircle
 62
7
  6
BYLAYER
 10
27.4569521219
 20
31.1992039711
 40
0.5149079094
100
AcDbArc
 50
185.4534686072
 51
193.9975910849
  0
ARC
  5
2A5
100
AcDbEntity
  8
0
100
AcDbCircle
 62
7
  6
BYLAYER
 10
23.3114982941
 20
31.1990990452
 40
0.5131127464
100
AcDbArc
 50
185.460836208
 51
191.6742037251
  0
ARC
  5
2A6
100
AcDbEntity
  8
0
100
AcDbCircle
 62
7
  6
BYLAYER
 10
23.2847582918
 20
31.1938382571
 40
0.4858614548
100
AcDbArc
 50
191.7047206243
 51
198.1244197226
  0
ARC
  5
2A7
100
AcDbEntity
  8
0
100
AcDbCircle
 62
7
  6
BYLAYER
 10
23.2611236473
 20
31.1862332329
 40
0.4610337193
100
AcDbArc
 50
198.1399062864
 51
204.9204504957
  0
ARC
  5
2A8
100
AcDbEntity
  8
0
100
AcDbCircle
 62
7
  6
BYLAYER
 10
37.9451168658
 20
60.9937371985
 40
0.4571467445
100
AcDbArc
 50
359.9862201818
 51
24.3598975153
  0
ARC
  5
2A9
100
AcDbEntity
  8
0
100
AcDbCircle
 62
7
  6
BYLAYER
 10
22.307312972
 20
60.9937371903
 40
0.4571467249
100
AcDbArc
 50
155.640145171
 51
180.0137787974
  0
ARC
  5
2AA
100
AcDbEntity
  8
0
100
AcDbCircle
 62
7
  6
BYLAYER
 10
23.3827203405
 20
32.3233514811
 40
0.4029507678
100
AcDbArc
 50
180.0062938092
 51
183.044313449
  0
ARC
  5
2AB
100
AcDbEntity
  8
0
100
AcDbCircle
 62
7
  6
BYLAYER
 10
19.2243388998
 20
32.3233263809
 40
0.4004463476
100
AcDbArc
 50
180.0027418389
 51
181.9145361125
  0
ARC
  5
2AC
100
AcDbEntity
  8
0
100
AcDbCircle
 62
7
  6
BYLAYER
 10
37.6755078219
 20
31.2002684963
 40
0.4
100
AcDbArc
 50
270.0
 51
352.8192442191
  0
ARC
  5
2AD
100
AcDbEntity
  8
0
100
AcDbCircle
 62
7
  6
BYLAYER
 10
22.5755078219
 20
31.2002684963
 40
0.4
100
AcDbArc
 50
187.1807557809
 51
270.0
  0
ARC
  5
2AE
100
AcDbEntity
  8
0
100
AcDbCircle
 62
7
  6
BYLAYER
 10
27.3495622021
 20
31.1579873174
 40
0.399171036
100
AcDbArc
 50
211.3086677963
 51
213.0410610853
  0
ARC
  5
2AF
100
AcDbEntity
  8
0
100
AcDbCircle
 62
7
  6
BYLAYER
 10
30.1262149286
 20
68.4469328093
 40
0.3006294557
100
AcDbArc
 50
24.567088894
 51
155.432911106
  0
ARC
  5
2B0
100
AcDbEntity
  8
0
100
AcDbCircle
 62
7
  6
BYLAYER
 10
17.1005080286
 20
32.3233072179
 40
0.3000003885
100
AcDbArc
 50
180.0
 51
259.9999729873
  0
ARC
  5
2B1
100
AcDbEntity
  8
0
100
AcDbCircle
 62
7
  6
BYLAYER
 10
43.1505076151
 20
32.3233072179
 40
0.3000003885
100
AcDbArc
 50
280.0000270127
 51
360.0
  0
ARC
  5
2B2
100
AcDbEntity
  8
0
100
AcDbCircle
 62
7
  6
BYLAYER
 10
17.0380197817
 20
36.2802685015
 40
0.3000000053
100
AcDbArc
 50
180.5115574542
 51
269.9999995852
  0
ARC
  5
2B3
100
AcDbEntity
  8
0
100
AcDbCircle
 62
7
  6
BYLAYER
 10
43.212995862
 20
36.2802685015
 40
0.3000000053
100
AcDbArc
 50
270.0000004148
 51
359.4884425458
  0
ARC
  5
2B4
100
AcDbEntity
  8
0
100
AcDbCircle
 62
7
  6
BYLAYER
 10
19.5012149286
 20
62.8974544807
 40
0.25
100
AcDbArc
 50
90.0
 51
180.0
  0
ARC
  5
2B5
100
AcDbEntity
  8
0
100
AcDbCircle
 62
7
  6
BYLAYER
 10
40.7512149286
 20
62.8974544807
 40
0.25
100
AcDbArc
 50
0.0
 51
90.0
  0
SPLINE
  5
2B6
100
AcDbEntity
  8
0
100
AcDbSpline
 62
7
  6
BYLAYER
 70
0
 71
3
 72
9
 73
5
 74
0
 42
0.0000001
 43
0.0000001
 44
0.0000000001
 40
0.0
 40
0.0
 40
0.0
 40
0.0
 40
0.2424493552
 40
1.0
 40
1.0
 40
1.0
 40
1.0
 10
27.0856557695
 20
30.9919722783
 30
0.0
 10
27.0800466168
 20
31.0040073318
 30
0.0
 10
27.0591503453
 20
31.0546734759
 30
0.0
 10
27.0473280515
 20
31.1089711149
 30
0.0
 10
27.0433550074
 20
31.1502684963
 30
0.0
  0
SPLINE
  5
2B7
100
AcDbEntity
  8
0
100
AcDbSpline
 62
7
  6
BYLAYER
 70
0
 71
3
 72
11
 73
7
 74
0
 42
0.0000001
 43
0.0000001
 44
0.0000000001
 40
0.0
 40
0.0
 40
0.0
 40
0.0
 40
0.212647826
 40
0.4508885075
 40
0.7168485676
 40
1.0
 40
1.0
 40
1.0
 40
1.0
 10
23.2478923852
 20
32.0275345954
 30
0.0
 10
23.2223541741
 20
32.0337330798
 30
0.0
 10
23.1708806338
 20
32.0598419561
 30
0.0
 10
23.1125514935
 20
32.1289080505
 30
0.0
 10
23.0752860096
 20
32.2201401725
 30
0.0
 10
23.0665332398
 20
32.2883144865
 30
0.0
 10
23.0665332398
 20
32.3233072179
 30
0.0
  0
SPLINE
  5
2B8
100
AcDbEntity
  8
0
100
AcDbSpline
 62
7
  6
BYLAYER
 70
0
 71
3
 72
9
 73
5
 74
0
 42
0.0000001
 43
0.0000001
 44
0.0000000001
 40
0.0
 40
0.0
 40
0.0
 40
0.0
 40
0.4838267253
 40
1.0
 40
1.0
 40
1.0
 40
1.0
 10
22.9137257605
 20
30.9403433301
 30
0.0
 10
22.8941087679
 20
30.970499007
 30
0.0
 10
22.861971168
 20
31.0385380085
 30
0.0
 10
22.8468112303
 20
31.1120630055
 30
0.0
 10
22.8431555047
 20
31.1502684963
 30
0.0
  0
SPLINE
  5
2B9
100
AcDbEntity
  8
0
100
AcDbSpline
 62
7
  6
BYLAYER
 70
0
 71
3
 72
11
 73
7
 74
0
 42
0.0000001
 43
0.0000001
 44
0.0000000001
 40
0.0
 40
0.0
 40
0.0
 40
0.0
 40
0.2126380646
 40
0.4509222324
 40
0.7168981162
 40
1.0
 40
1.0
 40
1.0
 40
1.0
 10
19.0595859645
 20
32.0275348529
 30
0.0
 10
19.0340662418
 20
32.0337401183
 30
0.0
 10
18.9826396446
 20
32.0598935059
 30
0.0
 10
18.9244350082
 20
32.1290019687
 30
0.0
 10
18.8872754214
 20
32.2202115302
 30
0.0
 10
18.8785502442
 20
32.2883407918
 30
0.0
 10
18.8785502442
 20
32.3233072179
 30
0.0
  0
SPLINE
  5
2BA
100
AcDbEntity
  8
0
100
AcDbSpline
 62
7
  6
BYLAYER
 70
0
 71
3
 72
11
 73
7
 74
0
 42
0.0000001
 43
0.0000001
 44
0.0000000001
 40
0.0
 40
0.0
 40
0.0
 40
0.0
 40
0.2464087364
 40
0.5001867995
 40
0.7538669577
 40
1.0
 40
1.0
 40
1.0
 40
1.0
 10
28.8928376142
 20
11.3492553263
 30
0.0
 10
28.9485312022
 20
11.4973847726
 30
0.0
 10
29.0318988556
 20
11.8098821876
 30
0.0
 10
29.0724863689
 20
12.2946611125
 30
0.0
 10
29.0297915335
 20
12.7790816718
 30
0.0
 10
28.9450408678
 20
13.0909680219
 30
0.0
 10
28.8886716349
 20
13.2386521726
 30
0.0
  0
SPLINE
  5
2BB
100
AcDbEntity
  8
0
100
AcDbSpline
 62
7
  6
BYLAYER
 70
0
 71
3
 72
13
 73
9
 74
0
 42
0.0000001
 43
0.0000001
 44
0.0000000001
 40
0.0
 40
0.0
 40
0.0
 40
0.0
 40
0.1040189163
 40
0.2130155739
 40
0.3283946929
 40
0.450951351
 40
0.7160781936
 40
1.0
 40
1.0
 40
1.0
 40
1.0
 10
20.5190310035
 20
7.3143653506
 30
0.0
 10
20.4981126248
 20
7.3178000025
 30
0.0
 10
20.4560326885
 20
7.3302960784
 30
0.0
 10
20.397380304
 20
7.3635481805
 30
0.0
 10
20.3440483123
 20
7.4106641505
 30
0.0
 10
20.2803927201
 20
7.4916162974
 30
0.0
 10
20.2234862165
 20
7.6184054528
 30
0.0
 10
20.2054486296
 20
7.7301363231
 30
0.0
 10
20.2031002027
 20
7.7879503304
 30
0.0
  0
SPLINE
  5
2BC
100
AcDbEntity
  8
0
100
AcDbSpline
 62
7
  6
BYLAYER
 70
0
 71
3
 72
10
 73
6
 74
0
 42
0.0000001
 43
0.0000001
 44
0.0000000001
 40
0.0
 40
0.0
 40
0.0
 40
0.0
 40
0.2619892614
 40
0.5191704102
 40
1.0
 40
1.0
 40
1.0
 40
1.0
 10
19.9415849379
 20
21.9324707814
 30
0.0
 10
19.9415849379
 20
22.0367402231
 30
0.0
 10
19.955950314
 20
22.243791917
 30
0.0
 10
20.0385058701
 20
22.6336205689
 30
0.0
 10
20.1624707625
 20
22.9075925321
 30
0.0
 10
20.2729559699
 20
23.0638422006
 30
0.0
  0
SPLINE
  5
2BD
100
AcDbEntity
  8
0
100
AcDbSpline
 62
7
  6
BYLAYER
 70
0
 71
3
 72
11
 73
7
 74
0
 42
0.0000001
 43
0.0000001
 44
0.0000000001
 40
0.0
 40
0.0
 40
0.0
 40
0.0
 40
0.2730450542
 40
0.5281097632
 40
0.768321621
 40
1.0
 40
1.0
 40
1.0
 40
1.0
 10
22.2374158772
 20
25.8420078713
 30
0.0
 10
22.2532068262
 20
25.8643396456
 30
0.0
 10
22.2877280386
 20
25.9049426781
 30
0.0
 10
22.3492586407
 20
25.9522505361
 30
0.0
 10
22.4167058777
 20
25.9816962078
 30
0.0
 10
22.4642088212
 20
25.9884544807
 30
0.0
 10
22.4874158772
 20
25.9884544807
 30
0.0
  0
SPLINE
  5
2BE
100
AcDbEntity
  8
0
100
AcDbSpline
 62
7
  6
BYLAYER
 70
0
 71
3
 72
23
 73
19
 74
0
 42
0.0000001
 43
0.0000001
 44
0.0000000001
 40
0.0
 40
0.0
 40
0.0
 40
0.0
 40
0.0516289355
 40
0.105172122
 40
0.1619854791
 40
0.2228538456
 40
0.287815842
 40
0.3563438415
 40
0.4274809927
 40
0.4999915325
 40
0.5725020906
 40
0.6436395171
 40
0.712168985
 40
0.7771347558
 40
0.8380074219
 40
0.8948243673
 40
0.9483704959
 40
1.0
 40
1.0
 40
1.0
 40
1.0
 10
30.1191438608
 20
10.2884544807
 30
0.0
 10
30.026317681
 20
10.2884544807
 30
0.0
 10
29.8362760731
 20
10.3154656774
 30
0.0
 10
29.5665636935
 20
10.4332903426
 30
0.0
 10
29.3203280736
 20
10.6225103274
 30
0.0
 10
29.1063033665
 20
10.8743327645
 30
0.0
 10
28.9316539705
 20
11.1790096289
 30
0.0
 10
28.8023128895
 20
11.52500228
 30
0.0
 10
28.7227820409
 20
11.899446701
 30
0.0
 10
28.6959352098
 20
12.2884078128
 30
0.0
 10
28.7227673967
 20
12.6773705454
 30
0.0
 10
28.8022882529
 20
13.0518205023
 30
0.0
 10
28.9316234284
 20
13.3978258022
 30
0.0
 10
29.1062686838
 20
13.7025246454
 30
0.0
 10
29.3202974622
 20
13.9543718917
 30
0.0
 10
29.566546021
 20
14.1436077595
 30
0.0
 10
29.8362687035
 20
14.2614413151
 30
0.0
 10
30.0263166587
 20
14.2884544807
 30
0.0
 10
30.1191438608
 20
14.2884544807
 30
0.0
  0
SPLINE
  5
2BF
100
AcDbEntity
  8
0
100
AcDbSpline
 62
7
  6
BYLAYER
 70
0
 71
3
 72
12
 73
8
 74
0
 42
0.0000001
 43
0.0000001
 44
0.0000000001
 40
0.0
 40
0.0
 40
0.0
 40
0.0
 40
0.2124004932
 40
0.3285075081
 40
0.4517180565
 40
0.7173032265
 40
1.0
 40
1.0
 40
1.0
 40
1.0
 10
37.2629121194
 20
7.3199786333
 30
0.0
 10
37.3046425252
 20
7.3295056623
 30
0.0
 10
37.3659715268
 20
7.3610808431
 30
0.0
 10
37.4315525149
 20
7.4245589275
 30
0.0
 10
37.4917606006
 20
7.507208125
 30
0.0
 10
37.5442771125
 20
7.6340093973
 30
0.0
 10
37.5595321115
 20
7.7446982065
 30
0.0
 10
37.5605668111
 20
7.8016593987
 30
0.0
  0
SPLINE
  5
2C0
100
AcDbEntity
  8
0
100
AcDbSpline
 62
7
  6
BYLAYER
 70
0
 71
3
 72
10
 73
6
 74
0
 42
0.0000001
 43
0.0000001
 44
0.0000000001
 40
0.0
 40
0.0
 40
0.0
 40
0.0
 40
0.261989376
 40
0.5191705909
 40
1.0
 40
1.0
 40
1.0
 40
1.0
 10
37.8218290523
 20
21.9324709164
 30
0.0
 10
37.8218290523
 20
22.0367408181
 30
0.0
 10
37.8074635428
 20
22.2437934115
 30
0.0
 10
37.7249072576
 20
22.6336235286
 30
0.0
 10
37.6009412572
 20
22.9075963506
 30
0.0
 10
37.4904550826
 20
23.0638461784
 30
0.0
  0
SPLINE
  5
2C1
100
AcDbEntity
  8
0
100
AcDbSpline
 62
7
  6
BYLAYER
 70
0
 71
3
 72
11
 73
7
 74
0
 42
0.0000001
 43
0.0000001
 44
0.0000000001
 40
0.0
 40
0.0
 40
0.0
 40
0.0
 40
0.2759147072
 40
0.5320294204
 40
0.770963431
 40
1.0
 40
1.0
 40
1.0
 40
1.0
 10
35.5259981635
 20
25.842007243
 30
0.0
 10
35.5126705013
 20
25.8640742483
 30
0.0
 10
35.4828894016
 20
25.9043795695
 30
0.0
 10
35.4278896145
 20
25.9519511041
 30
0.0
 10
35.3662599765
 20
25.98186067
 30
0.0
 10
35.3222798231
 20
25.9887520189
 30
0.0
 10
35.3008803392
 20
25.9887653126
 30
0.0
  0
SPLINE
  5
2C2
100
AcDbEntity
  8
0
100
AcDbSpline
 62
7
  6
BYLAYER
 70
0
 71
3
 72
27
 73
23
 74
0
 42
0.0000001
 43
0.0000001
 44
0.0000000001
 40
0.0
 40
0.0
 40
0.0
 40
0.0
 40
0.0120578357
 40
0.0265734028
 40
0.043930036
 40
0.0642891034
 40
0.1139780778
 40
0.1750814815
 40
0.2462953271
 40
0.3258412164
 40
0.4113500081
 40
0.500000079
 40
0.5886477516
 40
0.6741531395
 40
0.7536991078
 40
0.8249173075
 40
0.8860264732
 40
0.9357161434
 40
0.9560745824
 40
0.9734293696
 40
0.9879429531
 40
1.0
 40
1.0
 40
1.0
 40
1.0
 10
19.9281759015
 20
66.2024609013
 30
0.0
 10
19.9383583716
 20
66.2057945053
 30
0.0
 10
19.9594837434
 20
66.2171463119
 30
0.0
 10
19.988984099
 20
66.2429787466
 30
0.0
 10
20.0189038602
 20
66.2786435476
 30
0.0
 10
20.0618257016
 20
66.3435087446
 30
0.0
 10
20.1129061322
 20
66.4487478921
 30
0.0
 10
20.1672913959
 20
66.6012603583
 30
0.0
 10
20.2147449638
 20
66.7836735499
 30
0.0
 10
20.2517836568
 20
66.9905123034
 30
0.0
 10
20.2755180323
 20
67.2148835074
 30
0.0
 10
20.2838399019
 20
67.4484535973
 30
0.0
 10
20.2755181539
 20
67.6820207448
 30
0.0
 10
20.2517822414
 20
67.90638657
 30
0.0
 10
20.2147465573
 20
68.1132268248
 30
0.0
 10
20.1672897035
 20
68.2956484784
 30
0.0
 10
20.1129046508
 20
68.4481712439
 30
0.0
 10
20.0618216347
 20
68.5534149841
 30
0.0
 10
20.0189004114
 20
68.6182787403
 30
0.0
 10
19.9889816941
 20
68.6539393325
 30
0.0
 10
19.9594818404
 20
68.6797663741
 30
0.0
 10
19.9383577055
 20
68.6911146743
 30
0.0
 10
19.9281759015
 20
68.6944480602
 30
0.0
  0
SPLINE
  5
2C3
100
AcDbEntity
  8
0
100
AcDbSpline
 62
7
  6
BYLAYER
 70
0
 71
3
 72
17
 73
13
 74
0
 42
0.0000001
 43
0.0000001
 44
0.0000000001
 40
0.0
 40
0.0
 40
0.0
 40
0.0
 40
0.024117799
 40
0.0531519714
 40
0.0878651658
 40
0.1285773536
 40
0.2279361135
 40
0.3501390009
 40
0.4925499022
 40
0.6516191542
 40
0.8228118627
 40
1.0
 40
1.0
 40
1.0
 40
1.0
 10
40.3242539558
 20
68.6944480602
 30
0.0
 10
40.3140705511
 20
68.6911141503
 30
0.0
 10
40.2929427169
 20
68.679762407
 30
0.0
 10
40.263436727
 20
68.6539328802
 30
0.0
 10
40.2335130788
 20
68.6182726211
 30
0.0
 10
40.1905964644
 20
68.5534166663
 30
0.0
 10
40.13953614
 20
68.4481812775
 30
0.0
 10
40.0851651702
 20
68.2956827088
 30
0.0
 10
40.0377018304
 20
68.1132927591
 30
0.0
 10
40.0006097393
 20
67.9063982697
 30
0.0
 10
39.9769191239
 20
67.6820114869
 30
0.0
 10
39.9713914126
 20
67.5271770893
 30
0.0
 10
39.9713914126
 20
67.4484544807
 30
0.0
  0
SPLINE
  5
2C4
100
AcDbEntity
  8
0
100
AcDbSpline
 62
7
  6
BYLAYER
 70
0
 71
3
 72
17
 73
13
 74
0
 42
0.0000001
 43
0.0000001
 44
0.0000000001
 40
0.0
 40
0.0
 40
0.0
 40
0.0
 40
0.1771969396
 40
0.3484070502
 40
0.5074771931
 40
0.6498839851
 40
0.7720813945
 40
0.8714314276
 40
0.9121400466
 40
0.9468504173
 40
0.9758827416
 40
1.0
 40
1.0
 40
1.0
 40
1.0
 10
39.9713914126
 20
67.4484544807
 30
0.0
 10
39.9713914126
 20
67.3697278721
 30
0.0
 10
39.9769215991
 20
67.2148818866
 30
0.0
 10
40.0006051624
 20
66.9904818981
 30
0.0
 10
40.0377045062
 20
66.7835818465
 30
0.0
 10
40.0851730829
 20
66.6011969133
 30
0.0
 10
40.1395493164
 20
66.4487089047
 30
0.0
 10
40.1906036441
 20
66.3434795337
 30
0.0
 10
40.2335156611
 20
66.2786284021
 30
0.0
 10
40.2634377754
 20
66.2429714939
 30
0.0
 10
40.2929434345
 20
66.2171449358
 30
0.0
 10
40.3140707678
 20
66.2057947403
 30
0.0
 10
40.3242539558
 20
66.2024609013
 30
0.0
  0
SPLINE
  5
2C5
100
AcDbEntity
  8
0
100
AcDbSpline
 62
7
  6
BYLAYER
 70
0
 71
3
 72
9
 73
5
 74
0
 42
0.0000001
 43
0.0000001
 44
0.0000000001
 40
0.0
 40
0.0
 40
0.0
 40
0.0
 40
0.4942603792
 40
1.0
 40
1.0
 40
1.0
 40
1.0
 10
27.0149450914
 20
30.9403544835
 30
0.0
 10
27.0272759406
 20
30.9478856805
 30
0.0
 10
27.0514700656
 20
30.9643429545
 30
0.0
 10
27.0745672161
 20
30.9823354964
 30
0.0
 10
27.0856557695
 20
30.992114183
 30
0.0
  0
SPLINE
  5
2C6
100
AcDbEntity
  8
0
100
AcDbSpline
 62
7
  6
BYLAYER
 70
0
 71
3
 72
13
 73
9
 74
0
 42
0.0000001
 43
0.0000001
 44
0.0000000001
 40
0.0
 40
0.0
 40
0.0
 40
0.0
 40
0.2296902721
 40
0.3526516645
 40
0.4787886154
 40
0.6071195013
 40
0.7370116899
 40
1.0
 40
1.0
 40
1.0
 40
1.0
 10
36.6880717405
 20
62.8074544803
 30
0.0
 10
36.5093261296
 20
62.7758484695
 30
0.0
 10
36.2538008235
 20
62.6343150687
 30
0.0
 10
35.969356456
 20
62.3869423131
 30
0.0
 10
35.7627400397
 20
62.1707915804
 30
0.0
 10
35.5673725572
 20
61.9381859539
 30
0.0
 10
35.3167752756
 20
61.6111203241
 30
0.0
 10
35.140306087
 20
61.3554537707
 30
0.0
 10
35.0253690438
 20
61.1822947829
 30
0.0
  0
SPLINE
  5
2C7
100
AcDbEntity
  8
0
100
AcDbSpline
 62
7
  6
BYLAYER
 70
0
 71
3
 72
14
 73
10
 74
0
 42
0.0000001
 43
0.0000001
 44
0.0000000001
 40
0.0
 40
0.0
 40
0.0
 40
0.0
 40
0.2608857571
 40
0.3898467543
 40
0.5173148383
 40
0.6427060035
 40
0.7652441094
 40
0.8842274734
 40
1.0
 40
1.0
 40
1.0
 40
1.0
 10
38.3615650141
 20
61.1822951093
 30
0.0
 10
38.2774329988
 20
61.3555603986
 30
0.0
 10
38.1446585513
 20
61.6112927814
 30
0.0
 10
37.9469257037
 20
61.9382129583
 30
0.0
 10
37.7874662226
 20
62.1709241168
 30
0.0
 10
37.6132810963
 20
62.3869781246
 30
0.0
 10
37.4202112366
 20
62.5781977674
 30
0.0
 10
37.2030815695
 20
62.7308974818
 30
0.0
 10
37.0374933799
 20
62.7922189501
 30
0.0
 10
36.953387679
 20
62.8074544803
 30
0.0
  0
SPLINE
  5
2C8
100
AcDbEntity
  8
0
100
AcDbSpline
 62
7
  6
BYLAYER
 70
0
 71
3
 72
9
 73
5
 74
0
 42
0.0000001
 43
0.0000001
 44
0.0000000001
 40
0.0
 40
0.0
 40
0.0
 40
0.0
 40
0.2601914262
 40
1.0
 40
1.0
 40
1.0
 40
1.0
 10
22.9803382335
 20
32.3019514524
 30
0.0
 10
22.9811425278
 20
32.2867996836
 30
0.0
 10
22.9874477773
 20
32.2288381861
 30
0.0
 10
23.0063249661
 20
32.1718089181
 30
0.0
 10
23.0280982927
 20
32.134564345
 30
0.0
  0
SPLINE
  5
2C9
100
AcDbEntity
  8
0
100
AcDbSpline
 62
7
  6
BYLAYER
 70
0
 71
3
 72
9
 73
5
 74
0
 42
0.0000001
 43
0.0000001
 44
0.0000000001
 40
0.0
 40
0.0
 40
0.0
 40
0.0
 40
0.5296577599
 40
1.0
 40
1.0
 40
1.0
 40
1.0
 10
23.0280982927
 20
32.134564345
 30
0.0
 10
23.0436038965
 20
32.1080410855
 30
0.0
 10
23.0808879796
 20
32.0617343441
 30
0.0
 10
23.1342910973
 20
32.0339819349
 30
0.0
 10
23.1608010964
 20
32.0275358782
 30
0.0
  0
SPLINE
  5
2CA
100
AcDbEntity
  8
0
100
AcDbSpline
 62
7
  6
BYLAYER
 70
0
 71
3
 72
9
 73
5
 74
0
 42
0.0000001
 43
0.0000001
 44
0.0000000001
 40
0.0
 40
0.0
 40
0.0
 40
0.0
 40
0.2540541831
 40
1.0
 40
1.0
 40
1.0
 40
1.0
 10
26.9573339412
 20
31.0746574792
 30
0.0
 10
26.9588572259
 20
31.0685804655
 30
0.0
 10
26.9653106352
 20
31.0447781066
 30
0.0
 10
26.9735948226
 20
31.0214659724
 30
0.0
 10
26.9808196889
 20
31.0045490257
 30
0.0
  0
SPLINE
  5
2CB
100
AcDbEntity
  8
0
100
AcDbSpline
 62
7
  6
BYLAYER
 70
0
 71
3
 72
9
 73
5
 74
0
 42
0.0000001
 43
0.0000001
 44
0.0000000001
 40
0.0
 40
0.0
 40
0.0
 40
0.0
 40
0.2545706286
 40
1.0
 40
1.0
 40
1.0
 40
1.0
 10
26.9808196889
 20
31.0045490257
 30
0.0
 10
26.9828430431
 20
30.9998113636
 30
0.0
 10
26.9911158263
 20
30.9813417401
 30
0.0
 10
27.0006786367
 20
30.9634464984
 30
0.0
 10
27.0085183618
 20
30.9505587392
 30
0.0
  0
SPLINE
  5
2CC
100
AcDbEntity
  8
0
100
AcDbSpline
 62
7
  6
BYLAYER
 70
0
 71
3
 72
10
 73
6
 74
0
 42
0.0000001
 43
0.0000001
 44
0.0000000001
 40
0.0
 40
0.0
 40
0.0
 40
0.0
 40
0.2500556331
 40
0.5001256086
 40
1.0
 40
1.0
 40
1.0
 40
1.0
 10
30.1262149286
 20
76.6474544808
 30
0.0
 10
30.3684167753
 20
76.6474544808
 30
0.0
 10
30.8530409208
 20
76.6301003054
 30
0.0
 10
31.816689469
 20
76.5267380753
 30
0.0
 10
32.5297191764
 20
76.3751349447
 30
0.0
 10
32.9967549475
 20
76.2474544808
 30
0.0
  0
SPLINE
  5
2CD
100
AcDbEntity
  8
0
100
AcDbSpline
 62
7
  6
BYLAYER
 70
0
 71
3
 72
10
 73
6
 74
0
 42
0.0000001
 43
0.0000001
 44
0.0000000001
 40
0.0
 40
0.0
 40
0.0
 40
0.0
 40
0.4998744593
 40
0.7499443997
 40
1.0
 40
1.0
 40
1.0
 40
1.0
 10
27.2556749098
 20
76.2474544808
 30
0.0
 10
27.7227107445
 20
76.3751349621
 30
0.0
 10
28.4357404909
 20
76.5267380454
 30
0.0
 10
29.3993890307
 20
76.6301003677
 30
0.0
 10
29.8840131137
 20
76.6474544808
 30
0.0
 10
30.1262149286
 20
76.6474544808
 30
0.0
  0
LINE
  5
2CE
100
AcDbEntity
  8
0
100
AcDbLine
 62
7
  6
BYLAYER
 10
38.4021779667
 20
60.9831049567
 11
38.402263597
 21
60.9936272532
  0
SPLINE
  5
2CF
100
AcDbEntity
  8
0
100
AcDbSpline
 62
7
  6
BYLAYER
 70
0
 71
3
 72
9
 73
5
 74
0
 42
0.0000001
 43
0.0000001
 44
0.0000000001
 40
0.0
 40
0.0
 40
0.0
 40
0.0
 40
0.5057396168
 40
1.0
 40
1.0
 40
1.0
 40
1.0
 10
22.8430150824
 20
30.9921141751
 30
0.0
 10
22.8541036353
 20
30.9823354893
 30
0.0
 10
22.8772007905
 20
30.964342956
 30
0.0
 10
22.901394912
 20
30.9478856801
 30
0.0
 10
22.9137257605
 20
30.9403544834
 30
0.0
  0
SPLINE
  5
2D0
100
AcDbEntity
  8
0
100
AcDbSpline
 62
7
  6
BYLAYER
 70
0
 71
3
 72
14
 73
10
 74
0
 42
0.0000001
 43
0.0000001
 44
0.0000000001
 40
0.0
 40
0.0
 40
0.0
 40
0.0
 40
0.2625821317
 40
0.3922732385
 40
0.5204060767
 40
0.6463481811
 40
0.7691209937
 40
0.887392682
 40
1.0
 40
1.0
 40
1.0
 40
1.0
 10
25.2270606191
 20
61.1822951093
 30
0.0
 10
25.1121245143
 20
61.3554526897
 30
0.0
 10
24.9356451371
 20
61.611128317
 30
0.0
 10
24.6850843037
 20
61.9381629991
 30
0.0
 10
24.489603526
 20
62.1708376985
 30
0.0
 10
24.2834198537
 20
62.3867377644
 30
0.0
 10
24.0635060645
 20
62.5775283259
 30
0.0
 10
23.8269320134
 20
62.7294418247
 30
0.0
 10
23.6521212813
 20
62.7919358676
 30
0.0
 10
23.5643550589
 20
62.8074544803
 30
0.0
  0
SPLINE
  5
2D1
100
AcDbEntity
  8
0
100
AcDbSpline
 62
7
  6
BYLAYER
 70
0
 71
3
 72
14
 73
10
 74
0
 42
0.0000001
 43
0.0000001
 44
0.0000000001
 40
0.0
 40
0.0
 40
0.0
 40
0.0
 40
0.1157692453
 40
0.2347494142
 40
0.3572875032
 40
0.4826799456
 40
0.6101489999
 40
0.7391119035
 40
1.0
 40
1.0
 40
1.0
 40
1.0
 10
23.2990391935
 20
62.8074544803
 30
0.0
 10
23.2149365393
 20
62.7922163045
 30
0.0
 10
23.0493547839
 20
62.7308952023
 30
0.0
 10
22.8322248909
 20
62.5782050133
 30
0.0
 10
22.6391539687
 20
62.3869883217
 30
0.0
 10
22.4649700099
 20
62.1709318465
 30
0.0
 10
22.3055050578
 20
61.9382210928
 30
0.0
 10
22.1077765373
 20
61.6112942484
 30
0.0
 10
21.9749973687
 20
61.3555614153
 30
0.0
 10
21.890864701
 20
61.1822947829
 30
0.0
  0
SPLINE
  5
2D2
100
AcDbEntity
  8
0
100
AcDbSpline
 62
7
  6
BYLAYER
 70
0
 71
3
 72
9
 73
5
 74
0
 42
0.0000001
 43
0.0000001
 44
0.0000000001
 40
0.0
 40
0.0
 40
0.0
 40
0.0
 40
0.504378115
 40
1.0
 40
1.0
 40
1.0
 40
1.0
 10
25.2829622004
 20
60.9936272532
 30
0.0
 10
25.2829622004
 20
61.0270350541
 30
0.0
 10
25.2727043511
 20
61.0936310293
 30
0.0
 10
25.2443511292
 20
61.1543898329
 30
0.0
 10
25.2270606191
 20
61.1822951093
 30
0.0
  0
LINE
  5
2D3
100
AcDbEntity
  8
0
100
AcDbLine
 62
7
  6
BYLAYER
 10
21.8501662603
 20
60.9936272532
 11
21.8502518906
 21
60.9831049567
  0
SPLINE
  5
2D4
100
AcDbEntity
  8
0
100
AcDbSpline
 62
7
  6
BYLAYER
 70
0
 71
3
 72
23
 73
19
 74
0
 42
0.0000001
 43
0.0000001
 44
0.0000000001
 40
0.0
 40
0.0
 40
0.0
 40
0.0
 40
0.0516289355
 40
0.105172122
 40
0.1619854791
 40
0.2228538456
 40
0.287815842
 40
0.3563438415
 40
0.4274809927
 40
0.4999915325
 40
0.5725020906
 40
0.6436395171
 40
0.712168985
 40
0.7771347558
 40
0.8380074219
 40
0.8948243673
 40
0.9483704959
 40
1.0
 40
1.0
 40
1.0
 40
1.0
 10
30.1191438608
 20
14.2884544807
 30
0.0
 10
30.2119700406
 20
14.2884544807
 30
0.0
 10
30.4020116486
 20
14.2614432841
 30
0.0
 10
30.6717240281
 20
14.1436186189
 30
0.0
 10
30.9179596481
 20
13.9543986341
 30
0.0
 10
31.1319843552
 20
13.702576197
 30
0.0
 10
31.3066337512
 20
13.3978993326
 30
0.0
 10
31.4359748321
 20
13.0519066815
 30
0.0
 10
31.5155056808
 20
12.6774622605
 30
0.0
 10
31.5423525118
 20
12.2885011487
 30
0.0
 10
31.5155203249
 20
11.8995384161
 30
0.0
 10
31.4359994688
 20
11.5250884592
 30
0.0
 10
31.3066642933
 20
11.1790831593
 30
0.0
 10
31.1320190379
 20
10.8743843161
 30
0.0
 10
30.9179902594
 20
10.6225370698
 30
0.0
 10
30.6717417007
 20
10.4333012019
 30
0.0
 10
30.4020190182
 20
10.3154676463
 30
0.0
 10
30.2119710629
 20
10.2884544807
 30
0.0
 10
30.1191438608
 20
10.2884544807
 30
0.0
  0
SPLINE
  5
2D5
100
AcDbEntity
  8
0
100
AcDbSpline
 62
7
  6
BYLAYER
 70
0
 71
3
 72
11
 73
7
 74
0
 42
0.0000001
 43
0.0000001
 44
0.0000000001
 40
0.0
 40
0.0
 40
0.0
 40
0.0
 40
0.231678379
 40
0.4718902368
 40
0.7269549458
 40
1.0
 40
1.0
 40
1.0
 40
1.0
 10
24.9622896113
 20
25.9884544807
 30
0.0
 10
24.9390825554
 20
25.9884544807
 30
0.0
 10
24.8915796119
 20
25.9816962078
 30
0.0
 10
24.8241323748
 20
25.9522505361
 30
0.0
 10
24.7626017728
 20
25.9049426781
 30
0.0
 10
24.7280805603
 20
25.8643396456
 30
0.0
 10
24.7122896113
 20
25.8420078713
 30
0.0
  0
LINE
  5
2D6
100
AcDbEntity
  8
0
100
AcDbLine
 62
7
  6
BYLAYER
 10
25.2828440183
 20
60.9831049567
 11
25.2829622004
 21
60.9936272532
  0
SPLINE
  5
2D7
100
AcDbEntity
  8
0
100
AcDbSpline
 62
7
  6
BYLAYER
 70
0
 71
3
 72
10
 73
6
 74
0
 42
0.0000001
 43
0.0000001
 44
0.0000000001
 40
0.0
 40
0.0
 40
0.0
 40
0.0
 40
0.4808295898
 40
0.7380107386
 40
1.0
 40
1.0
 40
1.0
 40
1.0
 10
22.7478297041
 20
23.0638422006
 30
0.0
 10
22.6373444966
 20
22.9075925321
 30
0.0
 10
22.5133796043
 20
22.6336205689
 30
0.0
 10
22.4308240482
 20
22.243791917
 30
0.0
 10
22.416458672
 20
22.0367402231
 30
0.0
 10
22.416458672
 20
21.9324707814
 30
0.0
  0
SPLINE
  5
2D8
100
AcDbEntity
  8
0
100
AcDbSpline
 62
7
  6
BYLAYER
 70
0
 71
3
 72
13
 73
9
 74
0
 42
0.0000001
 43
0.0000001
 44
0.0000000001
 40
0.0
 40
0.0
 40
0.0
 40
0.0
 40
0.2839218064
 40
0.549048649
 40
0.6716053071
 40
0.7869844261
 40
0.8959810837
 40
1.0
 40
1.0
 40
1.0
 40
1.0
 10
22.6779739369
 20
7.7879503304
 30
0.0
 10
22.6803223637
 20
7.7301363231
 30
0.0
 10
22.6983599507
 20
7.6184054528
 30
0.0
 10
22.7552664542
 20
7.4916162974
 30
0.0
 10
22.8189220464
 20
7.4106641505
 30
0.0
 10
22.8722540382
 20
7.3635481805
 30
0.0
 10
22.9309064226
 20
7.3302960784
 30
0.0
 10
22.9729863589
 20
7.3178000025
 30
0.0
 10
22.9939047377
 20
7.3143653506
 30
0.0
  0
SPLINE
  5
2D9
100
AcDbEntity
  8
0
100
AcDbSpline
 62
7
  6
BYLAYER
 70
0
 71
3
 72
12
 73
8
 74
0
 42
0.0000001
 43
0.0000001
 44
0.0000000001
 40
0.0
 40
0.0
 40
0.0
 40
0.0
 40
0.240705215
 40
0.4665057585
 40
0.5831633125
 40
0.7086218086
 40
1.0
 40
1.0
 40
1.0
 40
1.0
 10
37.1262149286
 20
76.3816540138
 30
0.0
 10
37.1262149286
 20
76.3641310951
 30
0.0
 10
37.1222633904
 20
76.3297743627
 30
0.0
 10
37.1010697209
 20
76.2912964183
 30
0.0
 10
37.0748502696
 20
76.2690309475
 30
0.0
 10
37.0398097862
 20
76.2515662886
 30
0.0
 10
37.00881289
 20
76.2474544808
 30
0.0
 10
36.9876010673
 20
76.2474544808
 30
0.0
  0
SPLINE
  5
2DA
100
AcDbEntity
  8
0
100
AcDbSpline
 62
7
  6
BYLAYER
 70
0
 71
3
 72
12
 73
8
 74
0
 42
0.0000001
 43
0.0000001
 44
0.0000000001
 40
0.0
 40
0.0
 40
0.0
 40
0.0
 40
0.2913971469
 40
0.4168980475
 40
0.5335479862
 40
0.7593310798
 40
1.0
 40
1.0
 40
1.0
 40
1.0
 10
23.26482879
 20
76.2474544808
 30
0.0
 10
23.2436155982
 20
76.2474544808
 30
0.0
 10
23.2126179902
 20
76.2515789948
 30
0.0
 10
23.177567654
 20
76.2690321364
 30
0.0
 10
23.1513492165
 20
76.2913029489
 30
0.0
 10
23.1301703627
 20
76.3297822992
 30
0.0
 10
23.1262149631
 20
76.3641333868
 30
0.0
 10
23.1262149286
 20
76.3816536543
 30
0.0
  0
LINE
  5
2DB
100
AcDbEntity
  8
0
100
AcDbLine
 62
7
  6
BYLAYER
 10
34.9694676569
 20
60.9936272532
 11
34.969585839
 21
60.9831049567
  0
SPLINE
  5
2DC
100
AcDbEntity
  8
0
100
AcDbSpline
 62
7
  6
BYLAYER
 70
0
 71
3
 72
11
 73
7
 74
0
 42
0.0000001
 43
0.0000001
 44
0.0000000001
 40
0.0
 40
0.0
 40
0.0
 40
0.0
 40
0.1301854803
 40
0.2599336268
 40
0.5162579097
 40
1.0
 40
1.0
 40
1.0
 40
1.0
 10
20.2997201105
 20
74.745272585
 30
0.0
 10
20.2879173353
 20
74.7536046171
 30
0.0
 10
20.2640734195
 20
74.7698428546
 30
0.0
 10
20.2173190668
 20
74.8029592721
 30
0.0
 10
20.1379707754
 20
74.8579043908
 30
0.0
 10
20.0695447892
 20
74.9034731423
 30
0.0
 10
20.023339131
 20
74.9308039007
 30
0.0
  0
SPLINE
  5
2DD
100
AcDbEntity
  8
0
100
AcDbSpline
 62
7
  6
BYLAYER
 70
0
 71
3
 72
9
 73
5
 74
0
 42
0.0000001
 43
0.0000001
 44
0.0000000001
 40
0.0
 40
0.0
 40
0.0
 40
0.0
 40
0.2601137736
 40
1.0
 40
1.0
 40
1.0
 40
1.0
 10
18.8241160925
 20
32.3099479726
 30
0.0
 10
18.8246448895
 20
32.2941071039
 30
0.0
 10
18.830220067
 20
32.2334408907
 30
0.0
 10
18.8494927358
 20
32.173542758
 30
0.0
 10
18.8722657999
 20
32.1346331897
 30
0.0
  0
SPLINE
  5
2DE
100
AcDbEntity
  8
0
100
AcDbSpline
 62
7
  6
BYLAYER
 70
0
 71
3
 72
9
 73
5
 74
0
 42
0.0000001
 43
0.0000001
 44
0.0000000001
 40
0.0
 40
0.0
 40
0.0
 40
0.0
 40
0.5296312214
 40
1.0
 40
1.0
 40
1.0
 40
1.0
 10
18.8722657999
 20
32.1346331897
 30
0.0
 10
18.8878076626
 20
32.1080786968
 30
0.0
 10
18.9251886896
 20
32.061729099
 30
0.0
 10
18.9786924449
 20
32.0339809064
 30
0.0
 10
19.0052470217
 20
32.0275357357
 30
0.0
  0
SPLINE
  5
2DF
100
AcDbEntity
  8
0
100
AcDbSpline
 62
7
  6
BYLAYER
 70
0
 71
3
 72
11
 73
7
 74
0
 42
0.0000001
 43
0.0000001
 44
0.0000000001
 40
0.0
 40
0.0
 40
0.0
 40
0.0
 40
0.2741168587
 40
0.5269943672
 40
0.7666211219
 40
1.0
 40
1.0
 40
1.0
 40
1.0
 10
40.2291500297
 20
74.9308039007
 30
0.0
 10
40.2665986938
 20
74.9555479007
 30
0.0
 10
40.3323152626
 20
75.0134236894
 30
0.0
 10
40.4028769626
 20
75.1187202355
 30
0.0
 10
40.4437661808
 20
75.2314756374
 30
0.0
 10
40.4527216575
 20
75.309213232
 30
0.0
 10
40.4527216575
 20
75.3474276759
 30
0.0
  0
SPLINE
  5
2E0
100
AcDbEntity
  8
0
100
AcDbSpline
 62
7
  6
BYLAYER
 70
0
 71
3
 72
11
 73
7
 74
0
 42
0.0000001
 43
0.0000001
 44
0.0000000001
 40
0.0
 40
0.0
 40
0.0
 40
0.0
 40
0.2501077458
 40
0.5001445589
 40
0.7501128461
 40
1.0
 40
1.0
 40
1.0
 40
1.0
 10
19.0923434744
 20
32.0063755886
 30
0.0
 10
19.3914782364
 20
31.9337742629
 30
0.0
 10
19.9896355557
 20
31.7884775286
 30
0.0
 10
20.8874312029
 20
31.5733943756
 30
0.0
 10
21.7854443684
 20
31.3604020879
 30
0.0
 10
22.3843280001
 20
31.2196684027
 30
0.0
 10
22.6839429928
 20
31.1502684963
 30
0.0
  0
SPLINE
  5
2E1
100
AcDbEntity
  8
0
100
AcDbSpline
 62
7
  6
BYLAYER
 70
0
 71
3
 72
9
 73
5
 74
0
 42
0.0000001
 43
0.0000001
 44
0.0000000001
 40
0.0
 40
0.0
 40
0.0
 40
0.0
 40
0.4956245074
 40
1.0
 40
1.0
 40
1.0
 40
1.0
 10
35.0253690438
 20
61.1822947829
 30
0.0
 10
35.0080784746
 20
61.1543894121
 30
0.0
 10
34.979725427
 20
61.0936306506
 30
0.0
 10
34.9694676569
 20
61.0270348169
 30
0.0
 10
34.9694676569
 20
60.9936272532
 30
0.0
  0
SPLINE
  5
2E2
100
AcDbEntity
  8
0
100
AcDbSpline
 62
7
  6
BYLAYER
 70
0
 71
3
 72
13
 73
9
 74
0
 42
0.0000001
 43
0.0000001
 44
0.0000000001
 40
0.0
 40
0.0
 40
0.0
 40
0.0
 40
0.235257391
 40
0.4837744739
 40
0.6112368283
 40
0.7400798599
 40
0.8698241862
 40
1.0
 40
1.0
 40
1.0
 40
1.0
 10
40.2290388763
 20
74.9308039007
 30
0.0
 10
40.2065657489
 20
74.9175639415
 30
0.0
 10
40.1612358607
 20
74.8888499233
 30
0.0
 10
40.1049573495
 20
74.8510984031
 30
0.0
 10
40.0588097245
 20
74.8194240409
 30
0.0
 10
40.0238790101
 20
74.7946872453
 30
0.0
 10
39.9884434678
 20
74.7701478063
 30
0.0
 10
39.9645396428
 20
74.7540472792
 30
0.0
 10
39.9527490569
 20
74.7457234197
 30
0.0
  0
ELLIPSE
  5
2E3
100
AcDbEntity
  8
0
100
AcDbEllipse
 62
7
  6
BYLAYER
 10
24.8283443877
 20
92.7861050814
 30
0.0
 11
0.0
 21
28.7445147379
 31
0.0
 40
0.0174550649
 41
-4.2140612684
 42
-4.1658840692
  0
ELLIPSE
  5
2E4
100
AcDbEntity
  8
0
100
AcDbEllipse
 62
7
  6
BYLAYER
 10
30.1262149286
 20
45.7484544807
 30
0.0
 11
-0.0
 21
162.8571428998
 31
0.0
 40
0.0875
 41
1.4896546856
 42
1.4970452765
  0
ELLIPSE
  5
2E5
100
AcDbEntity
  8
0
100
AcDbEllipse
 62
7
  6
BYLAYER
 10
30.1262149286
 20
45.7484544807
 30
0.0
 11
-0.0
 21
162.8571428998
 31
0.0
 40
0.0875
 41
-1.4970452765
 42
-1.4896546856
  0
ELLIPSE
  5
2E6
100
AcDbEntity
  8
0
100
AcDbEllipse
 62
7
  6
BYLAYER
 10
30.1262149286
 20
-139.854399716
 30
0.0
 11
-0.0
 21
509.8806585133
 31
0.0
 40
0.0174550649
 41
1.1270568421
 42
1.1296610962
  0
ELLIPSE
  5
2E7
100
AcDbEntity
  8
0
100
AcDbEllipse
 62
7
  6
BYLAYER
 10
35.4240763167
 20
92.7863346552
 30
0.0
 11
0.0
 21
28.7450394449
 31
0.0
 40
0.0174550649
 41
-2.1172994822
 42
-2.0691231986
  0
ELLIPSE
  5
2E8
100
AcDbEntity
  8
0
100
AcDbEllipse
 62
7
  6
BYLAYER
 10
30.1236612014
 20
71.6488634481
 30
0.0
 11
10.9971135921
 21
0.0
 31
0.0
 40
1.0
 41
2.5427871874
 42
2.7815134241
  0
ELLIPSE
  5
2E9
100
AcDbEntity
  8
0
100
AcDbEllipse
 62
7
  6
BYLAYER
 10
39.9527484609
 20
75.3474276759
 30
0.0
 11
0.4999731966
 21
-0.0
 31
0.0
 40
1.0
 41
0.0
 42
0.2182628097
  0
ELLIPSE
  5
2EA
100
AcDbEntity
  8
0
100
AcDbEllipse
 62
7
  6
BYLAYER
 10
30.1236612014
 20
71.6488634481
 30
0.0
 11
10.9971135921
 21
0.0
 31
0.0
 40
1.0
 41
0.3534812045
 42
0.5988054662
  0
ELLIPSE
  5
2EB
100
AcDbEntity
  8
0
100
AcDbEllipse
 62
7
  6
BYLAYER
 10
30.1262149286
 20
-139.854399716
 30
0.0
 11
-0.0
 21
509.8806585133
 31
0.0
 40
0.0174550649
 41
-1.1296610962
 42
-1.1270568421
  0
ELLIPSE
  5
2EC
100
AcDbEntity
  8
0
100
AcDbEllipse
 62
7
  6
BYLAYER
 10
30.1262149286
 20
421.5872242632
 30
0.0
 11
-0.0
 21
509.8806585107
 31
0.0
 40
0.0174550649
 41
-3.9757476901
 42
-3.9725658298
  0
ELLIPSE
  5
2ED
100
AcDbEntity
  8
0
100
AcDbEllipse
 62
7
  6
BYLAYER
 10
20.2997563375
 20
75.3474795356
 30
0.0
 11
0.5000250562
 21
-0.0
 31
0.0
 40
1.0
 41
9.0646643648
 42
10.4098456489
  0
ELLIPSE
  5
2EE
100
AcDbEntity
  8
0
100
AcDbEllipse
 62
7
  6
BYLAYER
 10
30.1262149286
 20
421.5872242632
 30
0.0
 11
-0.0
 21
509.8806585107
 31
0.0
 40
0.0174550649
 41
-2.3106194774
 42
-2.3074376171
  0
ENDSEC
  0
SECTION
  2
OBJECTS
  0
DICTIONARY
  5
C
100
AcDbDictionary
280
0
281
1
  3
ACAD_GROUP
350
D
  3
ACAD_MLINESTYLE
350
17
  3
ACAD_LAYOUT
350
1A
  3
ACAD_PLOTSETTINGS
350
19
  3
ACAD_PLOTSTYLENAME
350
E
  0
DICTIONARY
  5
D
102
{ACAD_REACTORS
330
C
102
}
100
AcDbDictionary
280
0
281
1
  0
ACDBDICTIONARYWDFLT
  5
E
102
{ACAD_REACTORS
330
C
102
}
100
AcDbDictionary
281
1
  3
Normal
350
F
100
AcDbDictionaryWithDefault
340
F
  0
DICTIONARY
  5
17
102
{ACAD_REACTORS
330
C
102
}
100
AcDbDictionary
280
0
281
1
  3
Standard
350
18
  0
DICTIONARY
  5
19
102
{ACAD_REACTORS
330
C
102
}
100
AcDbDictionary
281
1
  0
DICTIONARY
  5
1A
102
{ACAD_REACTORS
330
C
102
}
100
AcDbDictionary
281
1
  3
Model
350
2EF
  3
Layout1
350
2F0
  0
ACDBPLACEHOLDER
  5
F
102
{ACAD_REACTORS
330
E
102
}
  0
MLINESTYLE
  5
18
102
{ACAD_REACTORS
330
17
102
}
100
AcDbMlineStyle
  2
STANDARD
 70
0
  3

 62
256
 51
90.0
 52
90.0
 71
2
 49
0.5
 62
256
  6
BYLAYER
 49
-0.5
 62
256
  6
BYLAYER
  0
LAYOUT
  5
2EF
102
{ACAD_REACTORS
330
1A
102
}
100
AcDbPlotSettings
  1

  2
none_device
  4

  6

 40
0.0
 41
0.0
 42
0.0
 43
0.0
 44
210.0
 45
297.0
 46
0.0
 47
0.0
 48
0.0
 49
0.0
140
0.0
141
0.0
142
1.0
143
1.0
 70
1024
 72
1
 73
0
 74
0
  7

 75
0
147
1.0
148
0.0
149
0.0
100
AcDbLayout
  1
Model
 70
0
 71
0
 10
0.0
 20
0.0
 11
210.0
 21
297.0
 12
0.0
 22
0.0
 32
0.0
 14
0.0
 24
0.0
 34
0.0
 15
0.0
 25
0.0
 35
0.0
146
0.0
 13
0.0
 23
0.0
 33
0.0
 16
1.0
 26
0.0
 36
0.0
 17
0.0
 27
1.0
 37
0.0
 76
0
330
210
345
0
346
0
  0
LAYOUT
  5
2F0
102
{ACAD_REACTORS
330
1A
102
}
100
AcDbPlotSettings
  1

  2
none_device
  4

  6

 40
0.0
 41
0.0
 42
0.0
 43
0.0
 44
210.0
 45
297.0
 46
0.0
 47
0.0
 48
0.0
 49
0.0
140
0.0
141
0.0
142
1.0
143
1.0
 70
0
 72
1
 73
0
 74
0
  7

 75
0
147
1.0
148
0.0
149
0.0
100
AcDbLayout
  1
Layout1
 70
0
 71
1
 10
0.0
 20
0.0
 11
210.0
 21
297.0
 12
0.0
 22
0.0
 32
0.0
 14
0.0
 24
0.0
 34
0.0
 15
0.0
 25
0.0
 35
0.0
146
0.0
 13
0.0
 23
0.0
 33
0.0
 16
1.0
 26
0.0
 36
0.0
 17
0.0
 27
1.0
 37
0.0
 76
0
330
211
345
0
346
0
  0
ENDSEC
  0
EOF
