999
DXF file: C:\Users\sesa63760\Dev\_Creo\CAD\MCADID0000490_3D-CAD\drw0001_5.dxf
999
Pro/ENGINEER 2019471 by Parametric Technology Corporation
  0
SECTION
  2
HEADER
  9
$ACADVER
  1
AC1024
  9
$DWGCODEPAGE
  3
ANSI_1252
  9
$EXTMAX
 10
1086.044435836
 20
1535.9771306824
 30
0.0
  9
$EXTMIN
 10
0.0
 20
0.0
 30
0.0
  9
$LIMMIN
 10
0.0
 20
0.0
  9
$LIMMAX
 10
1086.044435836
 20
1535.9771306824
  9
$VIEWCTR
 10
543.022217918
 20
767.9885653412
  9
$VIEWSIZE
 40
1535.9771306824
  9
$CLAYER
  8
0
  9
$LTSCALE
 40
100.1229537037
  9
$CELTYPE
  6
BYLAYER
  9
$DIMSCALE
 40
1.0
  9
$DIMASZ
 40
12.9291004266
  9
$DIMEXO
 40
1.0
  9
$DIMDLI
 40
69.1758589226
  9
$DIMEXE
 40
1.0
  9
$DIMCEN
 40
16.3837560606
  9
$DIMLFAC
 40
1.0
  9
$DIMBLK
  1
_FILLED
  9
$DIMALT
 70
0
  9
$DIMALTF
 40
0.0393700787
  9
$DIMTXT
 40
18.1007405973
  9
$DIMTOL
 70
1
  9
$DIMLIM
 70
0
  9
$DIMTFAC
 40
1.0
  9
$DIMTP
 40
0.01
  9
$DIMTM
 40
0.01
  9
$DIMGAP
 40
0.625
  9
$DIMDSEP
 70
46
  9
$AUNITS
 70
0
  9
$PDMODE
 70
3
  9
$PDSIZE
 40
0.3125
  9
$HANDSEED
  5
795
  9
$TILEMODE
 70
1
  9
$MEASUREMENT
 70
1
  9
$INSUNITS
 70
4
  0
ENDSEC
  0
SECTION
  2
CLASSES
  0
CLASS
  1
ACDBDICTIONARYWDFLT
  2
AcDbDictionaryWithDefault
  3
AutoCAD 2000
 90
0
 91
1
280
0
281
0
  0
CLASS
  1
ACDBPLACEHOLDER
  2
AcDbPlaceHolder
  3
AutoCAD 2000
 90
0
 91
1
280
0
281
0
  0
CLASS
  1
LAYOUT
  2
AcDbLayout
  3
AutoCAD 2000
 90
0
 91
0
280
0
281
0
  0
ENDSEC
  0
SECTION
  2
TABLES
  0
TABLE
  2
VPORT
  5
8
100
AcDbSymbolTable
 70
2
  0
VPORT
  5
1F4
100
AcDbSymbolTableRecord
100
AcDbViewportTableRecord
  2
*ACTIVE
 70
0
 10
0.0
 20
0.0
 11
1.0
 21
1.0
 12
543.022217918
 22
767.9885653412
 13
0.0
 23
0.0
 14
1.0
 24
1.0
 15
0.0
 25
0.0
 16
0.0
 26
0.0
 36
1.0
 17
0.0
 27
0.0
 37
0.0
 40
1535.9771306824
 41
0.7070707071
 42
50.0
 43
0.0
 44
0.0
 50
0.0
 51
0.0
 71
0
 72
100
 73
1
 74
1
 75
0
 76
0
 77
0
 78
0
  0
ENDTAB
  0
TABLE
  2
LTYPE
  5
5
100
AcDbSymbolTable
 70
6
  0
LTYPE
  5
14
100
AcDbSymbolTableRecord
100
AcDbLinetypeTableRecord
  2
BYBLOCK
 70
0
  3

 72
65
 73
0
 40
0.0
  0
LTYPE
  5
15
100
AcDbSymbolTableRecord
100
AcDbLinetypeTableRecord
  2
BYLAYER
 70
0
  3

 72
65
 73
0
 40
0.0
  0
LTYPE
  5
16
100
AcDbSymbolTableRecord
100
AcDbLinetypeTableRecord
  2
CONTINUOUS
 70
64
  3
Solid line
 72
65
 73
0
 40
0.0
  0
LTYPE
  5
1F5
100
AcDbSymbolTableRecord
100
AcDbLinetypeTableRecord
  2
CENTER
 70
64
  3
____ _ ____ _ ____ _ ____ _ ____ _ ____ _ ____
 72
65
 73
4
 40
0.6
 49
0.375
 74
0
 49
-0.075
 74
0
 49
0.075
 74
0
 49
-0.075
 74
0
  0
LTYPE
  5
1F6
100
AcDbSymbolTableRecord
100
AcDbLinetypeTableRecord
  2
HIDDEN
 70
64
  3
- - - - - - - - - - - - - - - - - - - -
 72
65
 73
2
 40
0.2
 49
0.1
 74
0
 49
-0.1
 74
0
  0
LTYPE
  5
1F7
100
AcDbSymbolTableRecord
100
AcDbLinetypeTableRecord
  2
PHANTOM
 70
64
  3
_____ _ _ _____ _ _ _____ _ _ _____
 72
65
 73
6
 40
0.8
 49
0.45
 74
0
 49
-0.05
 74
0
 49
0.1
 74
0
 49
-0.05
 74
0
 49
0.1
 74
0
 49
-0.05
 74
0
  0
LTYPE
  5
1F8
100
AcDbSymbolTableRecord
100
AcDbLinetypeTableRecord
  2
DOT
 70
64
  3
. . . . . . . . . . . . . . . . . . . .
 72
65
 73
2
 40
0.2
 49
0.1
 74
0
 49
-0.1
 74
0
  0
LTYPE
  5
1F9
100
AcDbSymbolTableRecord
100
AcDbLinetypeTableRecord
  2
DASHED
 70
64
  3
- - - - - - - - - - - - - - - - - - - -
 72
65
 73
2
 40
0.2
 49
0.1
 74
0
 49
-0.1
 74
0
  0
ENDTAB
  0
TABLE
  2
LAYER
  5
2
100
AcDbSymbolTable
 70
36
  0
LAYER
  5
10
100
AcDbSymbolTableRecord
100
AcDbLayerTableRecord
  2
0
 70
0
 62
7
  6
CONTINUOUS
370
-3
390
F
  0
LAYER
  5
1FA
100
AcDbSymbolTableRecord
100
AcDbLayerTableRecord
  2
DEFAULT_1
 70
0
 62
7
  6
CENTER
370
-3
390
F
  0
LAYER
  5
1FB
100
AcDbSymbolTableRecord
100
AcDbLayerTableRecord
  2
DEFAULT_2
 70
0
 62
8
  6
HIDDEN
370
-3
390
F
  0
LAYER
  5
1FC
100
AcDbSymbolTableRecord
100
AcDbLayerTableRecord
  2
DEFAULT_3
 70
0
 62
7
  6
PHANTOM
370
-3
390
F
  0
LAYER
  5
1FD
100
AcDbSymbolTableRecord
100
AcDbLayerTableRecord
  2
00_COMPONENTS
 70
0
 62
7
  6
CONTINUOUS
370
-3
390
F
  0
LAYER
  5
1FE
100
AcDbSymbolTableRecord
100
AcDbLayerTableRecord
  2
01_1_DEFAULT_DATUMS
 70
0
 62
7
  6
CONTINUOUS
370
-3
390
F
  0
LAYER
  5
1FF
100
AcDbSymbolTableRecord
100
AcDbLayerTableRecord
  2
01_PLANES
 70
0
 62
7
  6
CONTINUOUS
370
-3
390
F
  0
LAYER
  5
200
100
AcDbSymbolTableRecord
100
AcDbLayerTableRecord
  2
02_COORD_SYS
 70
0
 62
7
  6
CONTINUOUS
370
-3
390
F
  0
LAYER
  5
201
100
AcDbSymbolTableRecord
100
AcDbLayerTableRecord
  2
03_AXES
 70
0
 62
7
  6
CONTINUOUS
370
-3
390
F
  0
LAYER
  5
202
100
AcDbSymbolTableRecord
100
AcDbLayerTableRecord
  2
04_POINTS
 70
0
 62
7
  6
CONTINUOUS
370
-3
390
F
  0
LAYER
  5
203
100
AcDbSymbolTableRecord
100
AcDbLayerTableRecord
  2
05_CURVES
 70
0
 62
7
  6
CONTINUOUS
370
-3
390
F
  0
LAYER
  5
204
100
AcDbSymbolTableRecord
100
AcDbLayerTableRecord
  2
06_SURFS
 70
0
 62
7
  6
CONTINUOUS
370
-3
390
F
  0
LAYER
  5
205
100
AcDbSymbolTableRecord
100
AcDbLayerTableRecord
  2
07_COSMETICS
 70
0
 62
7
  6
CONTINUOUS
370
-3
390
F
  0
LAYER
  5
206
100
AcDbSymbolTableRecord
100
AcDbLayerTableRecord
  2
10_NOTES
 70
0
 62
7
  6
CONTINUOUS
370
-3
390
F
  0
LAYER
  5
207
100
AcDbSymbolTableRecord
100
AcDbLayerTableRecord
  2
11_NOTES_PUB
 70
0
 62
7
  6
CONTINUOUS
370
-3
390
F
  0
LAYER
  5
208
100
AcDbSymbolTableRecord
100
AcDbLayerTableRecord
  2
13_REF_GTOL
 70
0
 62
7
  6
CONTINUOUS
370
-3
390
F
  0
LAYER
  5
209
100
AcDbSymbolTableRecord
100
AcDbLayerTableRecord
  2
16_MISC
 70
0
 62
7
  6
CONTINUOUS
370
-3
390
F
  0
LAYER
  5
20A
100
AcDbSymbolTableRecord
100
AcDbLayerTableRecord
  2
17_NO_PRINT
 70
0
 62
7
  6
CONTINUOUS
370
-3
390
F
  0
LAYER
  5
20B
100
AcDbSymbolTableRecord
100
AcDbLayerTableRecord
  2
18_DATUM_CAMS_JOINTS
 70
0
 62
7
  6
CONTINUOUS
370
-3
390
F
  0
LAYER
  5
20C
100
AcDbSymbolTableRecord
100
AcDbLayerTableRecord
  2
19_DATUM_FUNCTIONAL
 70
0
 62
7
  6
CONTINUOUS
370
-3
390
F
  0
LAYER
  5
20D
100
AcDbSymbolTableRecord
100
AcDbLayerTableRecord
  2
20_DATUM_KINEMATIC_SCHEME
 70
0
 62
7
  6
CONTINUOUS
370
-3
390
F
  0
ENDTAB
  0
TABLE
  2
STYLE
  5
3
100
AcDbSymbolTable
 70
1
  0
STYLE
  5
11
100
AcDbSymbolTableRecord
100
AcDbTextStyleTableRecord
  2
STANDARD
 70
0
 40
0.0
 41
0.8
 50
0.0
 71
0
 42
0.2
  3
txt
  4

  0
STYLE
  5
20E
100
AcDbSymbolTableRecord
100
AcDbTextStyleTableRecord
  2
TEXTSTYLE_1
 70
0
 40
0.0
 41
0.8
 50
0.0
 71
0
 42
0.2
  3
gdt
  4

  0
ENDTAB
  0
TABLE
  2
VIEW
  5
6
100
AcDbSymbolTable
 70
0
  0
ENDTAB
  0
TABLE
  2
UCS
  5
7
100
AcDbSymbolTable
 70
0
  0
ENDTAB
  0
TABLE
  2
APPID
  5
9
100
AcDbSymbolTable
 70
1
  0
APPID
  5
20F
100
AcDbSymbolTableRecord
100
AcDbRegAppTableRecord
  2
ACAD
 70
0
  0
ENDTAB
  0
TABLE
  2
BLOCK_RECORD
  5
1
100
AcDbSymbolTable
 70
0
  0
BLOCK_RECORD
  5
210
100
AcDbSymbolTableRecord
100
AcDbBlockTableRecord
  2
*Model_Space
  0
BLOCK_RECORD
  5
211
100
AcDbSymbolTableRecord
100
AcDbBlockTableRecord
  2
*Paper_Space
  0
BLOCK_RECORD
  5
212
100
AcDbSymbolTableRecord
100
AcDbBlockTableRecord
  2
_FILLED
  0
ENDTAB
  0
TABLE
  2
DIMSTYLE
  5
A
100
AcDbSymbolTable
 70
1
100
AcDbDimStyleTable
 71
0
  0
DIMSTYLE
105
213
100
AcDbSymbolTableRecord
100
AcDbDimStyleTableRecord
  2
STANDARD
 70
0
  3

  4

 40
1.0
 41
12.9291004266
 42
1.0
 43
0.38
 44
1.0
 45
0.0
 46
0.0
 47
0.01
 48
0.01
140
18.1007405973
141
0.09
142
0.0
143
25.4
144
1.0
145
0.0
146
1.0
147
0.625
 71
1
 72
0
 73
0
 74
0
 75
0
 76
0
 77
1
 78
8
 79
2
170
0
171
1
172
0
173
0
174
0
175
0
176
0
177
0
178
0
270
2
179
2
271
2
272
2
273
2
274
2
275
0
280
0
281
0
282
0
283
1
284
8
285
0
286
0
287
3
288
0
340
11
278
46
341
212
342
212
343
212
344
212
  0
ENDTAB
  0
ENDSEC
  0
SECTION
  2
BLOCKS
  0
BLOCK
  5
20
100
AcDbEntity
  8
0
100
AcDbBlockBegin
  2
*Model_Space
 70
0
 10
0.0
 20
0.0
 30
0.0
  3
*Model_Space
  1

  0
ENDBLK
  5
21
100
AcDbEntity
  8
0
100
AcDbBlockEnd
  0
BLOCK
  5
1C
100
AcDbEntity
  8
0
100
AcDbBlockBegin
  2
*Paper_Space
 70
0
 10
0.0
 20
0.0
 30
0.0
  3
*Paper_Space
  1

  0
ENDBLK
  5
1D
100
AcDbEntity
  8
0
100
AcDbBlockEnd
  0
BLOCK
  5
214
100
AcDbEntity
  8
0
100
AcDbBlockBegin
  2
_FILLED
 70
64
 10
0.0
 20
0.0
  3
_FILLED
  1

  0
SOLID
  5
215
100
AcDbEntity
  8
0
  6
BYBLOCK
 62
0
100
AcDbTrace
 10
0.0
 20
0.0
 11
-1.0
 21
0.25
 12
-1.0
 22
-0.25
 13
-1.0
 23
-0.25
  0
ENDBLK
  5
216
100
AcDbEntity
  8
0
  6
BYBLOCK
 62
0
100
AcDbBlockEnd
  0
ENDSEC
  0
SECTION
  2
ENTITIES
  0
LINE
  5
217
100
AcDbEntity
  8
0
100
AcDbLine
 62
7
  6
CONTINUOUS
 10
582.2656695579
 20
125.0213946428
 11
589.0656663037
 21
125.61631727
  0
LINE
  5
218
100
AcDbEntity
  8
0
100
AcDbLine
 62
7
  6
CONTINUOUS
 10
589.3395195787
 20
127.092860217
 11
589.9895195787
 21
127.092860217
  0
LINE
  5
219
100
AcDbEntity
  8
0
100
AcDbLine
 62
7
  6
CONTINUOUS
 10
590.2895195787
 20
127.992860217
 11
590.6375195787
 21
127.992860217
  0
LINE
  5
21A
100
AcDbEntity
  8
0
100
AcDbLine
 62
7
  6
CONTINUOUS
 10
575.881226675
 20
170.2049549616
 11
573.9193295769
 21
170.0333120624
  0
LINE
  5
21B
100
AcDbEntity
  8
0
100
AcDbLine
 62
7
  6
CONTINUOUS
 10
577.1124244271
 20
172.1025235605
 11
576.5007032184
 21
172.0490048858
  0
LINE
  5
21C
100
AcDbEntity
  8
0
100
AcDbLine
 62
7
  6
CONTINUOUS
 10
554.6395195787
 20
160.1234968022
 11
554.0309686754
 21
160.1128745067
  0
LINE
  5
21D
100
AcDbEntity
  8
0
100
AcDbLine
 62
7
  6
CONTINUOUS
 10
554.6395195811
 20
161.1230399573
 11
553.8439741728
 21
161.1091536606
  0
LINE
  5
21E
100
AcDbEntity
  8
0
100
AcDbLine
 62
7
  6
CONTINUOUS
 10
590.2895195787
 20
132.642860217
 11
581.9395195787
 21
132.642860217
  0
LINE
  5
21F
100
AcDbEntity
  8
0
100
AcDbLine
 62
7
  6
CONTINUOUS
 10
590.6375195787
 20
132.992860217
 11
590.2895195787
 21
132.992860217
  0
LINE
  5
220
100
AcDbEntity
  8
0
100
AcDbLine
 62
7
  6
CONTINUOUS
 10
567.0395225869
 20
134.492860217
 11
563.5395195787
 21
134.492860217
  0
LINE
  5
221
100
AcDbEntity
  8
0
100
AcDbLine
 62
7
  6
CONTINUOUS
 10
562.7395195787
 20
134.592860217
 11
561.9395195787
 21
134.592860217
  0
LINE
  5
222
100
AcDbEntity
  8
0
100
AcDbLine
 62
7
  6
CONTINUOUS
 10
553.5395195787
 20
134.592860217
 11
554.6395195787
 21
134.592860217
  0
LINE
  5
223
100
AcDbEntity
  8
0
100
AcDbLine
 62
7
  6
CONTINUOUS
 10
580.9395722383
 20
137.9635146624
 11
581.9394478871
 21
137.9635119555
  0
LINE
  5
224
100
AcDbEntity
  8
0
100
AcDbLine
 62
7
  6
CONTINUOUS
 10
558.6395195787
 20
138.7407281117
 11
558.1395195787
 21
138.7407281117
  0
LINE
  5
225
100
AcDbEntity
  8
0
100
AcDbLine
 62
7
  6
CONTINUOUS
 10
553.604620082
 20
138.9165507331
 11
552.6395195788
 21
138.9165507331
  0
LINE
  5
226
100
AcDbEntity
  8
0
100
AcDbLine
 62
7
  6
CONTINUOUS
 10
547.6395195787
 20
150.892860217
 11
552.6395195787
 21
150.892860217
  0
LINE
  5
227
100
AcDbEntity
  8
0
100
AcDbLine
 62
7
  6
CONTINUOUS
 10
548.1395195787
 20
151.392860217
 11
552.6395195787
 21
151.392860217
  0
LINE
  5
228
100
AcDbEntity
  8
0
100
AcDbLine
 62
7
  6
CONTINUOUS
 10
552.6395195787
 20
152.292860217
 11
547.6395195787
 21
152.292860217
  0
LINE
  5
229
100
AcDbEntity
  8
0
100
AcDbLine
 62
7
  6
CONTINUOUS
 10
590.2895195787
 20
152.692860217
 11
590.6375195787
 21
152.692860217
  0
LINE
  5
22A
100
AcDbEntity
  8
0
100
AcDbLine
 62
7
  6
CONTINUOUS
 10
590.6375195787
 20
153.692860217
 11
589.3395195787
 21
153.6428602174
  0
LINE
  5
22B
100
AcDbEntity
  8
0
100
AcDbLine
 62
7
  6
CONTINUOUS
 10
589.9895195787
 20
154.642860217
 11
589.3107079659
 21
154.642860217
  0
LINE
  5
22C
100
AcDbEntity
  8
0
100
AcDbLine
 62
7
  6
CONTINUOUS
 10
589.1795195772
 20
155.092860217
 11
590.3795195801
 21
155.092860217
  0
LINE
  5
22D
100
AcDbEntity
  8
0
100
AcDbLine
 62
7
  6
CONTINUOUS
 10
590.6795195787
 20
156.092860217
 11
589.1795195786
 21
156.0928602172
  0
LINE
  5
22E
100
AcDbEntity
  8
0
100
AcDbLine
 62
7
  6
CONTINUOUS
 10
562.1395195787
 20
160.492860217
 11
572.8395195787
 21
160.492860217
  0
LINE
  5
22F
100
AcDbEntity
  8
0
100
AcDbLine
 62
7
  6
CONTINUOUS
 10
563.5395195787
 20
161.392860217
 11
566.0395195787
 21
161.392860217
  0
LINE
  5
230
100
AcDbEntity
  8
0
100
AcDbLine
 62
7
  6
CONTINUOUS
 10
554.6395195787
 20
161.492860217
 11
553.5395195787
 21
161.492860217
  0
LINE
  5
231
100
AcDbEntity
  8
0
100
AcDbLine
 62
7
  6
CONTINUOUS
 10
561.9395195787
 20
161.492860217
 11
562.7395195787
 21
161.492860217
  0
LINE
  5
232
100
AcDbEntity
  8
0
100
AcDbLine
 62
7
  6
CONTINUOUS
 10
554.6395195787
 20
161.792860217
 11
558.1395195787
 21
161.7928602169
  0
LINE
  5
233
100
AcDbEntity
  8
0
100
AcDbLine
 62
7
  6
CONTINUOUS
 10
554.6395195787
 20
161.992860217
 11
558.1395195787
 21
161.992860217
  0
LINE
  5
234
100
AcDbEntity
  8
0
100
AcDbLine
 62
7
  6
CONTINUOUS
 10
561.9395195787
 20
162.492860217
 11
558.6395195787
 21
162.492860217
  0
LINE
  5
235
100
AcDbEntity
  8
0
100
AcDbLine
 62
7
  6
CONTINUOUS
 10
566.5395195787
 20
162.492860217
 11
573.0395195787
 21
162.492860217
  0
LINE
  5
236
100
AcDbEntity
  8
0
100
AcDbLine
 62
7
  6
CONTINUOUS
 10
557.6395195787
 20
162.742860217
 11
558.6395204642
 21
162.742860217
  0
LINE
  5
237
100
AcDbEntity
  8
0
100
AcDbLine
 62
7
  6
CONTINUOUS
 10
553.3395195787
 20
163.992860217
 11
552.5395195787
 21
163.992860217
  0
LINE
  5
238
100
AcDbEntity
  8
0
100
AcDbLine
 62
7
  6
CONTINUOUS
 10
566.5395195787
 20
164.492860217
 11
563.0395195787
 21
164.492860217
  0
LINE
  5
239
100
AcDbEntity
  8
0
100
AcDbLine
 62
7
  6
CONTINUOUS
 10
552.5395195787
 20
164.992860217
 11
553.3395195787
 21
164.992860217
  0
LINE
  5
23A
100
AcDbEntity
  8
0
100
AcDbLine
 62
7
  6
CONTINUOUS
 10
558.3781443177
 20
166.242860217
 11
557.6395195787
 21
166.242860217
  0
LINE
  5
23B
100
AcDbEntity
  8
0
100
AcDbLine
 62
7
  6
CONTINUOUS
 10
573.0395195787
 20
166.492860217
 11
566.5395195787
 21
166.492860217
  0
LINE
  5
23C
100
AcDbEntity
  8
0
100
AcDbLine
 62
7
  6
CONTINUOUS
 10
558.6395195787
 20
166.492860217
 11
561.9395195787
 21
166.492860217
  0
LINE
  5
23D
100
AcDbEntity
  8
0
100
AcDbLine
 62
7
  6
CONTINUOUS
 10
558.1395195787
 20
166.992860217
 11
554.6395195787
 21
166.992860217
  0
LINE
  5
23E
100
AcDbEntity
  8
0
100
AcDbLine
 62
7
  6
CONTINUOUS
 10
558.1395195787
 20
167.1928602171
 11
554.6395195787
 21
167.192860217
  0
LINE
  5
23F
100
AcDbEntity
  8
0
100
AcDbLine
 62
7
  6
CONTINUOUS
 10
576.8584379499
 20
167.492860217
 11
573.0395195818
 21
167.492860217
  0
LINE
  5
240
100
AcDbEntity
  8
0
100
AcDbLine
 62
7
  6
CONTINUOUS
 10
562.7395195787
 20
167.492860217
 11
561.9395195787
 21
167.492860217
  0
LINE
  5
241
100
AcDbEntity
  8
0
100
AcDbLine
 62
7
  6
CONTINUOUS
 10
553.5395195787
 20
167.492860217
 11
554.6395195787
 21
167.492860217
  0
LINE
  5
242
100
AcDbEntity
  8
0
100
AcDbLine
 62
7
  6
CONTINUOUS
 10
566.039519639
 20
167.592860217
 11
566.5395195787
 21
167.592860217
  0
LINE
  5
243
100
AcDbEntity
  8
0
100
AcDbLine
 62
7
  6
CONTINUOUS
 10
577.0530927254
 20
167.692860217
 11
576.8584379499
 21
167.692860217
  0
LINE
  5
244
100
AcDbEntity
  8
0
100
AcDbLine
 62
7
  6
CONTINUOUS
 10
551.0485297265
 20
167.692860217
 11
552.6395195787
 21
167.692860217
  0
LINE
  5
245
100
AcDbEntity
  8
0
100
AcDbLine
 62
7
  6
CONTINUOUS
 10
563.0395195787
 20
167.892860217
 11
562.1521110642
 21
167.892860217
  0
LINE
  5
246
100
AcDbEntity
  8
0
100
AcDbLine
 62
7
  6
CONTINUOUS
 10
573.6656186122
 20
168.092860217
 11
567.0395195787
 21
168.092860217
  0
LINE
  5
247
100
AcDbEntity
  8
0
100
AcDbLine
 62
7
  6
CONTINUOUS
 10
574.0395195787
 20
168.392860217
 11
573.2224375382
 21
168.392860217
  0
LINE
  5
248
100
AcDbEntity
  8
0
100
AcDbLine
 62
7
  6
CONTINUOUS
 10
567.0395225869
 20
168.5928600966
 11
573.1224375394
 21
168.592860217
  0
LINE
  5
249
100
AcDbEntity
  8
0
100
AcDbLine
 62
7
  6
CONTINUOUS
 10
563.0395195787
 20
169.092860217
 11
562.0381650555
 21
169.092860217
  0
LINE
  5
24A
100
AcDbEntity
  8
0
100
AcDbLine
 62
7
  6
CONTINUOUS
 10
562.0395195787
 20
169.492860217
 11
563.0395195787
 21
169.492860217
  0
LINE
  5
24B
100
AcDbEntity
  8
0
100
AcDbLine
 62
7
  6
CONTINUOUS
 10
573.9339524793
 20
169.792860217
 11
574.0395195787
 21
169.792860217
  0
LINE
  5
24C
100
AcDbEntity
  8
0
100
AcDbLine
 62
7
  6
CONTINUOUS
 10
573.6484722505
 20
170.092860217
 11
573.7395195787
 21
170.092860217
  0
LINE
  5
24D
100
AcDbEntity
  8
0
100
AcDbLine
 62
7
  6
CONTINUOUS
 10
576.0758796465
 20
170.2049621978
 11
575.8812270476
 21
170.2049616346
  0
LINE
  5
24E
100
AcDbEntity
  8
0
100
AcDbLine
 62
7
  6
CONTINUOUS
 10
563.0395195787
 20
171.592860217
 11
573.1224375394
 21
171.5928601036
  0
LINE
  5
24F
100
AcDbEntity
  8
0
100
AcDbLine
 62
7
  6
CONTINUOUS
 10
573.2224375394
 20
171.792860217
 11
573.2772434268
 21
171.792860217
  0
LINE
  5
250
100
AcDbEntity
  8
0
100
AcDbLine
 62
7
  6
CONTINUOUS
 10
573.0089152936
 20
172.092860217
 11
563.5395195787
 21
172.092860217
  0
LINE
  5
251
100
AcDbEntity
  8
0
100
AcDbLine
 62
7
  6
CONTINUOUS
 10
577.3852158626
 20
165.4921127669
 11
573.1053379039
 21
165.492860217
  0
LINE
  5
252
100
AcDbEntity
  8
0
100
AcDbLine
 62
7
  6
CONTINUOUS
 10
554.0322734881
 20
168.8715181404
 11
554.6395195787
 21
168.8639940143
  0
LINE
  5
253
100
AcDbEntity
  8
0
100
AcDbLine
 62
7
  6
CONTINUOUS
 10
553.8440110076
 20
167.8765661304
 11
554.6395195787
 21
167.8626804767
  0
LINE
  5
254
100
AcDbEntity
  8
0
100
AcDbLine
 62
7
  6
CONTINUOUS
 10
581.9394478871
 20
134.4428501355
 11
558.6395195787
 21
134.942860217
  0
LINE
  5
255
100
AcDbEntity
  8
0
100
AcDbLine
 62
7
  6
CONTINUOUS
 10
558.6395195787
 20
138.4420546229
 11
580.9395722098
 21
137.9635146624
  0
LINE
  5
256
100
AcDbEntity
  8
0
100
AcDbLine
 62
7
  6
CONTINUOUS
 10
547.6395195787
 20
136.5926778461
 11
549.1399933025
 21
136.5577464753
  0
LINE
  5
257
100
AcDbEntity
  8
0
100
AcDbLine
 62
7
  6
CONTINUOUS
 10
557.7567449657
 20
133.6736873858
 11
558.6395195787
 21
133.642860217
  0
LINE
  5
258
100
AcDbEntity
  8
0
100
AcDbLine
 62
7
  6
CONTINUOUS
 10
557.7672139441
 20
133.9734795346
 11
558.6395195787
 21
133.9430430803
  0
LINE
  5
259
100
AcDbEntity
  8
0
100
AcDbLine
 62
7
  6
CONTINUOUS
 10
558.1395195787
 20
135.2603206017
 11
553.604620082
 21
135.4186827817
  0
LINE
  5
25A
100
AcDbEntity
  8
0
100
AcDbLine
 62
7
  6
CONTINUOUS
 10
552.5719505335
 20
135.454744397
 11
548.6046059907
 21
135.5932871213
  0
LINE
  5
25B
100
AcDbEntity
  8
0
100
AcDbLine
 62
7
  6
CONTINUOUS
 10
549.1395941322
 20
136.557754773
 11
552.6062410052
 21
136.4366965973
  0
LINE
  5
25C
100
AcDbEntity
  8
0
100
AcDbLine
 62
7
  6
CONTINUOUS
 10
553.6046200055
 20
138.9165506612
 11
558.1395195787
 21
138.7581884965
  0
LINE
  5
25D
100
AcDbEntity
  8
0
100
AcDbLine
 62
7
  6
CONTINUOUS
 10
558.1395195787
 20
161.3512194443
 11
558.6395195787
 21
161.263055954
  0
LINE
  5
25E
100
AcDbEntity
  8
0
100
AcDbLine
 62
7
  6
CONTINUOUS
 10
572.157157669
 20
190.8149004268
 11
560.1218814885
 21
187.5900578936
  0
LINE
  5
25F
100
AcDbEntity
  8
0
100
AcDbLine
 62
7
  6
CONTINUOUS
 10
572.168554411
 20
191.1679541747
 11
560.1332788052
 21
187.9431117954
  0
LINE
  5
260
100
AcDbEntity
  8
0
100
AcDbLine
 62
7
  6
CONTINUOUS
 10
559.9929816427
 20
188.4231573742
 11
572.0277373672
 21
191.6478604547
  0
LINE
  5
261
100
AcDbEntity
  8
0
100
AcDbLine
 62
7
  6
CONTINUOUS
 10
558.1395195787
 20
167.6345009898
 11
558.6395195787
 21
167.7226644801
  0
LINE
  5
262
100
AcDbEntity
  8
0
100
AcDbLine
 62
7
  6
CONTINUOUS
 10
576.9003410331
 20
172.3017624913
 11
573.3760672817
 21
171.9934284909
  0
LINE
  5
263
100
AcDbEntity
  8
0
100
AcDbLine
 62
7
  6
CONTINUOUS
 10
562.9009277096
 20
171.0769725295
 11
562.1220883891
 21
171.0088329182
  0
LINE
  5
264
100
AcDbEntity
  8
0
100
AcDbLine
 62
7
  6
CONTINUOUS
 10
562.1395274375
 20
171.1479633562
 11
562.8889602076
 21
171.2135387243
  0
LINE
  5
265
100
AcDbEntity
  8
0
100
AcDbLine
 62
7
  6
CONTINUOUS
 10
573.3641037471
 20
172.1301137944
 11
577.0083067652
 21
172.4489815621
  0
LINE
  5
266
100
AcDbEntity
  8
0
100
AcDbLine
 62
7
  6
CONTINUOUS
 10
562.12208843
 20
172.5088329218
 11
577.3154589012
 21
173.8380805988
  0
LINE
  5
267
100
AcDbEntity
  8
0
100
AcDbLine
 62
7
  6
CONTINUOUS
 10
577.3001548572
 20
173.6224545619
 11
577.5395195663
 21
173.6398902867
  0
LINE
  5
268
100
AcDbEntity
  8
0
100
AcDbLine
 62
7
  6
CONTINUOUS
 10
566.4740201128
 20
197.7181668471
 11
553.60462201
 21
197.0434920741
  0
LINE
  5
269
100
AcDbEntity
  8
0
100
AcDbLine
 62
7
  6
CONTINUOUS
 10
553.1133837681
 20
197.5176943868
 11
566.46568503
 21
198.2174588443
  0
LINE
  5
26A
100
AcDbEntity
  8
0
100
AcDbLine
 62
7
  6
CONTINUOUS
 10
553.6395195787
 20
198.044579796
 11
553.1134862377
 21
198.0169956214
  0
LINE
  5
26B
100
AcDbEntity
  8
0
100
AcDbLine
 62
7
  6
CONTINUOUS
 10
566.4740201128
 20
205.7181668471
 11
553.6046222038
 21
205.0434920842
  0
LINE
  5
26C
100
AcDbEntity
  8
0
100
AcDbLine
 62
7
  6
CONTINUOUS
 10
553.1133837681
 20
205.5176943868
 11
566.46568503
 21
206.2174588443
  0
LINE
  5
26D
100
AcDbEntity
  8
0
100
AcDbLine
 62
7
  6
CONTINUOUS
 10
553.6395195787
 20
206.044579796
 11
553.1134862377
 21
206.0169956214
  0
LINE
  5
26E
100
AcDbEntity
  8
0
100
AcDbLine
 62
7
  6
CONTINUOUS
 10
550.6395195787
 20
209.613494061
 11
552.6395195787
 21
209.6833356
  0
LINE
  5
26F
100
AcDbEntity
  8
0
100
AcDbLine
 62
7
  6
CONTINUOUS
 10
552.6393905504
 20
198.0147362823
 11
553.1133972328
 21
198.0169956214
  0
LINE
  5
270
100
AcDbEntity
  8
0
100
AcDbLine
 62
7
  6
CONTINUOUS
 10
552.6393905504
 20
206.0147362823
 11
553.1133972328
 21
206.0169956214
  0
LINE
  5
271
100
AcDbEntity
  8
0
100
AcDbLine
 62
7
  6
CONTINUOUS
 10
551.6395195785
 20
208.192860217
 11
544.1299458245
 21
208.1880141147
  0
LINE
  5
272
100
AcDbEntity
  8
0
100
AcDbLine
 62
7
  6
CONTINUOUS
 10
551.0485297265
 20
173.292860217
 11
552.6395195787
 21
173.292860217
  0
LINE
  5
273
100
AcDbEntity
  8
0
100
AcDbLine
 62
7
  6
CONTINUOUS
 10
521.6395195787
 20
176.0294857929
 11
522.5871837425
 21
176.0294857929
  0
LINE
  5
274
100
AcDbEntity
  8
0
100
AcDbLine
 62
7
  6
CONTINUOUS
 10
558.639518025
 20
186.0082062613
 11
558.1395195787
 21
186.008206241
  0
LINE
  5
275
100
AcDbEntity
  8
0
100
AcDbLine
 62
7
  6
CONTINUOUS
 10
547.6395195787
 20
189.892860217
 11
552.6395195787
 21
189.892860217
  0
LINE
  5
276
100
AcDbEntity
  8
0
100
AcDbLine
 62
7
  6
CONTINUOUS
 10
548.139532562
 20
190.392860217
 11
552.6395195787
 21
190.392860217
  0
LINE
  5
277
100
AcDbEntity
  8
0
100
AcDbLine
 62
7
  6
CONTINUOUS
 10
552.6395195787
 20
191.3928602166
 11
547.6395195787
 21
191.392860217
  0
LINE
  5
278
100
AcDbEntity
  8
0
100
AcDbLine
 62
7
  6
CONTINUOUS
 10
521.6395195787
 20
192.1806495593
 11
522.5871837425
 21
192.1806495593
  0
LINE
  5
279
100
AcDbEntity
  8
0
100
AcDbLine
 62
7
  6
CONTINUOUS
 10
573.6395242439
 20
193.0967520785
 11
573.1395195787
 21
193.0967520794
  0
LINE
  5
27A
100
AcDbEntity
  8
0
100
AcDbLine
 62
7
  6
CONTINUOUS
 10
547.1699651843
 20
196.2285604221
 11
546.6918554344
 21
196.2285604221
  0
LINE
  5
27B
100
AcDbEntity
  8
0
100
AcDbLine
 62
7
  6
CONTINUOUS
 10
544.1395195786
 20
198.392860217
 11
546.0933639615
 21
198.392860217
  0
LINE
  5
27C
100
AcDbEntity
  8
0
100
AcDbLine
 62
7
  6
CONTINUOUS
 10
521.6395195787
 20
199.1882419854
 11
522.5871836185
 21
199.1882419854
  0
LINE
  5
27D
100
AcDbEntity
  8
0
100
AcDbLine
 62
7
  6
CONTINUOUS
 10
544.1395195787
 20
199.392860217
 11
543.1395195787
 21
199.392860217
  0
LINE
  5
27E
100
AcDbEntity
  8
0
100
AcDbLine
 62
7
  6
CONTINUOUS
 10
544.113341966
 20
200.6756133358
 11
543.1395195787
 21
200.6756133358
  0
LINE
  5
27F
100
AcDbEntity
  8
0
100
AcDbLine
 62
7
  6
CONTINUOUS
 10
543.3574522994
 20
204.942860217
 11
542.9395195787
 21
204.942860217
  0
LINE
  5
280
100
AcDbEntity
  8
0
100
AcDbLine
 62
7
  6
CONTINUOUS
 10
544.104620082
 20
205.242860217
 11
542.6395195787
 21
205.242860217
  0
LINE
  5
281
100
AcDbEntity
  8
0
100
AcDbLine
 62
7
  6
CONTINUOUS
 10
521.6395195787
 20
205.492860217
 11
542.6395195787
 21
205.492860217
  0
LINE
  5
282
100
AcDbEntity
  8
0
100
AcDbLine
 62
7
  6
CONTINUOUS
 10
542.6395195787
 20
205.742860217
 11
544.104620082
 21
205.742860217
  0
LINE
  5
283
100
AcDbEntity
  8
0
100
AcDbLine
 62
7
  6
CONTINUOUS
 10
542.9395195787
 20
206.042860217
 11
543.3574522994
 21
206.042860217
  0
LINE
  5
284
100
AcDbEntity
  8
0
100
AcDbLine
 62
7
  6
CONTINUOUS
 10
542.6395195787
 20
206.092860217
 11
521.9395195787
 21
206.092860217
  0
LINE
  5
285
100
AcDbEntity
  8
0
100
AcDbLine
 62
7
  6
CONTINUOUS
 10
545.1395195787
 20
209.192860217
 11
550.6395195787
 21
209.192860217
  0
LINE
  5
286
100
AcDbEntity
  8
0
100
AcDbLine
 62
7
  6
CONTINUOUS
 10
567.4220600317
 20
200.2685664503
 11
566.9395308897
 21
200.2689465565
  0
LINE
  5
287
100
AcDbEntity
  8
0
100
AcDbLine
 62
7
  6
CONTINUOUS
 10
567.4220600317
 20
208.2685664503
 11
566.9395308897
 21
208.2689465565
  0
LINE
  5
288
100
AcDbEntity
  8
0
100
AcDbLine
 62
7
  6
CONTINUOUS
 10
566.9394602232
 20
198.7167737235
 11
567.4221805522
 21
198.714798667
  0
LINE
  5
289
100
AcDbEntity
  8
0
100
AcDbLine
 62
7
  6
CONTINUOUS
 10
566.9394602232
 20
206.7167737235
 11
567.4221805522
 21
206.714798667
  0
LINE
  5
28A
100
AcDbEntity
  8
0
100
AcDbLine
 62
7
  6
CONTINUOUS
 10
553.1134188945
 20
200.968721602
 11
552.6393905504
 21
200.9709901919
  0
LINE
  5
28B
100
AcDbEntity
  8
0
100
AcDbLine
 62
7
  6
CONTINUOUS
 10
553.1134188945
 20
208.968721602
 11
552.6393905504
 21
208.9709901919
  0
LINE
  5
28C
100
AcDbEntity
  8
0
100
AcDbLine
 62
7
  6
CONTINUOUS
 10
552.9203249057
 20
201.9599882179
 11
553.604620082
 21
201.9422283497
  0
LINE
  5
28D
100
AcDbEntity
  8
0
100
AcDbLine
 62
7
  6
CONTINUOUS
 10
552.9203250502
 20
209.9599882141
 11
553.604620082
 21
209.9422283599
  0
LINE
  5
28E
100
AcDbEntity
  8
0
100
AcDbLine
 62
7
  6
CONTINUOUS
 10
553.6395195787
 20
200.9411406379
 11
553.1134861877
 21
200.968721602
  0
LINE
  5
28F
100
AcDbEntity
  8
0
100
AcDbLine
 62
7
  6
CONTINUOUS
 10
566.4656973247
 20
200.7682609453
 11
553.1134194575
 21
201.4680241767
  0
LINE
  5
290
100
AcDbEntity
  8
0
100
AcDbLine
 62
7
  6
CONTINUOUS
 10
553.6046222038
 20
201.9422283497
 11
566.4763809278
 21
201.2675831489
  0
LINE
  5
291
100
AcDbEntity
  8
0
100
AcDbLine
 62
7
  6
CONTINUOUS
 10
553.6395195787
 20
208.9411406379
 11
553.1134861877
 21
208.968721602
  0
LINE
  5
292
100
AcDbEntity
  8
0
100
AcDbLine
 62
7
  6
CONTINUOUS
 10
566.4656973247
 20
208.7682609453
 11
553.1134194575
 21
209.4680241767
  0
LINE
  5
293
100
AcDbEntity
  8
0
100
AcDbLine
 62
7
  6
CONTINUOUS
 10
553.60462201
 20
209.9422283599
 11
566.4763809278
 21
209.2675831489
  0
LWPOLYLINE
  5
294
100
AcDbEntity
  8
0
100
AcDbPolyline
 62
7
  6
CONTINUOUS
 90
4
 70
0
 10
543.3574522994
 20
206.042860217
 10
543.4351390536
 20
206.0376918172
 10
543.5200161748
 20
206.0214485176
 10
543.6093018714
 20
205.9928481883
  0
LINE
  5
295
100
AcDbEntity
  8
0
100
AcDbLine
 62
7
  6
CONTINUOUS
 10
547.5441728537
 20
189.1163228747
 11
522.5871838664
 21
192.1806535069
  0
LINE
  5
296
100
AcDbEntity
  8
0
100
AcDbLine
 62
7
  6
CONTINUOUS
 10
547.6765584062
 20
191.1022352253
 11
522.5176525208
 21
194.1913604373
  0
LINE
  5
297
100
AcDbEntity
  8
0
100
AcDbLine
 62
7
  6
CONTINUOUS
 10
522.587183615
 20
199.1882417582
 11
546.6918549569
 21
196.2285252299
  0
LWPOLYLINE
  5
298
100
AcDbEntity
  8
0
100
AcDbPolyline
 62
7
  6
CONTINUOUS
 90
4
 70
0
 10
577.3154589012
 20
173.8380805988
 10
577.4230066934
 20
173.8192114093
 10
577.5048548747
 20
173.7505090355
 10
577.5395193646
 20
173.6398902867
  0
LINE
  5
299
100
AcDbEntity
  8
0
100
AcDbLine
 62
7
  6
CONTINUOUS
 10
573.2185407317
 20
172.0241677002
 11
573.0056366358
 21
172.0925925939
  0
LINE
  5
29A
100
AcDbEntity
  8
0
100
AcDbLine
 62
7
  6
CONTINUOUS
 10
557.604620082
 20
225.0427536533
 11
566.474421725
 21
225.5076002601
  0
LINE
  5
29B
100
AcDbEntity
  8
0
100
AcDbLine
 62
7
  6
CONTINUOUS
 10
566.4656875568
 20
226.0078278595
 11
557.1142178458
 21
225.517738099
  0
LINE
  5
29C
100
AcDbEntity
  8
0
100
AcDbLine
 62
7
  6
CONTINUOUS
 10
557.6395195787
 20
226.0445827636
 11
557.1142178458
 21
226.0170528664
  0
LINE
  5
29D
100
AcDbEntity
  8
0
100
AcDbLine
 62
7
  6
CONTINUOUS
 10
566.4740201128
 20
233.50853573
 11
557.6046198311
 21
233.043433433
  0
LINE
  5
29E
100
AcDbEntity
  8
0
100
AcDbLine
 62
7
  6
CONTINUOUS
 10
557.1133837681
 20
233.5176943868
 11
566.46568503
 21
234.0078277271
  0
LINE
  5
29F
100
AcDbEntity
  8
0
100
AcDbLine
 62
7
  6
CONTINUOUS
 10
557.1134862377
 20
234.0169956214
 11
557.6395195787
 21
234.044579796
  0
LINE
  5
2A0
100
AcDbEntity
  8
0
100
AcDbLine
 62
7
  6
CONTINUOUS
 10
566.4740201129
 20
241.50853573
 11
557.604619998
 21
241.0434334417
  0
LINE
  5
2A1
100
AcDbEntity
  8
0
100
AcDbLine
 62
7
  6
CONTINUOUS
 10
557.1133837681
 20
241.5176943868
 11
566.46568503
 21
242.0078277271
  0
LINE
  5
2A2
100
AcDbEntity
  8
0
100
AcDbLine
 62
7
  6
CONTINUOUS
 10
557.6395195787
 20
242.044579796
 11
557.1134862377
 21
242.0169956214
  0
LINE
  5
2A3
100
AcDbEntity
  8
0
100
AcDbLine
 62
7
  6
CONTINUOUS
 10
566.475774701
 20
249.5084103708
 11
557.6046212618
 21
249.0435746805
  0
LINE
  5
2A4
100
AcDbEntity
  8
0
100
AcDbLine
 62
7
  6
CONTINUOUS
 10
557.1133492158
 20
249.517692576
 11
566.4657015024
 21
250.0078285904
  0
LINE
  5
2A5
100
AcDbEntity
  8
0
100
AcDbLine
 62
7
  6
CONTINUOUS
 10
557.6395195787
 20
250.0445799206
 11
557.1135283365
 21
250.0169881445
  0
LINE
  5
2A6
100
AcDbEntity
  8
0
100
AcDbLine
 62
7
  6
CONTINUOUS
 10
566.4740201129
 20
257.50853573
 11
557.6046199207
 21
257.0434334377
  0
LINE
  5
2A7
100
AcDbEntity
  8
0
100
AcDbLine
 62
7
  6
CONTINUOUS
 10
557.1133837681
 20
257.5176943868
 11
566.46568503
 21
258.0078277271
  0
LINE
  5
2A8
100
AcDbEntity
  8
0
100
AcDbLine
 62
7
  6
CONTINUOUS
 10
557.6395195787
 20
258.044579796
 11
557.1134862377
 21
258.0169956214
  0
LINE
  5
2A9
100
AcDbEntity
  8
0
100
AcDbLine
 62
7
  6
CONTINUOUS
 10
557.604620082
 20
249.0435623307
 11
556.9201266246
 21
249.0257212915
  0
LINE
  5
2AA
100
AcDbEntity
  8
0
100
AcDbLine
 62
7
  6
CONTINUOUS
 10
557.604620082
 20
233.0434334392
 11
556.9200427758
 21
233.0257258637
  0
LINE
  5
2AB
100
AcDbEntity
  8
0
100
AcDbLine
 62
7
  6
CONTINUOUS
 10
557.604620082
 20
241.0434334438
 11
556.9200427743
 21
241.0257258637
  0
LINE
  5
2AC
100
AcDbEntity
  8
0
100
AcDbLine
 62
7
  6
CONTINUOUS
 10
557.604620082
 20
257.0434334416
 11
556.9200427865
 21
257.025725864
  0
LINE
  5
2AD
100
AcDbEntity
  8
0
100
AcDbLine
 62
7
  6
CONTINUOUS
 10
556.6393905504
 20
234.0147362823
 11
557.1133972329
 21
234.0169956214
  0
LINE
  5
2AE
100
AcDbEntity
  8
0
100
AcDbLine
 62
7
  6
CONTINUOUS
 10
556.6393905504
 20
242.0147362823
 11
557.1133972329
 21
242.0169956214
  0
LINE
  5
2AF
100
AcDbEntity
  8
0
100
AcDbLine
 62
7
  6
CONTINUOUS
 10
556.6393905504
 20
258.0147362823
 11
557.1133972329
 21
258.0169956214
  0
LINE
  5
2B0
100
AcDbEntity
  8
0
100
AcDbLine
 62
7
  6
CONTINUOUS
 10
556.6393945357
 20
250.0160679046
 11
557.1134399692
 21
250.0169881445
  0
LINE
  5
2B1
100
AcDbEntity
  8
0
100
AcDbLine
 62
7
  6
CONTINUOUS
 10
567.4221569892
 20
252.4794352903
 11
566.9394565273
 21
252.478577167
  0
LINE
  5
2B2
100
AcDbEntity
  8
0
100
AcDbLine
 62
7
  6
CONTINUOUS
 10
552.6395195787
 20
217.0786466698
 11
553.604620082
 21
217.0786466698
  0
LINE
  5
2B3
100
AcDbEntity
  8
0
100
AcDbLine
 62
7
  6
CONTINUOUS
 10
521.9395195787
 20
217.492860217
 11
535.1401102033
 21
217.492860217
  0
LINE
  5
2B4
100
AcDbEntity
  8
0
100
AcDbLine
 62
7
  6
CONTINUOUS
 10
543.7389289541
 20
217.492860217
 11
547.7401102033
 21
217.492860217
  0
LINE
  5
2B5
100
AcDbEntity
  8
0
100
AcDbLine
 62
7
  6
CONTINUOUS
 10
543.2881107611
 20
217.992860217
 11
543.2395195787
 21
217.992860217
  0
LINE
  5
2B6
100
AcDbEntity
  8
0
100
AcDbLine
 62
7
  6
CONTINUOUS
 10
522.9395195787
 20
217.992860217
 11
521.9395195787
 21
217.992860217
  0
LINE
  5
2B7
100
AcDbEntity
  8
0
100
AcDbLine
 62
7
  6
CONTINUOUS
 10
547.6395195787
 20
219.2786466546
 11
548.1395195787
 21
219.2786466546
  0
LINE
  5
2B8
100
AcDbEntity
  8
0
100
AcDbLine
 62
7
  6
CONTINUOUS
 10
554.4871837023
 20
220.3689513855
 11
553.5395195787
 21
220.3689513855
  0
LINE
  5
2B9
100
AcDbEntity
  8
0
100
AcDbLine
 62
7
  6
CONTINUOUS
 10
521.9395195787
 20
220.992860217
 11
522.9395195787
 21
220.992860217
  0
LINE
  5
2BA
100
AcDbEntity
  8
0
100
AcDbLine
 62
7
  6
CONTINUOUS
 10
543.2395195787
 20
220.992860217
 11
543.2881107611
 21
220.992860217
  0
LINE
  5
2BB
100
AcDbEntity
  8
0
100
AcDbLine
 62
7
  6
CONTINUOUS
 10
547.7887013857
 20
221.492860217
 11
543.7389289541
 21
221.492860217
  0
LINE
  5
2BC
100
AcDbEntity
  8
0
100
AcDbLine
 62
7
  6
CONTINUOUS
 10
535.1401102033
 20
221.492860217
 11
521.9395195787
 21
221.492860217
  0
LINE
  5
2BD
100
AcDbEntity
  8
0
100
AcDbLine
 62
7
  6
CONTINUOUS
 10
521.9395195787
 20
225.492860217
 11
535.1401102033
 21
225.492860217
  0
LINE
  5
2BE
100
AcDbEntity
  8
0
100
AcDbLine
 62
7
  6
CONTINUOUS
 10
543.7389289541
 20
225.492860217
 11
552.7401102033
 21
225.492860217
  0
LINE
  5
2BF
100
AcDbEntity
  8
0
100
AcDbLine
 62
7
  6
CONTINUOUS
 10
543.2881107611
 20
225.992860217
 11
543.2395195787
 21
225.992860217
  0
LINE
  5
2C0
100
AcDbEntity
  8
0
100
AcDbLine
 62
7
  6
CONTINUOUS
 10
522.9395195787
 20
225.992860217
 11
521.9395195787
 21
225.992860217
  0
LINE
  5
2C1
100
AcDbEntity
  8
0
100
AcDbLine
 62
7
  6
CONTINUOUS
 10
557.1142178458
 20
226.0170528664
 11
556.6395195787
 21
226.0170528663
  0
LINE
  5
2C2
100
AcDbEntity
  8
0
100
AcDbLine
 62
7
  6
CONTINUOUS
 10
567.4229520141
 20
226.5071426269
 11
566.9395195787
 21
226.5071413207
  0
LINE
  5
2C3
100
AcDbEntity
  8
0
100
AcDbLine
 62
7
  6
CONTINUOUS
 10
566.9395195787
 20
228.478577807
 11
567.422952014
 21
228.4785778071
  0
LINE
  5
2C4
100
AcDbEntity
  8
0
100
AcDbLine
 62
7
  6
CONTINUOUS
 10
556.6395195787
 20
228.9686675676
 11
557.1142178458
 21
228.9686675676
  0
LINE
  5
2C5
100
AcDbEntity
  8
0
100
AcDbLine
 62
7
  6
CONTINUOUS
 10
521.9395195787
 20
228.992860217
 11
522.9395195787
 21
228.992860217
  0
LINE
  5
2C6
100
AcDbEntity
  8
0
100
AcDbLine
 62
7
  6
CONTINUOUS
 10
543.2395195787
 20
228.992860217
 11
543.2881107611
 21
228.992860217
  0
LINE
  5
2C7
100
AcDbEntity
  8
0
100
AcDbLine
 62
7
  6
CONTINUOUS
 10
552.7887013857
 20
229.492860217
 11
543.7389289541
 21
229.492860217
  0
LINE
  5
2C8
100
AcDbEntity
  8
0
100
AcDbLine
 62
7
  6
CONTINUOUS
 10
535.1887013857
 20
229.492860217
 11
521.9395195787
 21
229.492860217
  0
LINE
  5
2C9
100
AcDbEntity
  8
0
100
AcDbLine
 62
7
  6
CONTINUOUS
 10
521.9395195787
 20
233.492860217
 11
535.1401102033
 21
233.492860217
  0
LINE
  5
2CA
100
AcDbEntity
  8
0
100
AcDbLine
 62
7
  6
CONTINUOUS
 10
543.7389289541
 20
233.492860217
 11
553.5395195787
 21
233.492860217
  0
LINE
  5
2CB
100
AcDbEntity
  8
0
100
AcDbLine
 62
7
  6
CONTINUOUS
 10
543.2881107611
 20
233.992860217
 11
543.2395195787
 21
233.992860217
  0
LINE
  5
2CC
100
AcDbEntity
  8
0
100
AcDbLine
 62
7
  6
CONTINUOUS
 10
522.9395195787
 20
233.992860217
 11
521.9395195787
 21
233.992860217
  0
LINE
  5
2CD
100
AcDbEntity
  8
0
100
AcDbLine
 62
7
  6
CONTINUOUS
 10
521.9395195787
 20
236.992860217
 11
522.9395195787
 21
236.992860217
  0
LINE
  5
2CE
100
AcDbEntity
  8
0
100
AcDbLine
 62
7
  6
CONTINUOUS
 10
543.2395195787
 20
236.992860217
 11
543.2881107611
 21
236.992860217
  0
LINE
  5
2CF
100
AcDbEntity
  8
0
100
AcDbLine
 62
7
  6
CONTINUOUS
 10
553.5395195787
 20
237.492860217
 11
543.7389289541
 21
237.492860217
  0
LINE
  5
2D0
100
AcDbEntity
  8
0
100
AcDbLine
 62
7
  6
CONTINUOUS
 10
535.1887013857
 20
237.492860217
 11
521.9395195787
 21
237.492860217
  0
LINE
  5
2D1
100
AcDbEntity
  8
0
100
AcDbLine
 62
7
  6
CONTINUOUS
 10
521.9395195787
 20
241.492860217
 11
535.1401102033
 21
241.492860217
  0
LINE
  5
2D2
100
AcDbEntity
  8
0
100
AcDbLine
 62
7
  6
CONTINUOUS
 10
543.7389289541
 20
241.492860217
 11
553.5395195787
 21
241.492860217
  0
LINE
  5
2D3
100
AcDbEntity
  8
0
100
AcDbLine
 62
7
  6
CONTINUOUS
 10
543.2881107611
 20
241.992860217
 11
543.2395195787
 21
241.992860217
  0
LINE
  5
2D4
100
AcDbEntity
  8
0
100
AcDbLine
 62
7
  6
CONTINUOUS
 10
522.9395195787
 20
241.992860217
 11
521.9395195787
 21
241.992860217
  0
LINE
  5
2D5
100
AcDbEntity
  8
0
100
AcDbLine
 62
7
  6
CONTINUOUS
 10
521.9395195787
 20
244.992860217
 11
522.9395195787
 21
244.992860217
  0
LINE
  5
2D6
100
AcDbEntity
  8
0
100
AcDbLine
 62
7
  6
CONTINUOUS
 10
543.2395195787
 20
244.992860217
 11
543.2881107611
 21
244.992860217
  0
LINE
  5
2D7
100
AcDbEntity
  8
0
100
AcDbLine
 62
7
  6
CONTINUOUS
 10
553.5395195787
 20
245.492860217
 11
543.7389289541
 21
245.492860217
  0
LINE
  5
2D8
100
AcDbEntity
  8
0
100
AcDbLine
 62
7
  6
CONTINUOUS
 10
535.1887013857
 20
245.492860217
 11
521.9395195787
 21
245.492860217
  0
LINE
  5
2D9
100
AcDbEntity
  8
0
100
AcDbLine
 62
7
  6
CONTINUOUS
 10
521.9395195787
 20
249.492860217
 11
535.1401102033
 21
249.492860217
  0
LINE
  5
2DA
100
AcDbEntity
  8
0
100
AcDbLine
 62
7
  6
CONTINUOUS
 10
543.7389289541
 20
249.492860217
 11
553.5395195787
 21
249.492860217
  0
LINE
  5
2DB
100
AcDbEntity
  8
0
100
AcDbLine
 62
7
  6
CONTINUOUS
 10
543.2881107611
 20
249.992860217
 11
543.2395195787
 21
249.992860217
  0
LINE
  5
2DC
100
AcDbEntity
  8
0
100
AcDbLine
 62
7
  6
CONTINUOUS
 10
522.9395195787
 20
249.992860217
 11
521.9395195787
 21
249.992860217
  0
LINE
  5
2DD
100
AcDbEntity
  8
0
100
AcDbLine
 62
7
  6
CONTINUOUS
 10
521.9395195787
 20
252.992860217
 11
522.9395195787
 21
252.992860217
  0
LINE
  5
2DE
100
AcDbEntity
  8
0
100
AcDbLine
 62
7
  6
CONTINUOUS
 10
543.2395195787
 20
252.992860217
 11
543.2881107611
 21
252.992860217
  0
LINE
  5
2DF
100
AcDbEntity
  8
0
100
AcDbLine
 62
7
  6
CONTINUOUS
 10
553.5395195787
 20
253.492860217
 11
543.7389289541
 21
253.492860217
  0
LINE
  5
2E0
100
AcDbEntity
  8
0
100
AcDbLine
 62
7
  6
CONTINUOUS
 10
535.1887013857
 20
253.492860217
 11
521.9395195787
 21
253.492860217
  0
LINE
  5
2E1
100
AcDbEntity
  8
0
100
AcDbLine
 62
7
  6
CONTINUOUS
 10
521.9395195787
 20
257.492860217
 11
535.1401102033
 21
257.492860217
  0
LINE
  5
2E2
100
AcDbEntity
  8
0
100
AcDbLine
 62
7
  6
CONTINUOUS
 10
543.7389289541
 20
257.492860217
 11
553.5395195787
 21
257.492860217
  0
LINE
  5
2E3
100
AcDbEntity
  8
0
100
AcDbLine
 62
7
  6
CONTINUOUS
 10
543.2881107611
 20
257.992860217
 11
543.2395195787
 21
257.992860217
  0
LINE
  5
2E4
100
AcDbEntity
  8
0
100
AcDbLine
 62
7
  6
CONTINUOUS
 10
522.9395195787
 20
257.992860217
 11
521.9395195787
 21
257.992860217
  0
LINE
  5
2E5
100
AcDbEntity
  8
0
100
AcDbLine
 62
7
  6
CONTINUOUS
 10
567.4220600317
 20
236.4781975675
 11
566.9395308897
 21
236.4785776736
  0
LINE
  5
2E6
100
AcDbEntity
  8
0
100
AcDbLine
 62
7
  6
CONTINUOUS
 10
567.4220600317
 20
244.4781975675
 11
566.9395308897
 21
244.4785776736
  0
LINE
  5
2E7
100
AcDbEntity
  8
0
100
AcDbLine
 62
7
  6
CONTINUOUS
 10
557.1134168361
 20
252.9687210856
 11
556.6395196242
 21
252.9699131783
  0
LINE
  5
2E8
100
AcDbEntity
  8
0
100
AcDbLine
 62
7
  6
CONTINUOUS
 10
566.9394644335
 20
250.5071428162
 11
567.4220697986
 21
250.50557471
  0
LINE
  5
2E9
100
AcDbEntity
  8
0
100
AcDbLine
 62
7
  6
CONTINUOUS
 10
566.9394602232
 20
234.5071426063
 11
567.4221805522
 21
234.5051675499
  0
LINE
  5
2EA
100
AcDbEntity
  8
0
100
AcDbLine
 62
7
  6
CONTINUOUS
 10
566.9394602232
 20
242.5071426063
 11
567.4221805522
 21
242.5051675499
  0
LINE
  5
2EB
100
AcDbEntity
  8
0
100
AcDbLine
 62
7
  6
CONTINUOUS
 10
566.9394602232
 20
258.5071426063
 11
567.4221805522
 21
258.5051675499
  0
LINE
  5
2EC
100
AcDbEntity
  8
0
100
AcDbLine
 62
7
  6
CONTINUOUS
 10
557.1134188946
 20
236.968721602
 11
556.6393905504
 21
236.9709901919
  0
LINE
  5
2ED
100
AcDbEntity
  8
0
100
AcDbLine
 62
7
  6
CONTINUOUS
 10
557.1134188946
 20
244.968721602
 11
556.6393905504
 21
244.9709901919
  0
LINE
  5
2EE
100
AcDbEntity
  8
0
100
AcDbLine
 62
7
  6
CONTINUOUS
 10
557.604620082
 20
237.9422869902
 11
556.9192841776
 21
237.9600146258
  0
LINE
  5
2EF
100
AcDbEntity
  8
0
100
AcDbLine
 62
7
  6
CONTINUOUS
 10
557.604620082
 20
245.9422869923
 11
556.9192841851
 21
245.9600146255
  0
LINE
  5
2F0
100
AcDbEntity
  8
0
100
AcDbLine
 62
7
  6
CONTINUOUS
 10
557.604620082
 20
253.9422021254
 11
556.9222534099
 21
253.9599909862
  0
LINE
  5
2F1
100
AcDbEntity
  8
0
100
AcDbLine
 62
7
  6
CONTINUOUS
 10
557.6395195787
 20
228.9411376703
 11
557.1142178458
 21
228.9686675676
  0
LINE
  5
2F2
100
AcDbEntity
  8
0
100
AcDbLine
 62
7
  6
CONTINUOUS
 10
557.1142178458
 20
229.467982335
 11
566.4656875568
 21
228.9778925744
  0
LINE
  5
2F3
100
AcDbEntity
  8
0
100
AcDbLine
 62
7
  6
CONTINUOUS
 10
566.474421725
 20
229.4781201739
 11
557.604620394
 21
229.9429647336
  0
LINE
  5
2F4
100
AcDbEntity
  8
0
100
AcDbLine
 62
7
  6
CONTINUOUS
 10
557.1134861878
 20
236.968721602
 11
557.6395195787
 21
236.9411406379
  0
LINE
  5
2F5
100
AcDbEntity
  8
0
100
AcDbLine
 62
7
  6
CONTINUOUS
 10
566.4656973247
 20
236.9778920625
 11
557.1134194575
 21
237.4680241767
  0
LINE
  5
2F6
100
AcDbEntity
  8
0
100
AcDbLine
 62
7
  6
CONTINUOUS
 10
557.604619998
 20
237.9422869922
 11
566.4763809278
 21
237.477214266
  0
LINE
  5
2F7
100
AcDbEntity
  8
0
100
AcDbLine
 62
7
  6
CONTINUOUS
 10
557.6395195787
 20
244.9411406379
 11
557.1134861878
 21
244.968721602
  0
LINE
  5
2F8
100
AcDbEntity
  8
0
100
AcDbLine
 62
7
  6
CONTINUOUS
 10
566.4656973247
 20
244.9778920625
 11
557.1134194575
 21
245.4680241767
  0
LINE
  5
2F9
100
AcDbEntity
  8
0
100
AcDbLine
 62
7
  6
CONTINUOUS
 10
557.6046199207
 20
245.9422869963
 11
566.4763809278
 21
245.4772142661
  0
LINE
  5
2FA
100
AcDbEntity
  8
0
100
AcDbLine
 62
7
  6
CONTINUOUS
 10
557.6395195787
 20
252.9411405133
 11
557.1134820709
 21
252.9687210856
  0
LINE
  5
2FB
100
AcDbEntity
  8
0
100
AcDbLine
 62
7
  6
CONTINUOUS
 10
557.1133492339
 20
253.468027857
 11
566.4656963847
 21
252.9778921117
  0
LINE
  5
2FC
100
AcDbEntity
  8
0
100
AcDbLine
 62
7
  6
CONTINUOUS
 10
557.6046198159
 20
253.9421881379
 11
566.4754651324
 21
253.4772540842
  0
LWPOLYLINE
  5
2FD
100
AcDbEntity
  8
0
100
AcDbPolyline
 62
7
  6
CONTINUOUS
 90
4
 70
0
 10
573.2772434268
 20
171.792860217
 10
573.3211826293
 20
171.7711797015
 10
573.3551882723
 20
171.7164161452
 10
573.3742576878
 20
171.641367342
  0
LINE
  5
2FE
100
AcDbEntity
  8
0
100
AcDbLine
 62
7
  6
CONTINUOUS
 10
547.1188419999
 20
157.0772302792
 11
522.160192082
 21
170.7084929267
  0
LINE
  5
2FF
100
AcDbEntity
  8
0
100
AcDbLine
 62
7
  6
CONTINUOUS
 10
522.5871836186
 20
176.0294860822
 11
546.6919181193
 21
162.8644461419
  0
LINE
  5
300
100
AcDbEntity
  8
0
100
AcDbLine
 62
7
  6
CONTINUOUS
 10
555.667578718
 20
134.2650111378
 11
553.6384459028
 21
135.4180741852
  0
LINE
  5
301
100
AcDbEntity
  8
0
100
AcDbLine
 62
7
  6
CONTINUOUS
 10
554.2864955091
 20
135.3948711671
 11
555.8157833811
 21
134.5258181735
  0
LINE
  5
302
100
AcDbEntity
  8
0
100
AcDbLine
 62
7
  6
CONTINUOUS
 10
566.4740201129
 20
265.50853573
 11
557.604619998
 21
265.0434334417
  0
LINE
  5
303
100
AcDbEntity
  8
0
100
AcDbLine
 62
7
  6
CONTINUOUS
 10
557.1133837681
 20
265.5176943868
 11
566.46568503
 21
266.0078277271
  0
LINE
  5
304
100
AcDbEntity
  8
0
100
AcDbLine
 62
7
  6
CONTINUOUS
 10
557.6395195787
 20
266.044579796
 11
557.1134862377
 21
266.0169956214
  0
LINE
  5
305
100
AcDbEntity
  8
0
100
AcDbLine
 62
7
  6
CONTINUOUS
 10
566.475774701
 20
273.5084103708
 11
557.6046212618
 21
273.0435746805
  0
LINE
  5
306
100
AcDbEntity
  8
0
100
AcDbLine
 62
7
  6
CONTINUOUS
 10
557.1133492158
 20
273.517692576
 11
566.4657015024
 21
274.0078285904
  0
LINE
  5
307
100
AcDbEntity
  8
0
100
AcDbLine
 62
7
  6
CONTINUOUS
 10
557.6395195787
 20
274.0445799206
 11
557.1135283365
 21
274.0169881445
  0
LINE
  5
308
100
AcDbEntity
  8
0
100
AcDbLine
 62
7
  6
CONTINUOUS
 10
566.4740201129
 20
281.50853573
 11
557.6046199207
 21
281.0434334377
  0
LINE
  5
309
100
AcDbEntity
  8
0
100
AcDbLine
 62
7
  6
CONTINUOUS
 10
557.1133837681
 20
281.5176943868
 11
566.46568503
 21
282.0078277271
  0
LINE
  5
30A
100
AcDbEntity
  8
0
100
AcDbLine
 62
7
  6
CONTINUOUS
 10
557.6395195787
 20
282.044579796
 11
557.1134862377
 21
282.0169956214
  0
LINE
  5
30B
100
AcDbEntity
  8
0
100
AcDbLine
 62
7
  6
CONTINUOUS
 10
566.4740201129
 20
289.50853573
 11
557.604619998
 21
289.0434334417
  0
LINE
  5
30C
100
AcDbEntity
  8
0
100
AcDbLine
 62
7
  6
CONTINUOUS
 10
557.1133837681
 20
289.5176943868
 11
566.46568503
 21
290.0078277271
  0
LINE
  5
30D
100
AcDbEntity
  8
0
100
AcDbLine
 62
7
  6
CONTINUOUS
 10
557.6395195787
 20
290.044579796
 11
557.1134862377
 21
290.0169956214
  0
LINE
  5
30E
100
AcDbEntity
  8
0
100
AcDbLine
 62
7
  6
CONTINUOUS
 10
557.604620082
 20
273.0435623307
 11
556.9201266246
 21
273.0257212915
  0
LINE
  5
30F
100
AcDbEntity
  8
0
100
AcDbLine
 62
7
  6
CONTINUOUS
 10
557.604620082
 20
265.0434334438
 11
556.9200427743
 21
265.0257258637
  0
LINE
  5
310
100
AcDbEntity
  8
0
100
AcDbLine
 62
7
  6
CONTINUOUS
 10
557.604620082
 20
281.0434334416
 11
556.9200427865
 21
281.025725864
  0
LINE
  5
311
100
AcDbEntity
  8
0
100
AcDbLine
 62
7
  6
CONTINUOUS
 10
557.604620082
 20
289.0434334438
 11
556.9200427743
 21
289.0257258637
  0
LINE
  5
312
100
AcDbEntity
  8
0
100
AcDbLine
 62
7
  6
CONTINUOUS
 10
556.6393905504
 20
266.0147362823
 11
557.1133972329
 21
266.0169956214
  0
LINE
  5
313
100
AcDbEntity
  8
0
100
AcDbLine
 62
7
  6
CONTINUOUS
 10
556.6393905504
 20
282.0147362823
 11
557.1133972329
 21
282.0169956214
  0
LINE
  5
314
100
AcDbEntity
  8
0
100
AcDbLine
 62
7
  6
CONTINUOUS
 10
556.6393905504
 20
290.0147362823
 11
557.1133972329
 21
290.0169956214
  0
LINE
  5
315
100
AcDbEntity
  8
0
100
AcDbLine
 62
7
  6
CONTINUOUS
 10
556.6393945357
 20
274.0160679046
 11
557.1134399692
 21
274.0169881445
  0
LINE
  5
316
100
AcDbEntity
  8
0
100
AcDbLine
 62
7
  6
CONTINUOUS
 10
567.4221569892
 20
276.4794352903
 11
566.9394565273
 21
276.478577167
  0
LINE
  5
317
100
AcDbEntity
  8
0
100
AcDbLine
 62
7
  6
CONTINUOUS
 10
521.9395195787
 20
260.992860217
 11
522.9395195787
 21
260.992860217
  0
LINE
  5
318
100
AcDbEntity
  8
0
100
AcDbLine
 62
7
  6
CONTINUOUS
 10
543.2395195787
 20
260.992860217
 11
543.2881107611
 21
260.992860217
  0
LINE
  5
319
100
AcDbEntity
  8
0
100
AcDbLine
 62
7
  6
CONTINUOUS
 10
553.5395195787
 20
261.492860217
 11
543.7389289541
 21
261.492860217
  0
LINE
  5
31A
100
AcDbEntity
  8
0
100
AcDbLine
 62
7
  6
CONTINUOUS
 10
535.1887013857
 20
261.492860217
 11
521.9395195787
 21
261.492860217
  0
LINE
  5
31B
100
AcDbEntity
  8
0
100
AcDbLine
 62
7
  6
CONTINUOUS
 10
521.9395195787
 20
265.492860217
 11
535.1401102033
 21
265.492860217
  0
LINE
  5
31C
100
AcDbEntity
  8
0
100
AcDbLine
 62
7
  6
CONTINUOUS
 10
543.7389289541
 20
265.492860217
 11
553.5395195787
 21
265.492860217
  0
LINE
  5
31D
100
AcDbEntity
  8
0
100
AcDbLine
 62
7
  6
CONTINUOUS
 10
543.2881107611
 20
265.992860217
 11
543.2395195787
 21
265.992860217
  0
LINE
  5
31E
100
AcDbEntity
  8
0
100
AcDbLine
 62
7
  6
CONTINUOUS
 10
522.9395195787
 20
265.992860217
 11
521.9395195787
 21
265.992860217
  0
LINE
  5
31F
100
AcDbEntity
  8
0
100
AcDbLine
 62
7
  6
CONTINUOUS
 10
521.9395195787
 20
268.992860217
 11
522.9395195787
 21
268.992860217
  0
LINE
  5
320
100
AcDbEntity
  8
0
100
AcDbLine
 62
7
  6
CONTINUOUS
 10
543.2395195787
 20
268.992860217
 11
543.2881107611
 21
268.992860217
  0
LINE
  5
321
100
AcDbEntity
  8
0
100
AcDbLine
 62
7
  6
CONTINUOUS
 10
553.5395195787
 20
269.492860217
 11
543.7389289541
 21
269.492860217
  0
LINE
  5
322
100
AcDbEntity
  8
0
100
AcDbLine
 62
7
  6
CONTINUOUS
 10
535.1887013857
 20
269.492860217
 11
521.9395195787
 21
269.492860217
  0
LINE
  5
323
100
AcDbEntity
  8
0
100
AcDbLine
 62
7
  6
CONTINUOUS
 10
521.9395195787
 20
273.492860217
 11
535.1401102033
 21
273.492860217
  0
LINE
  5
324
100
AcDbEntity
  8
0
100
AcDbLine
 62
7
  6
CONTINUOUS
 10
543.7389289541
 20
273.492860217
 11
553.5395195787
 21
273.492860217
  0
LINE
  5
325
100
AcDbEntity
  8
0
100
AcDbLine
 62
7
  6
CONTINUOUS
 10
543.2881107611
 20
273.992860217
 11
543.2395195787
 21
273.992860217
  0
LINE
  5
326
100
AcDbEntity
  8
0
100
AcDbLine
 62
7
  6
CONTINUOUS
 10
522.9395195787
 20
273.992860217
 11
521.9395195787
 21
273.992860217
  0
LINE
  5
327
100
AcDbEntity
  8
0
100
AcDbLine
 62
7
  6
CONTINUOUS
 10
521.9395195787
 20
276.992860217
 11
522.9395195787
 21
276.992860217
  0
LINE
  5
328
100
AcDbEntity
  8
0
100
AcDbLine
 62
7
  6
CONTINUOUS
 10
543.2395195787
 20
276.992860217
 11
543.2881107611
 21
276.992860217
  0
LINE
  5
329
100
AcDbEntity
  8
0
100
AcDbLine
 62
7
  6
CONTINUOUS
 10
553.5395195787
 20
277.492860217
 11
543.7389289541
 21
277.492860217
  0
LINE
  5
32A
100
AcDbEntity
  8
0
100
AcDbLine
 62
7
  6
CONTINUOUS
 10
535.1887013857
 20
277.492860217
 11
521.9395195787
 21
277.492860217
  0
LINE
  5
32B
100
AcDbEntity
  8
0
100
AcDbLine
 62
7
  6
CONTINUOUS
 10
521.9395195787
 20
281.492860217
 11
535.1401102033
 21
281.492860217
  0
LINE
  5
32C
100
AcDbEntity
  8
0
100
AcDbLine
 62
7
  6
CONTINUOUS
 10
543.7389289541
 20
281.492860217
 11
553.5395195787
 21
281.492860217
  0
LINE
  5
32D
100
AcDbEntity
  8
0
100
AcDbLine
 62
7
  6
CONTINUOUS
 10
543.2881107611
 20
281.992860217
 11
543.2395195787
 21
281.992860217
  0
LINE
  5
32E
100
AcDbEntity
  8
0
100
AcDbLine
 62
7
  6
CONTINUOUS
 10
522.9395195787
 20
281.992860217
 11
521.9395195787
 21
281.992860217
  0
LINE
  5
32F
100
AcDbEntity
  8
0
100
AcDbLine
 62
7
  6
CONTINUOUS
 10
521.9395195787
 20
284.992860217
 11
522.9395195787
 21
284.992860217
  0
LINE
  5
330
100
AcDbEntity
  8
0
100
AcDbLine
 62
7
  6
CONTINUOUS
 10
543.2395195787
 20
284.992860217
 11
543.2881107611
 21
284.992860217
  0
LINE
  5
331
100
AcDbEntity
  8
0
100
AcDbLine
 62
7
  6
CONTINUOUS
 10
553.5395195787
 20
285.492860217
 11
543.7389289541
 21
285.492860217
  0
LINE
  5
332
100
AcDbEntity
  8
0
100
AcDbLine
 62
7
  6
CONTINUOUS
 10
535.1887013857
 20
285.492860217
 11
521.9395195787
 21
285.492860217
  0
LINE
  5
333
100
AcDbEntity
  8
0
100
AcDbLine
 62
7
  6
CONTINUOUS
 10
521.9395195787
 20
289.492860217
 11
535.1401102033
 21
289.492860217
  0
LINE
  5
334
100
AcDbEntity
  8
0
100
AcDbLine
 62
7
  6
CONTINUOUS
 10
543.7389289541
 20
289.492860217
 11
553.5395195787
 21
289.492860217
  0
LINE
  5
335
100
AcDbEntity
  8
0
100
AcDbLine
 62
7
  6
CONTINUOUS
 10
543.2881107611
 20
289.992860217
 11
543.2395195787
 21
289.992860217
  0
LINE
  5
336
100
AcDbEntity
  8
0
100
AcDbLine
 62
7
  6
CONTINUOUS
 10
522.9395195787
 20
289.992860217
 11
521.9395195787
 21
289.992860217
  0
LINE
  5
337
100
AcDbEntity
  8
0
100
AcDbLine
 62
7
  6
CONTINUOUS
 10
521.9395195787
 20
292.992860217
 11
522.9395195787
 21
292.992860217
  0
LINE
  5
338
100
AcDbEntity
  8
0
100
AcDbLine
 62
7
  6
CONTINUOUS
 10
543.2395195787
 20
292.992860217
 11
543.2881107611
 21
292.992860217
  0
LINE
  5
339
100
AcDbEntity
  8
0
100
AcDbLine
 62
7
  6
CONTINUOUS
 10
553.5395195787
 20
293.492860217
 11
543.7389289541
 21
293.492860217
  0
LINE
  5
33A
100
AcDbEntity
  8
0
100
AcDbLine
 62
7
  6
CONTINUOUS
 10
535.1887013857
 20
293.492860217
 11
521.9395195787
 21
293.492860217
  0
LINE
  5
33B
100
AcDbEntity
  8
0
100
AcDbLine
 62
7
  6
CONTINUOUS
 10
567.4220600317
 20
260.4781975675
 11
566.9395308897
 21
260.4785776736
  0
LINE
  5
33C
100
AcDbEntity
  8
0
100
AcDbLine
 62
7
  6
CONTINUOUS
 10
567.4220600317
 20
268.4781975675
 11
566.9395308897
 21
268.4785776736
  0
LINE
  5
33D
100
AcDbEntity
  8
0
100
AcDbLine
 62
7
  6
CONTINUOUS
 10
567.4220600317
 20
284.4781975675
 11
566.9395308897
 21
284.4785776736
  0
LINE
  5
33E
100
AcDbEntity
  8
0
100
AcDbLine
 62
7
  6
CONTINUOUS
 10
567.4220600317
 20
292.4781975675
 11
566.9395308897
 21
292.4785776736
  0
LINE
  5
33F
100
AcDbEntity
  8
0
100
AcDbLine
 62
7
  6
CONTINUOUS
 10
557.1134168361
 20
276.9687210856
 11
556.6395196242
 21
276.9699131783
  0
LINE
  5
340
100
AcDbEntity
  8
0
100
AcDbLine
 62
7
  6
CONTINUOUS
 10
566.9394644335
 20
274.5071428162
 11
567.4220697986
 21
274.50557471
  0
LINE
  5
341
100
AcDbEntity
  8
0
100
AcDbLine
 62
7
  6
CONTINUOUS
 10
566.9394602232
 20
266.5071426063
 11
567.4221805522
 21
266.5051675499
  0
LINE
  5
342
100
AcDbEntity
  8
0
100
AcDbLine
 62
7
  6
CONTINUOUS
 10
566.9394602232
 20
282.5071426063
 11
567.4221805522
 21
282.5051675499
  0
LINE
  5
343
100
AcDbEntity
  8
0
100
AcDbLine
 62
7
  6
CONTINUOUS
 10
566.9394602232
 20
290.5071426063
 11
567.4221805522
 21
290.5051675499
  0
LINE
  5
344
100
AcDbEntity
  8
0
100
AcDbLine
 62
7
  6
CONTINUOUS
 10
557.1134188946
 20
260.968721602
 11
556.6393905504
 21
260.9709901919
  0
LINE
  5
345
100
AcDbEntity
  8
0
100
AcDbLine
 62
7
  6
CONTINUOUS
 10
557.1134188946
 20
268.968721602
 11
556.6393905504
 21
268.9709901919
  0
LINE
  5
346
100
AcDbEntity
  8
0
100
AcDbLine
 62
7
  6
CONTINUOUS
 10
557.1134188946
 20
284.968721602
 11
556.6393905504
 21
284.9709901919
  0
LINE
  5
347
100
AcDbEntity
  8
0
100
AcDbLine
 62
7
  6
CONTINUOUS
 10
557.1134188946
 20
292.968721602
 11
556.6393905504
 21
292.9709901919
  0
LINE
  5
348
100
AcDbEntity
  8
0
100
AcDbLine
 62
7
  6
CONTINUOUS
 10
557.604620082
 20
261.9422869902
 11
556.9192841776
 21
261.9600146258
  0
LINE
  5
349
100
AcDbEntity
  8
0
100
AcDbLine
 62
7
  6
CONTINUOUS
 10
557.604620082
 20
269.9422869923
 11
556.9192841851
 21
269.9600146255
  0
LINE
  5
34A
100
AcDbEntity
  8
0
100
AcDbLine
 62
7
  6
CONTINUOUS
 10
557.604620082
 20
285.9422869902
 11
556.9192841776
 21
285.9600146258
  0
LINE
  5
34B
100
AcDbEntity
  8
0
100
AcDbLine
 62
7
  6
CONTINUOUS
 10
556.920321045
 20
293.9599877228
 11
557.604620082
 21
293.9422869955
  0
LINE
  5
34C
100
AcDbEntity
  8
0
100
AcDbLine
 62
7
  6
CONTINUOUS
 10
557.604620082
 20
277.9422021254
 11
556.9222534094
 21
277.9599909862
  0
LINE
  5
34D
100
AcDbEntity
  8
0
100
AcDbLine
 62
7
  6
CONTINUOUS
 10
557.6395195787
 20
260.9411406379
 11
557.1134861878
 21
260.968721602
  0
LINE
  5
34E
100
AcDbEntity
  8
0
100
AcDbLine
 62
7
  6
CONTINUOUS
 10
566.4656973247
 20
260.9778920625
 11
557.1134194575
 21
261.4680241767
  0
LINE
  5
34F
100
AcDbEntity
  8
0
100
AcDbLine
 62
7
  6
CONTINUOUS
 10
557.604619998
 20
261.9422869923
 11
566.4763809278
 21
261.4772142661
  0
LINE
  5
350
100
AcDbEntity
  8
0
100
AcDbLine
 62
7
  6
CONTINUOUS
 10
557.6395195787
 20
268.9411406379
 11
557.1134861878
 21
268.968721602
  0
LINE
  5
351
100
AcDbEntity
  8
0
100
AcDbLine
 62
7
  6
CONTINUOUS
 10
566.4656973247
 20
268.9778920625
 11
557.1134194575
 21
269.4680241767
  0
LINE
  5
352
100
AcDbEntity
  8
0
100
AcDbLine
 62
7
  6
CONTINUOUS
 10
557.6046199207
 20
269.9422869963
 11
566.4763809278
 21
269.4772142661
  0
LINE
  5
353
100
AcDbEntity
  8
0
100
AcDbLine
 62
7
  6
CONTINUOUS
 10
557.6395195787
 20
276.9411405133
 11
557.1134820709
 21
276.9687210856
  0
LINE
  5
354
100
AcDbEntity
  8
0
100
AcDbLine
 62
7
  6
CONTINUOUS
 10
557.1133492339
 20
277.468027857
 11
566.4656963847
 21
276.9778921117
  0
LINE
  5
355
100
AcDbEntity
  8
0
100
AcDbLine
 62
7
  6
CONTINUOUS
 10
557.6046198159
 20
277.9421881379
 11
566.4754651324
 21
277.4772540842
  0
LINE
  5
356
100
AcDbEntity
  8
0
100
AcDbLine
 62
7
  6
CONTINUOUS
 10
557.6395195787
 20
284.9411406379
 11
557.1134861878
 21
284.968721602
  0
LINE
  5
357
100
AcDbEntity
  8
0
100
AcDbLine
 62
7
  6
CONTINUOUS
 10
566.4656973247
 20
284.9778920625
 11
557.1134194575
 21
285.4680241767
  0
LINE
  5
358
100
AcDbEntity
  8
0
100
AcDbLine
 62
7
  6
CONTINUOUS
 10
557.604619998
 20
285.9422869922
 11
566.4763809278
 21
285.477214266
  0
LINE
  5
359
100
AcDbEntity
  8
0
100
AcDbLine
 62
7
  6
CONTINUOUS
 10
557.6395195787
 20
292.9411406379
 11
557.1134861878
 21
292.968721602
  0
LINE
  5
35A
100
AcDbEntity
  8
0
100
AcDbLine
 62
7
  6
CONTINUOUS
 10
566.4656973247
 20
292.9778920625
 11
557.1133837681
 21
293.4680260471
  0
LINE
  5
35B
100
AcDbEntity
  8
0
100
AcDbLine
 62
7
  6
CONTINUOUS
 10
557.6046198042
 20
293.9422870024
 11
566.4763809278
 21
293.477214266
  0
LINE
  5
35C
100
AcDbEntity
  8
0
100
AcDbLine
 62
7
  6
CONTINUOUS
 10
552.6395195787
 20
194.6134355093
 11
543.6395195781
 21
199.8095879323
  0
LINE
  5
35D
100
AcDbEntity
  8
0
100
AcDbLine
 62
7
  6
CONTINUOUS
 10
544.1133396412
 20
200.6756133357
 11
552.6395195787
 21
195.7479868139
  0
LWPOLYLINE
  5
35E
100
AcDbEntity
  8
0
100
AcDbPolyline
 62
7
  6
CONTINUOUS
 90
4
 70
0
 10
573.2224375382
 20
168.392860217
 10
573.1713924614
 20
168.423767672
 10
573.1357574302
 20
168.4976883816
 10
573.1224375394
 20
168.592860217
  0
LINE
  5
35F
100
AcDbEntity
  8
0
100
AcDbLine
 62
7
  6
CONTINUOUS
 10
566.4740201128
 20
317.7181668471
 11
553.60462201
 21
317.0434920741
  0
LINE
  5
360
100
AcDbEntity
  8
0
100
AcDbLine
 62
7
  6
CONTINUOUS
 10
553.1133837681
 20
317.5176943868
 11
566.46568503
 21
318.2174588443
  0
LINE
  5
361
100
AcDbEntity
  8
0
100
AcDbLine
 62
7
  6
CONTINUOUS
 10
553.1134862377
 20
318.0169956214
 11
553.6395195787
 21
318.044579796
  0
LINE
  5
362
100
AcDbEntity
  8
0
100
AcDbLine
 62
7
  6
CONTINUOUS
 10
566.4740201128
 20
325.7181668471
 11
553.6046222038
 21
325.0434920842
  0
LINE
  5
363
100
AcDbEntity
  8
0
100
AcDbLine
 62
7
  6
CONTINUOUS
 10
553.1133837681
 20
325.5176943868
 11
566.46568503
 21
326.2174588443
  0
LINE
  5
364
100
AcDbEntity
  8
0
100
AcDbLine
 62
7
  6
CONTINUOUS
 10
553.6395195787
 20
326.044579796
 11
553.1134862377
 21
326.0169956214
  0
LINE
  5
365
100
AcDbEntity
  8
0
100
AcDbLine
 62
7
  6
CONTINUOUS
 10
566.4740201128
 20
333.7181668471
 11
553.604619998
 21
333.0434334417
  0
LINE
  5
366
100
AcDbEntity
  8
0
100
AcDbLine
 62
7
  6
CONTINUOUS
 10
553.1133837681
 20
333.5176943868
 11
566.46568503
 21
334.2174588443
  0
LINE
  5
367
100
AcDbEntity
  8
0
100
AcDbLine
 62
7
  6
CONTINUOUS
 10
553.6395195787
 20
334.044579796
 11
553.1134862377
 21
334.0169956214
  0
LINE
  5
368
100
AcDbEntity
  8
0
100
AcDbLine
 62
7
  6
CONTINUOUS
 10
566.4740201128
 20
341.7181668471
 11
553.6046222038
 21
341.0434920842
  0
LINE
  5
369
100
AcDbEntity
  8
0
100
AcDbLine
 62
7
  6
CONTINUOUS
 10
553.1133837681
 20
341.5176943868
 11
566.46568503
 21
342.2174588443
  0
LINE
  5
36A
100
AcDbEntity
  8
0
100
AcDbLine
 62
7
  6
CONTINUOUS
 10
553.6395195787
 20
342.044579796
 11
553.1134862377
 21
342.0169956214
  0
LINE
  5
36B
100
AcDbEntity
  8
0
100
AcDbLine
 62
7
  6
CONTINUOUS
 10
552.9202179558
 20
317.0257298776
 11
553.604620082
 21
317.0434920741
  0
LINE
  5
36C
100
AcDbEntity
  8
0
100
AcDbLine
 62
7
  6
CONTINUOUS
 10
553.604620082
 20
325.0434920842
 11
552.9200486342
 21
325.0257254259
  0
LINE
  5
36D
100
AcDbEntity
  8
0
100
AcDbLine
 62
7
  6
CONTINUOUS
 10
553.604620082
 20
333.0434334438
 11
552.9200427744
 21
333.0257258637
  0
LINE
  5
36E
100
AcDbEntity
  8
0
100
AcDbLine
 62
7
  6
CONTINUOUS
 10
553.604620082
 20
341.0434920842
 11
552.9200486342
 21
341.0257254259
  0
LINE
  5
36F
100
AcDbEntity
  8
0
100
AcDbLine
 62
7
  6
CONTINUOUS
 10
552.6393905504
 20
318.0147362823
 11
553.1133972328
 21
318.0169956214
  0
LINE
  5
370
100
AcDbEntity
  8
0
100
AcDbLine
 62
7
  6
CONTINUOUS
 10
552.6393905504
 20
326.0147362823
 11
553.1133972328
 21
326.0169956214
  0
LINE
  5
371
100
AcDbEntity
  8
0
100
AcDbLine
 62
7
  6
CONTINUOUS
 10
552.6393905504
 20
334.0147362823
 11
553.1133972329
 21
334.0169956214
  0
LINE
  5
372
100
AcDbEntity
  8
0
100
AcDbLine
 62
7
  6
CONTINUOUS
 10
552.6393905504
 20
342.0147362823
 11
553.1133972328
 21
342.0169956214
  0
LINE
  5
373
100
AcDbEntity
  8
0
100
AcDbLine
 62
7
  6
CONTINUOUS
 10
521.9395195787
 20
302.892860217
 11
553.5395195787
 21
302.892860217
  0
LINE
  5
374
100
AcDbEntity
  8
0
100
AcDbLine
 62
7
  6
CONTINUOUS
 10
553.5395195787
 20
303.492860217
 11
521.6395195787
 21
303.492860217
  0
LINE
  5
375
100
AcDbEntity
  8
0
100
AcDbLine
 62
7
  6
CONTINUOUS
 10
553.5395195787
 20
307.3828020023
 11
554.0091676411
 21
307.3828020023
  0
LINE
  5
376
100
AcDbEntity
  8
0
100
AcDbLine
 62
7
  6
CONTINUOUS
 10
552.5137620687
 20
309.4070737193
 11
551.6918555349
 21
309.4070737193
  0
LINE
  5
377
100
AcDbEntity
  8
0
100
AcDbLine
 62
7
  6
CONTINUOUS
 10
552.6395195787
 20
309.6570737642
 11
553.604620082
 21
309.6570737642
  0
LINE
  5
378
100
AcDbEntity
  8
0
100
AcDbLine
 62
7
  6
CONTINUOUS
 10
521.8468803839
 20
326.942860217
 11
521.4395195787
 21
326.942860217
  0
LINE
  5
379
100
AcDbEntity
  8
0
100
AcDbLine
 62
7
  6
CONTINUOUS
 10
522.5871836224
 20
327.242860217
 11
521.1395195787
 21
327.242860217
  0
LINE
  5
37A
100
AcDbEntity
  8
0
100
AcDbLine
 62
7
  6
CONTINUOUS
 10
521.1395195787
 20
327.742860217
 11
522.5871836223
 21
327.742860217
  0
LINE
  5
37B
100
AcDbEntity
  8
0
100
AcDbLine
 62
7
  6
CONTINUOUS
 10
521.4395195787
 20
328.042860217
 11
521.8468803839
 21
328.042860217
  0
LINE
  5
37C
100
AcDbEntity
  8
0
100
AcDbLine
 62
7
  6
CONTINUOUS
 10
522.5871836393
 20
339.2562340656
 11
521.6395195787
 21
339.2562340656
  0
LINE
  5
37D
100
AcDbEntity
  8
0
100
AcDbLine
 62
7
  6
CONTINUOUS
 10
521.5395195787
 20
339.692860217
 11
521.6395195787
 21
339.692860217
  0
LINE
  5
37E
100
AcDbEntity
  8
0
100
AcDbLine
 62
7
  6
CONTINUOUS
 10
551.0485297265
 20
341.992860217
 11
552.6395195787
 21
341.992860217
  0
LINE
  5
37F
100
AcDbEntity
  8
0
100
AcDbLine
 62
7
  6
CONTINUOUS
 10
567.4220600317
 20
320.2685664503
 11
566.9395308897
 21
320.2689465565
  0
LINE
  5
380
100
AcDbEntity
  8
0
100
AcDbLine
 62
7
  6
CONTINUOUS
 10
567.4220600317
 20
328.2685664503
 11
566.9395308897
 21
328.2689465565
  0
LINE
  5
381
100
AcDbEntity
  8
0
100
AcDbLine
 62
7
  6
CONTINUOUS
 10
567.4220600317
 20
336.2685664503
 11
566.9395308897
 21
336.2689465565
  0
LINE
  5
382
100
AcDbEntity
  8
0
100
AcDbLine
 62
7
  6
CONTINUOUS
 10
567.4220600317
 20
344.2685664503
 11
566.9395308897
 21
344.2689465565
  0
LINE
  5
383
100
AcDbEntity
  8
0
100
AcDbLine
 62
7
  6
CONTINUOUS
 10
566.9394602232
 20
318.7167737235
 11
567.4221805522
 21
318.714798667
  0
LINE
  5
384
100
AcDbEntity
  8
0
100
AcDbLine
 62
7
  6
CONTINUOUS
 10
566.9394602232
 20
326.7167737235
 11
567.4221805522
 21
326.714798667
  0
LINE
  5
385
100
AcDbEntity
  8
0
100
AcDbLine
 62
7
  6
CONTINUOUS
 10
566.9394602232
 20
334.7167737235
 11
567.4221805522
 21
334.714798667
  0
LINE
  5
386
100
AcDbEntity
  8
0
100
AcDbLine
 62
7
  6
CONTINUOUS
 10
566.9394602232
 20
342.7167737235
 11
567.4221805522
 21
342.714798667
  0
LINE
  5
387
100
AcDbEntity
  8
0
100
AcDbLine
 62
7
  6
CONTINUOUS
 10
553.1134188945
 20
320.968721602
 11
552.6393905504
 21
320.9709901919
  0
LINE
  5
388
100
AcDbEntity
  8
0
100
AcDbLine
 62
7
  6
CONTINUOUS
 10
553.1134188945
 20
328.968721602
 11
552.6393905504
 21
328.9709901919
  0
LINE
  5
389
100
AcDbEntity
  8
0
100
AcDbLine
 62
7
  6
CONTINUOUS
 10
553.1134188946
 20
336.968721602
 11
552.6393905504
 21
336.9709901919
  0
LINE
  5
38A
100
AcDbEntity
  8
0
100
AcDbLine
 62
7
  6
CONTINUOUS
 10
553.1134188945
 20
344.968721602
 11
552.6393905504
 21
344.9709901919
  0
LINE
  5
38B
100
AcDbEntity
  8
0
100
AcDbLine
 62
7
  6
CONTINUOUS
 10
553.604620082
 20
321.9422283497
 11
552.9193566815
 21
321.9600137157
  0
LINE
  5
38C
100
AcDbEntity
  8
0
100
AcDbLine
 62
7
  6
CONTINUOUS
 10
553.604620082
 20
329.9422283497
 11
552.9193566815
 21
329.9600137157
  0
LINE
  5
38D
100
AcDbEntity
  8
0
100
AcDbLine
 62
7
  6
CONTINUOUS
 10
553.604620082
 20
337.9422283497
 11
552.9193566815
 21
337.9600137157
  0
LINE
  5
38E
100
AcDbEntity
  8
0
100
AcDbLine
 62
7
  6
CONTINUOUS
 10
553.1134861877
 20
320.968721602
 11
553.6395195787
 21
320.9411406379
  0
LINE
  5
38F
100
AcDbEntity
  8
0
100
AcDbLine
 62
7
  6
CONTINUOUS
 10
566.4656973247
 20
320.7682609453
 11
553.1134194575
 21
321.4680241767
  0
LINE
  5
390
100
AcDbEntity
  8
0
100
AcDbLine
 62
7
  6
CONTINUOUS
 10
553.6046222038
 20
321.9422283497
 11
566.4763809278
 21
321.2675831489
  0
LINE
  5
391
100
AcDbEntity
  8
0
100
AcDbLine
 62
7
  6
CONTINUOUS
 10
553.1134861877
 20
328.968721602
 11
553.6395195787
 21
328.9411406379
  0
LINE
  5
392
100
AcDbEntity
  8
0
100
AcDbLine
 62
7
  6
CONTINUOUS
 10
566.4656973247
 20
328.7682609453
 11
553.1134194575
 21
329.4680241767
  0
LINE
  5
393
100
AcDbEntity
  8
0
100
AcDbLine
 62
7
  6
CONTINUOUS
 10
553.6046222038
 20
329.9422283497
 11
566.4763809278
 21
329.2675831489
  0
LINE
  5
394
100
AcDbEntity
  8
0
100
AcDbLine
 62
7
  6
CONTINUOUS
 10
553.6395195787
 20
336.9411406379
 11
553.1134861877
 21
336.968721602
  0
LINE
  5
395
100
AcDbEntity
  8
0
100
AcDbLine
 62
7
  6
CONTINUOUS
 10
566.4656973247
 20
336.7682609453
 11
553.1134194575
 21
337.4680241767
  0
LINE
  5
396
100
AcDbEntity
  8
0
100
AcDbLine
 62
7
  6
CONTINUOUS
 10
553.6046222038
 20
337.9422283497
 11
566.4763809278
 21
337.2675831489
  0
LWPOLYLINE
  5
397
100
AcDbEntity
  8
0
100
AcDbPolyline
 62
7
  6
CONTINUOUS
 90
4
 70
0
 10
521.8468803839
 20
328.042860217
 10
521.9228865504
 20
328.037705023
 10
522.006249935
 20
328.0215067899
 10
522.0942160636
 20
327.9929943299
  0
LINE
  5
398
100
AcDbEntity
  8
0
100
AcDbLine
 62
7
  6
CONTINUOUS
 10
552.7829069063
 20
168.751678602
 11
553.4959469667
 21
168.026083765
  0
LINE
  5
399
100
AcDbEntity
  8
0
100
AcDbLine
 62
7
  6
CONTINUOUS
 10
575.881226675
 20
386.2049549616
 11
573.9193295814
 21
386.0333120628
  0
LINE
  5
39A
100
AcDbEntity
  8
0
100
AcDbLine
 62
7
  6
CONTINUOUS
 10
576.5007032184
 20
388.0490048858
 11
577.1124244272
 21
388.1025235606
  0
LINE
  5
39B
100
AcDbEntity
  8
0
100
AcDbLine
 62
7
  6
CONTINUOUS
 10
553.8439741728
 20
377.1091536606
 11
554.6395195811
 21
377.1230399573
  0
LINE
  5
39C
100
AcDbEntity
  8
0
100
AcDbLine
 62
7
  6
CONTINUOUS
 10
554.6395195787
 20
376.1217264196
 11
554.032273488
 21
376.1142022936
  0
LINE
  5
39D
100
AcDbEntity
  8
0
100
AcDbLine
 62
7
  6
CONTINUOUS
 10
551.0485297265
 20
347.592860217
 11
552.6395195787
 21
347.592860217
  0
LINE
  5
39E
100
AcDbEntity
  8
0
100
AcDbLine
 62
7
  6
CONTINUOUS
 10
573.6395354537
 20
351.8889683793
 11
573.1395195787
 21
351.8889683546
  0
LINE
  5
39F
100
AcDbEntity
  8
0
100
AcDbLine
 62
7
  6
CONTINUOUS
 10
548.5871834686
 20
357.3516952408
 11
547.6395195787
 21
357.3516952408
  0
LINE
  5
3A0
100
AcDbEntity
  8
0
100
AcDbLine
 62
7
  6
CONTINUOUS
 10
558.6395142673
 20
358.9775141916
 11
558.1395195787
 21
358.9775141929
  0
LINE
  5
3A1
100
AcDbEntity
  8
0
100
AcDbLine
 62
7
  6
CONTINUOUS
 10
547.6395195787
 20
362.992860217
 11
552.5131906016
 21
362.992860217
  0
LINE
  5
3A2
100
AcDbEntity
  8
0
100
AcDbLine
 62
7
  6
CONTINUOUS
 10
552.6395195787
 20
363.892860217
 11
548.1395195787
 21
363.892860217
  0
LINE
  5
3A3
100
AcDbEntity
  8
0
100
AcDbLine
 62
7
  6
CONTINUOUS
 10
552.171008317
 20
364.392860217
 11
547.6395195787
 21
364.392860217
  0
LINE
  5
3A4
100
AcDbEntity
  8
0
100
AcDbLine
 62
7
  6
CONTINUOUS
 10
562.1395195787
 20
376.492860217
 11
572.8395195787
 21
376.492860217
  0
LINE
  5
3A5
100
AcDbEntity
  8
0
100
AcDbLine
 62
7
  6
CONTINUOUS
 10
563.5395195787
 20
377.392860217
 11
566.0395195787
 21
377.392860217
  0
LINE
  5
3A6
100
AcDbEntity
  8
0
100
AcDbLine
 62
7
  6
CONTINUOUS
 10
554.6395195811
 20
377.492860217
 11
553.5395195787
 21
377.492860217
  0
LINE
  5
3A7
100
AcDbEntity
  8
0
100
AcDbLine
 62
7
  6
CONTINUOUS
 10
561.9395195787
 20
377.492860217
 11
562.7395195787
 21
377.492860217
  0
LINE
  5
3A8
100
AcDbEntity
  8
0
100
AcDbLine
 62
7
  6
CONTINUOUS
 10
554.6395195787
 20
377.7928602171
 11
558.1395195787
 21
377.792860217
  0
LINE
  5
3A9
100
AcDbEntity
  8
0
100
AcDbLine
 62
7
  6
CONTINUOUS
 10
554.6395195787
 20
377.992860217
 11
558.1395195787
 21
377.992860217
  0
LINE
  5
3AA
100
AcDbEntity
  8
0
100
AcDbLine
 62
7
  6
CONTINUOUS
 10
561.9395195787
 20
378.492860217
 11
558.6395195787
 21
378.492860217
  0
LINE
  5
3AB
100
AcDbEntity
  8
0
100
AcDbLine
 62
7
  6
CONTINUOUS
 10
566.5395195787
 20
378.492860217
 11
573.0395195787
 21
378.492860217
  0
LINE
  5
3AC
100
AcDbEntity
  8
0
100
AcDbLine
 62
7
  6
CONTINUOUS
 10
557.6395195787
 20
378.742860217
 11
558.6395195787
 21
378.742860217
  0
LINE
  5
3AD
100
AcDbEntity
  8
0
100
AcDbLine
 62
7
  6
CONTINUOUS
 10
553.3395195787
 20
379.992860217
 11
552.5395195787
 21
379.992860217
  0
LINE
  5
3AE
100
AcDbEntity
  8
0
100
AcDbLine
 62
7
  6
CONTINUOUS
 10
566.5395195787
 20
380.492860217
 11
563.0395195787
 21
380.492860217
  0
LINE
  5
3AF
100
AcDbEntity
  8
0
100
AcDbLine
 62
7
  6
CONTINUOUS
 10
552.5395195787
 20
380.992860217
 11
553.3395195787
 21
380.992860217
  0
LINE
  5
3B0
100
AcDbEntity
  8
0
100
AcDbLine
 62
7
  6
CONTINUOUS
 10
558.6395195787
 20
382.242860217
 11
557.6395195787
 21
382.242860217
  0
LINE
  5
3B1
100
AcDbEntity
  8
0
100
AcDbLine
 62
7
  6
CONTINUOUS
 10
573.0395195787
 20
382.492860217
 11
566.5395195787
 21
382.492860217
  0
LINE
  5
3B2
100
AcDbEntity
  8
0
100
AcDbLine
 62
7
  6
CONTINUOUS
 10
558.6395195787
 20
382.492860217
 11
561.9395195787
 21
382.492860217
  0
LINE
  5
3B3
100
AcDbEntity
  8
0
100
AcDbLine
 62
7
  6
CONTINUOUS
 10
558.1395195787
 20
382.992860217
 11
554.6395195787
 21
382.992860217
  0
LINE
  5
3B4
100
AcDbEntity
  8
0
100
AcDbLine
 62
7
  6
CONTINUOUS
 10
558.1395195787
 20
383.1928602171
 11
554.6395195787
 21
383.192860217
  0
LINE
  5
3B5
100
AcDbEntity
  8
0
100
AcDbLine
 62
7
  6
CONTINUOUS
 10
576.8584379499
 20
383.492860217
 11
573.0395195818
 21
383.492860217
  0
LINE
  5
3B6
100
AcDbEntity
  8
0
100
AcDbLine
 62
7
  6
CONTINUOUS
 10
562.7395195787
 20
383.492860217
 11
561.9395195787
 21
383.492860217
  0
LINE
  5
3B7
100
AcDbEntity
  8
0
100
AcDbLine
 62
7
  6
CONTINUOUS
 10
553.5395195787
 20
383.492860217
 11
554.6395195787
 21
383.492860217
  0
LINE
  5
3B8
100
AcDbEntity
  8
0
100
AcDbLine
 62
7
  6
CONTINUOUS
 10
566.039519639
 20
383.592860217
 11
566.5395195787
 21
383.592860217
  0
LINE
  5
3B9
100
AcDbEntity
  8
0
100
AcDbLine
 62
7
  6
CONTINUOUS
 10
577.0530927254
 20
383.692860217
 11
576.8584379499
 21
383.692860217
  0
LINE
  5
3BA
100
AcDbEntity
  8
0
100
AcDbLine
 62
7
  6
CONTINUOUS
 10
563.0395195787
 20
383.892860217
 11
562.1521110642
 21
383.892860217
  0
LINE
  5
3BB
100
AcDbEntity
  8
0
100
AcDbLine
 62
7
  6
CONTINUOUS
 10
573.7395195787
 20
384.092860217
 11
567.0395195787
 21
384.092860217
  0
LINE
  5
3BC
100
AcDbEntity
  8
0
100
AcDbLine
 62
7
  6
CONTINUOUS
 10
574.0395195787
 20
384.392860217
 11
573.2224375382
 21
384.392860217
  0
LINE
  5
3BD
100
AcDbEntity
  8
0
100
AcDbLine
 62
7
  6
CONTINUOUS
 10
567.0395225869
 20
384.5928600966
 11
573.1224375394
 21
384.592860217
  0
LINE
  5
3BE
100
AcDbEntity
  8
0
100
AcDbLine
 62
7
  6
CONTINUOUS
 10
563.0395195787
 20
385.092860217
 11
562.0381650555
 21
385.092860217
  0
LINE
  5
3BF
100
AcDbEntity
  8
0
100
AcDbLine
 62
7
  6
CONTINUOUS
 10
562.0395195787
 20
385.492860217
 11
563.0395195787
 21
385.492860217
  0
LINE
  5
3C0
100
AcDbEntity
  8
0
100
AcDbLine
 62
7
  6
CONTINUOUS
 10
573.9339524793
 20
385.792860217
 11
574.0395195787
 21
385.792860217
  0
LINE
  5
3C1
100
AcDbEntity
  8
0
100
AcDbLine
 62
7
  6
CONTINUOUS
 10
573.6484722505
 20
386.092860217
 11
573.7395195787
 21
386.092860217
  0
LINE
  5
3C2
100
AcDbEntity
  8
0
100
AcDbLine
 62
7
  6
CONTINUOUS
 10
575.8812270476
 20
386.2049616467
 11
576.0758796465
 21
386.2049622087
  0
LINE
  5
3C3
100
AcDbEntity
  8
0
100
AcDbLine
 62
7
  6
CONTINUOUS
 10
563.0395195787
 20
387.592860217
 11
573.1224375394
 21
387.5928601036
  0
LINE
  5
3C4
100
AcDbEntity
  8
0
100
AcDbLine
 62
7
  6
CONTINUOUS
 10
573.2224375394
 20
387.792860217
 11
573.2772434268
 21
387.792860217
  0
LINE
  5
3C5
100
AcDbEntity
  8
0
100
AcDbLine
 62
7
  6
CONTINUOUS
 10
573.0089152936
 20
388.092860217
 11
563.5395195787
 21
388.092860217
  0
LINE
  5
3C6
100
AcDbEntity
  8
0
100
AcDbLine
 62
7
  6
CONTINUOUS
 10
577.3852158626
 20
381.4921127669
 11
573.1053379021
 21
381.492860217
  0
LINE
  5
3C7
100
AcDbEntity
  8
0
100
AcDbLine
 62
7
  6
CONTINUOUS
 10
553.8440110076
 20
383.8765661304
 11
554.6395195787
 21
383.8626804767
  0
LINE
  5
3C8
100
AcDbEntity
  8
0
100
AcDbLine
 62
7
  6
CONTINUOUS
 10
554.0309686754
 20
384.8728459273
 11
554.6395195787
 21
384.8622236317
  0
LINE
  5
3C9
100
AcDbEntity
  8
0
100
AcDbLine
 62
7
  6
CONTINUOUS
 10
553.604620082
 20
345.9422283599
 11
552.9193566912
 21
345.9600137151
  0
LINE
  5
3CA
100
AcDbEntity
  8
0
100
AcDbLine
 62
7
  6
CONTINUOUS
 10
553.1134861877
 20
344.968721602
 11
553.6395195787
 21
344.9411406379
  0
LINE
  5
3CB
100
AcDbEntity
  8
0
100
AcDbLine
 62
7
  6
CONTINUOUS
 10
566.4656973247
 20
344.7682609453
 11
553.1134194575
 21
345.4680241767
  0
LINE
  5
3CC
100
AcDbEntity
  8
0
100
AcDbLine
 62
7
  6
CONTINUOUS
 10
553.60462201
 20
345.9422283599
 11
566.4763809278
 21
345.2675831489
  0
LINE
  5
3CD
100
AcDbEntity
  8
0
100
AcDbLine
 62
7
  6
CONTINUOUS
 10
558.6395195787
 20
377.2630559539
 11
558.1395195787
 21
377.3512194442
  0
LINE
  5
3CE
100
AcDbEntity
  8
0
100
AcDbLine
 62
7
  6
CONTINUOUS
 10
572.0476713617
 20
353.3325186845
 11
559.99408623
 21
356.5622670917
  0
LINE
  5
3CF
100
AcDbEntity
  8
0
100
AcDbLine
 62
7
  6
CONTINUOUS
 10
560.1332788999
 20
357.0426086132
 11
572.1685542368
 21
353.817766306
  0
LINE
  5
3D0
100
AcDbEntity
  8
0
100
AcDbLine
 62
7
  6
CONTINUOUS
 10
560.1218814885
 20
357.3956625403
 11
572.1571576689
 21
354.1708200071
  0
LINE
  5
3D1
100
AcDbEntity
  8
0
100
AcDbLine
 62
7
  6
CONTINUOUS
 10
577.1879163079
 20
172.4001679079
 11
577.2028473065
 21
172.3854695661
  0
LINE
  5
3D2
100
AcDbEntity
  8
0
100
AcDbLine
 62
7
  6
CONTINUOUS
 10
551.6395195786
 20
208.1928602179
 11
550.6395195787
 21
209.192860217
  0
LINE
  5
3D3
100
AcDbEntity
  8
0
100
AcDbLine
 62
7
  6
CONTINUOUS
 10
548.2859661881
 20
219.6322000452
 11
547.9324127975
 21
219.9857534358
  0
LINE
  5
3D4
100
AcDbEntity
  8
0
100
AcDbLine
 62
7
  6
CONTINUOUS
 10
552.8395195787
 20
220.4929415651
 11
553.3396416108
 21
219.992860217
  0
LINE
  5
3D5
100
AcDbEntity
  8
0
100
AcDbLine
 62
7
  6
CONTINUOUS
 10
554.4871843386
 20
220.3689467089
 11
554.7515971697
 21
220.1045343642
  0
LINE
  5
3D6
100
AcDbEntity
  8
0
100
AcDbLine
 62
7
  6
CONTINUOUS
 10
553.6046202758
 20
169.3067012108
 11
554.0322734881
 21
168.8715181404
  0
LINE
  5
3D7
100
AcDbEntity
  8
0
100
AcDbLine
 62
7
  6
CONTINUOUS
 10
553.113385529
 20
201.4679919798
 11
552.6394673429
 21
201.9673975454
  0
LINE
  5
3D8
100
AcDbEntity
  8
0
100
AcDbLine
 62
7
  6
CONTINUOUS
 10
553.113385529
 20
209.4679919798
 11
552.6394673429
 21
209.9673975454
  0
LWPOLYLINE
  5
3D9
100
AcDbEntity
  8
0
100
AcDbPolyline
 62
7
  6
CONTINUOUS
 90
4
 70
0
 10
550.3460189108
 20
171.654986273
 10
550.2887596782
 20
171.7244127946
 10
550.2522650382
 20
171.7419639283
 10
550.2395195787
 20
171.7052957822
  0
LINE
  5
3DA
100
AcDbEntity
  8
0
100
AcDbLine
 62
7
  6
CONTINUOUS
 10
568.0571576683
 20
392.0956625402
 11
560.1218814886
 21
389.9694116961
  0
LINE
  5
3DB
100
AcDbEntity
  8
0
100
AcDbLine
 62
7
  6
CONTINUOUS
 10
568.0685546173
 20
392.3987163435
 11
560.1332789947
 21
390.2724656487
  0
LINE
  5
3DC
100
AcDbEntity
  8
0
100
AcDbLine
 62
7
  6
CONTINUOUS
 10
559.99298196
 20
390.7525112618
 11
567.9277378375
 21
392.8786226913
  0
LINE
  5
3DD
100
AcDbEntity
  8
0
100
AcDbLine
 62
7
  6
CONTINUOUS
 10
558.1395195786
 20
383.6345009898
 11
558.6395195787
 21
383.7226644801
  0
LINE
  5
3DE
100
AcDbEntity
  8
0
100
AcDbLine
 62
7
  6
CONTINUOUS
 10
576.9003410258
 20
388.3017624906
 11
573.3760672817
 21
387.9934284909
  0
LINE
  5
3DF
100
AcDbEntity
  8
0
100
AcDbLine
 62
7
  6
CONTINUOUS
 10
562.9009277096
 20
387.0769725295
 11
562.1220883891
 21
387.0088329182
  0
LINE
  5
3E0
100
AcDbEntity
  8
0
100
AcDbLine
 62
7
  6
CONTINUOUS
 10
562.1395274375
 20
387.1479633562
 11
562.8889602076
 21
387.2135387243
  0
LINE
  5
3E1
100
AcDbEntity
  8
0
100
AcDbLine
 62
7
  6
CONTINUOUS
 10
573.3641037471
 20
388.1301137945
 11
577.0083067647
 21
388.4489815622
  0
LINE
  5
3E2
100
AcDbEntity
  8
0
100
AcDbLine
 62
7
  6
CONTINUOUS
 10
577.2998844561
 20
389.6189241843
 11
577.5395195663
 21
389.6398902867
  0
LINE
  5
3E3
100
AcDbEntity
  8
0
100
AcDbLine
 62
7
  6
CONTINUOUS
 10
562.1220884301
 20
388.5088329218
 11
577.3154589013
 21
389.8380805988
  0
LINE
  5
3E4
100
AcDbEntity
  8
0
100
AcDbLine
 62
7
  6
CONTINUOUS
 10
552.3652568086
 20
408.5484886923
 11
551.6918555349
 21
408.501460507
  0
LINE
  5
3E5
100
AcDbEntity
  8
0
100
AcDbLine
 62
7
  6
CONTINUOUS
 10
551.6918554912
 20
408.501460507
 11
548.5871831865
 21
408.3930440193
  0
LINE
  5
3E6
100
AcDbEntity
  8
0
100
AcDbLine
 62
7
  6
CONTINUOUS
 10
548.6046200815
 20
409.3924338048
 11
552.5849956386
 21
409.5314315821
  0
LINE
  5
3E7
100
AcDbEntity
  8
0
100
AcDbLine
 62
7
  6
CONTINUOUS
 10
553.6046204088
 20
409.5670376637
 11
569.0395196189
 21
410.1060362211
  0
LINE
  5
3E8
100
AcDbEntity
  8
0
100
AcDbLine
 62
7
  6
CONTINUOUS
 10
558.6395849102
 20
406.2447321447
 11
553.6046178719
 21
406.0695175271
  0
LINE
  5
3E9
100
AcDbEntity
  8
0
100
AcDbLine
 62
7
  6
CONTINUOUS
 10
580.9395722098
 20
407.0222057716
 11
569.5395195787
 21
406.7775713905
  0
LINE
  5
3EA
100
AcDbEntity
  8
0
100
AcDbLine
 62
7
  6
CONTINUOUS
 10
558.6395195787
 20
410.042860217
 11
569.0360876382
 21
410.2659625358
  0
LINE
  5
3EB
100
AcDbEntity
  8
0
100
AcDbLine
 62
7
  6
CONTINUOUS
 10
569.5395195787
 20
410.2767657964
 11
581.9394478871
 21
410.5428702984
  0
LINE
  5
3EC
100
AcDbEntity
  8
0
100
AcDbLine
 62
7
  6
CONTINUOUS
 10
558.6395226257
 20
388.3375600638
 11
558.1395195786
 21
388.3375600435
  0
LINE
  5
3ED
100
AcDbEntity
  8
0
100
AcDbLine
 62
7
  6
CONTINUOUS
 10
569.0395194676
 20
394.3275141297
 11
569.5395194365
 21
394.3275140665
  0
LINE
  5
3EE
100
AcDbEntity
  8
0
100
AcDbLine
 62
7
  6
CONTINUOUS
 10
552.6724812061
 20
406.0691516977
 11
553.6046184816
 21
406.0691696305
  0
LINE
  5
3EF
100
AcDbEntity
  8
0
100
AcDbLine
 62
7
  6
CONTINUOUS
 10
581.9394478871
 20
407.0222075833
 11
580.9395722383
 21
407.0222048777
  0
LINE
  5
3F0
100
AcDbEntity
  8
0
100
AcDbLine
 62
7
  6
CONTINUOUS
 10
547.6395195787
 20
408.3930450904
 11
548.5871834044
 21
408.3930450904
  0
LINE
  5
3F1
100
AcDbEntity
  8
0
100
AcDbLine
 62
7
  6
CONTINUOUS
 10
562.7395195787
 20
410.392860217
 11
561.9395195787
 21
410.392860217
  0
LINE
  5
3F2
100
AcDbEntity
  8
0
100
AcDbLine
 62
7
  6
CONTINUOUS
 10
553.5395195787
 20
410.392860217
 11
557.6395195787
 21
410.392860217
  0
LINE
  5
3F3
100
AcDbEntity
  8
0
100
AcDbLine
 62
7
  6
CONTINUOUS
 10
563.5395195787
 20
410.492860217
 11
567.0395225869
 21
410.492860217
  0
LINE
  5
3F4
100
AcDbEntity
  8
0
100
AcDbLine
 62
7
  6
CONTINUOUS
 10
568.9395195786
 20
410.742860217
 11
568.7395195787
 21
410.742860217
  0
LINE
  5
3F5
100
AcDbEntity
  8
0
100
AcDbLine
 62
7
  6
CONTINUOUS
 10
567.7395195787
 20
410.742860217
 11
567.5395195787
 21
410.742860217
  0
LINE
  5
3F6
100
AcDbEntity
  8
0
100
AcDbLine
 62
7
  6
CONTINUOUS
 10
566.5395195787
 20
410.742860217
 11
566.3395195787
 21
410.742860217
  0
LINE
  5
3F7
100
AcDbEntity
  8
0
100
AcDbLine
 62
7
  6
CONTINUOUS
 10
589.1795195786
 20
411.8928602168
 11
590.6795195787
 21
411.892860217
  0
LINE
  5
3F8
100
AcDbEntity
  8
0
100
AcDbLine
 62
7
  6
CONTINUOUS
 10
581.9395195787
 20
412.342860217
 11
589.3395195787
 21
412.342860217
  0
LINE
  5
3F9
100
AcDbEntity
  8
0
100
AcDbLine
 62
7
  6
CONTINUOUS
 10
563.3395195787
 20
414.342860217
 11
562.8091308035
 21
414.342860217
  0
LINE
  5
3FA
100
AcDbEntity
  8
0
100
AcDbLine
 62
7
  6
CONTINUOUS
 10
590.3795195789
 20
417.892860217
 11
589.1795195785
 21
417.892860217
  0
LINE
  5
3FB
100
AcDbEntity
  8
0
100
AcDbLine
 62
7
  6
CONTINUOUS
 10
569.5395197267
 20
406.2407292044
 11
558.6395849102
 21
406.2447321447
  0
LINE
  5
3FC
100
AcDbEntity
  8
0
100
AcDbLine
 62
7
  6
CONTINUOUS
 10
589.0656663037
 20
419.3694031639
 11
582.2656695579
 21
419.9643257912
  0
LWPOLYLINE
  5
3FD
100
AcDbEntity
  8
0
100
AcDbPolyline
 62
7
  6
CONTINUOUS
 90
4
 70
0
 10
577.3154589013
 20
389.8380805988
 10
577.4230066935
 20
389.8192114093
 10
577.5048548748
 20
389.7505090354
 10
577.5395193646
 20
389.6398902867
  0
LINE
  5
3FE
100
AcDbEntity
  8
0
100
AcDbLine
 62
7
  6
CONTINUOUS
 10
573.2185407317
 20
388.0241677003
 11
573.0056366358
 21
388.0925925939
  0
LINE
  5
3FF
100
AcDbEntity
  8
0
100
AcDbLine
 62
7
  6
CONTINUOUS
 10
555.9895195787
 20
269.017860217
 11
556.3379545912
 21
268.6694252045
  0
LINE
  5
400
100
AcDbEntity
  8
0
100
AcDbLine
 62
7
  6
CONTINUOUS
 10
556.6395212476
 20
229.9682081757
 11
557.1142178458
 21
229.467982335
  0
LINE
  5
401
100
AcDbEntity
  8
0
100
AcDbLine
 62
7
  6
CONTINUOUS
 10
557.113385529
 20
237.4679919798
 11
556.6394150847
 21
237.9674526141
  0
LINE
  5
402
100
AcDbEntity
  8
0
100
AcDbLine
 62
7
  6
CONTINUOUS
 10
557.113385529
 20
245.4679919798
 11
556.6394150847
 21
245.967452614
  0
LINE
  5
403
100
AcDbEntity
  8
0
100
AcDbLine
 62
7
  6
CONTINUOUS
 10
557.1133500835
 20
253.4680293316
 11
556.6395102397
 21
253.9673523415
  0
LINE
  5
404
100
AcDbEntity
  8
0
100
AcDbLine
 62
7
  6
CONTINUOUS
 10
557.113385529
 20
261.4679919798
 11
556.6394150847
 21
261.9674526141
  0
LINE
  5
405
100
AcDbEntity
  8
0
100
AcDbLine
 62
7
  6
CONTINUOUS
 10
557.113385529
 20
269.4679919798
 11
556.6394150847
 21
269.967452614
  0
LINE
  5
406
100
AcDbEntity
  8
0
100
AcDbLine
 62
7
  6
CONTINUOUS
 10
557.1133500835
 20
277.4680293316
 11
556.6395102397
 21
277.9673523415
  0
LWPOLYLINE
  5
407
100
AcDbEntity
  8
0
100
AcDbPolyline
 62
7
  6
CONTINUOUS
 90
4
 70
0
 10
573.2772434268
 20
387.792860217
 10
573.3211826293
 20
387.7711797015
 10
573.3551882723
 20
387.7164161452
 10
573.3742576878
 20
387.641367342
  0
LWPOLYLINE
  5
408
100
AcDbEntity
  8
0
100
AcDbPolyline
 62
7
  6
CONTINUOUS
 90
4
 70
0
 10
573.2224375382
 20
384.392860217
 10
573.1713924614
 20
384.423767672
 10
573.1357574302
 20
384.4976883816
 10
573.1224375394
 20
384.592860217
  0
LINE
  5
409
100
AcDbEntity
  8
0
100
AcDbLine
 62
7
  6
CONTINUOUS
 10
553.2137098878
 20
307.0567913705
 11
552.2776588783
 21
307.9928421257
  0
LINE
  5
40A
100
AcDbEntity
  8
0
100
AcDbLine
 62
7
  6
CONTINUOUS
 10
556.3466655741
 20
305.5357142215
 11
552.9324127975
 21
308.9499669982
  0
LINE
  5
40B
100
AcDbEntity
  8
0
100
AcDbLine
 62
7
  6
CONTINUOUS
 10
553.613339835
 20
309.6570735855
 11
557.6046202758
 21
305.6570735855
  0
LINE
  5
40C
100
AcDbEntity
  8
0
100
AcDbLine
 62
7
  6
CONTINUOUS
 10
557.113385529
 20
285.4679919798
 11
556.6394150847
 21
285.9674526141
  0
LINE
  5
40D
100
AcDbEntity
  8
0
100
AcDbLine
 62
7
  6
CONTINUOUS
 10
557.1133516075
 20
293.4680277257
 11
556.6394673429
 21
293.9673975454
  0
LINE
  5
40E
100
AcDbEntity
  8
0
100
AcDbLine
 62
7
  6
CONTINUOUS
 10
553.113385529
 20
321.4679919798
 11
552.6394673428
 21
321.9673975454
  0
LINE
  5
40F
100
AcDbEntity
  8
0
100
AcDbLine
 62
7
  6
CONTINUOUS
 10
553.113385529
 20
329.4679919798
 11
552.6394673428
 21
329.9673975454
  0
LINE
  5
410
100
AcDbEntity
  8
0
100
AcDbLine
 62
7
  6
CONTINUOUS
 10
553.113385529
 20
337.4679919798
 11
552.6394673428
 21
337.9673975454
  0
LINE
  5
411
100
AcDbEntity
  8
0
100
AcDbLine
 62
7
  6
CONTINUOUS
 10
553.113385529
 20
345.4679919798
 11
552.6394673429
 21
345.9673975453
  0
LINE
  5
412
100
AcDbEntity
  8
0
100
AcDbLine
 62
7
  6
CONTINUOUS
 10
577.1879163063
 20
388.4001679092
 11
577.2028473065
 21
388.3854695662
  0
LINE
  5
413
100
AcDbEntity
  8
0
100
AcDbLine
 62
7
  6
CONTINUOUS
 10
552.7829069062
 20
384.751678602
 11
553.4959469667
 21
384.026083765
  0
LINE
  5
414
100
AcDbEntity
  8
0
100
AcDbLine
 62
7
  6
CONTINUOUS
 10
553.6046190914
 20
385.306701813
 11
554.0309686754
 21
384.8728459273
  0
LINE
  5
415
100
AcDbEntity
  8
0
100
AcDbLine
 62
7
  6
CONTINUOUS
 10
573.4036189199
 20
171.6785118247
 11
573.241312345
 21
171.9816389615
  0
LINE
  5
416
100
AcDbEntity
  8
0
100
AcDbLine
 62
7
  6
CONTINUOUS
 10
563.2942781329
 20
411.2571218072
 11
562.9536367792
 21
411.7121491557
  0
LINE
  5
417
100
AcDbEntity
  8
0
100
AcDbLine
 62
7
  6
CONTINUOUS
 10
563.5006306898
 20
412.742860217
 11
563.1599893361
 21
413.1978875655
  0
LINE
  5
418
100
AcDbEntity
  8
0
100
AcDbLine
 62
7
  6
CONTINUOUS
 10
573.4036189199
 20
387.6785118247
 11
573.2413123449
 21
387.9816389615
  0
LINE
  5
419
100
AcDbEntity
  8
0
100
AcDbLine
 62
7
  6
CONTINUOUS
 10
573.6773739802
 20
170.0945543321
 11
573.5589417699
 21
170.435941336
  0
LWPOLYLINE
  5
41A
100
AcDbEntity
  8
0
100
AcDbPolyline
 62
7
  6
CONTINUOUS
 90
4
 70
0
 10
550.2395195787
 20
169.2804246517
 10
550.2521594894
 20
169.2438001851
 10
550.2885486476
 20
169.2611154777
 10
550.3460189108
 20
169.330734161
  0
LWPOLYLINE
  5
41B
100
AcDbEntity
  8
0
100
AcDbPolyline
 62
7
  6
CONTINUOUS
 90
4
 70
0
 10
573.9338829823
 20
169.792860217
 10
573.8915773274
 20
169.9426694117
 10
573.7913963054
 20
170.050922097
 10
573.6486100945
 20
170.092860217
  0
LINE
  5
41C
100
AcDbEntity
  8
0
100
AcDbLine
 62
7
  6
CONTINUOUS
 10
560.0123951812
 20
188.4283592162
 11
560.1332849153
 21
187.9430894053
  0
LINE
  5
41D
100
AcDbEntity
  8
0
100
AcDbLine
 62
7
  6
CONTINUOUS
 10
572.1685470265
 20
191.1679840758
 11
572.0476713799
 21
191.6532017543
  0
LINE
  5
41E
100
AcDbEntity
  8
0
100
AcDbLine
 62
7
  6
CONTINUOUS
 10
573.6773739803
 20
386.094554332
 11
573.5589417699
 21
386.4359413359
  0
LWPOLYLINE
  5
41F
100
AcDbEntity
  8
0
100
AcDbPolyline
 62
7
  6
CONTINUOUS
 90
4
 70
0
 10
573.9338829823
 20
385.792860217
 10
573.8915773274
 20
385.9426694117
 10
573.7913963054
 20
386.050922097
 10
573.6486100945
 20
386.092860217
  0
LINE
  5
420
100
AcDbEntity
  8
0
100
AcDbLine
 62
7
  6
CONTINUOUS
 10
560.0123951812
 20
390.7577130187
 11
560.133282368
 21
390.2724534722
  0
LINE
  5
421
100
AcDbEntity
  8
0
100
AcDbLine
 62
7
  6
CONTINUOUS
 10
568.0685498769
 20
392.398736387
 11
567.9476713617
 21
392.883963863
  0
LWPOLYLINE
  5
422
100
AcDbEntity
  8
0
100
AcDbPolyline
 62
7
  6
CONTINUOUS
 90
4
 70
0
 10
522.0942160635
 20
326.9927261041
 10
522.0904547718
 20
327.0595704733
 10
522.0880238945
 20
327.1460333827
 10
522.0871836224
 20
327.242860217
  0
LINE
  5
423
100
AcDbEntity
  8
0
100
AcDbLine
 62
7
  6
CONTINUOUS
 10
577.4692435906
 20
166.8195531667
 11
577.5395195702
 21
166.2910203476
  0
LINE
  5
424
100
AcDbEntity
  8
0
100
AcDbLine
 62
7
  6
CONTINUOUS
 10
573.5295746445
 20
170.3988316976
 11
573.3742576878
 21
171.641367342
  0
LWPOLYLINE
  5
425
100
AcDbEntity
  8
0
100
AcDbPolyline
 62
7
  6
CONTINUOUS
 90
4
 70
0
 10
543.6093018714
 20
204.9928722456
 10
543.6067976431
 20
205.0597101147
 10
543.6051794128
 20
205.1461168436
 10
543.604620082
 20
205.242860217
  0
LINE
  5
426
100
AcDbEntity
  8
0
100
AcDbLine
 62
7
  6
CONTINUOUS
 10
566.465695839
 20
250.007893423
 11
566.4757671156
 21
249.5084972048
  0
LINE
  5
427
100
AcDbEntity
  8
0
100
AcDbLine
 62
7
  6
CONTINUOUS
 10
566.465695839
 20
274.007893423
 11
566.4757671156
 21
273.5084972048
  0
LINE
  5
428
100
AcDbEntity
  8
0
100
AcDbLine
 62
7
  6
CONTINUOUS
 10
557.604620082
 20
225.0427536533
 11
557.5958859138
 21
225.5429812527
  0
LINE
  5
429
100
AcDbEntity
  8
0
100
AcDbLine
 62
7
  6
CONTINUOUS
 10
566.474421725
 20
225.5076002601
 11
566.4656875568
 21
226.0078278595
  0
LINE
  5
42A
100
AcDbEntity
  8
0
100
AcDbLine
 62
7
  6
CONTINUOUS
 10
557.6046169777
 20
249.04363534
 11
557.5960968119
 21
249.5430179658
  0
LINE
  5
42B
100
AcDbEntity
  8
0
100
AcDbLine
 62
7
  6
CONTINUOUS
 10
557.6046169777
 20
273.04363534
 11
557.5960968118
 21
273.5430179658
  0
LINE
  5
42C
100
AcDbEntity
  8
0
100
AcDbLine
 62
7
  6
CONTINUOUS
 10
553.5962037139
 20
197.5429979172
 11
553.6046138765
 21
197.0436085324
  0
LINE
  5
42D
100
AcDbEntity
  8
0
100
AcDbLine
 62
7
  6
CONTINUOUS
 10
553.5962037139
 20
205.5429979172
 11
553.6046140704
 21
205.0436085425
  0
LINE
  5
42E
100
AcDbEntity
  8
0
100
AcDbLine
 62
7
  6
CONTINUOUS
 10
553.5962037139
 20
317.5429979172
 11
553.6046138765
 21
317.0436085324
  0
LINE
  5
42F
100
AcDbEntity
  8
0
100
AcDbLine
 62
7
  6
CONTINUOUS
 10
553.6046140704
 20
325.0436085425
 11
553.5962037139
 21
325.5429979172
  0
LINE
  5
430
100
AcDbEntity
  8
0
100
AcDbLine
 62
7
  6
CONTINUOUS
 10
553.6046098295
 20
333.0435498461
 11
553.5962037383
 21
333.5430368874
  0
LINE
  5
431
100
AcDbEntity
  8
0
100
AcDbLine
 62
7
  6
CONTINUOUS
 10
553.6046140704
 20
341.0436085425
 11
553.5962037139
 21
341.5429979172
  0
LINE
  5
432
100
AcDbEntity
  8
0
100
AcDbLine
 62
7
  6
CONTINUOUS
 10
557.5962037383
 20
233.5430368874
 11
557.6046096626
 21
233.0435498373
  0
LINE
  5
433
100
AcDbEntity
  8
0
100
AcDbLine
 62
7
  6
CONTINUOUS
 10
557.6046098295
 20
241.0435498461
 11
557.5962037383
 21
241.5430368874
  0
LINE
  5
434
100
AcDbEntity
  8
0
100
AcDbLine
 62
7
  6
CONTINUOUS
 10
557.6046097522
 20
257.0435498421
 11
557.5962037383
 21
257.5430368874
  0
LINE
  5
435
100
AcDbEntity
  8
0
100
AcDbLine
 62
7
  6
CONTINUOUS
 10
557.6046098295
 20
265.0435498461
 11
557.5962037383
 21
265.5430368874
  0
LINE
  5
436
100
AcDbEntity
  8
0
100
AcDbLine
 62
7
  6
CONTINUOUS
 10
557.6046097522
 20
281.0435498421
 11
557.5962037383
 21
281.5430368874
  0
LINE
  5
437
100
AcDbEntity
  8
0
100
AcDbLine
 62
7
  6
CONTINUOUS
 10
557.6046098295
 20
289.0435498461
 11
557.5962037383
 21
289.5430368874
  0
LINE
  5
438
100
AcDbEntity
  8
0
100
AcDbLine
 62
7
  6
CONTINUOUS
 10
566.4656862037
 20
198.2174470789
 11
566.4740219759
 21
197.7181455197
  0
LINE
  5
439
100
AcDbEntity
  8
0
100
AcDbLine
 62
7
  6
CONTINUOUS
 10
566.4656862037
 20
206.2174470789
 11
566.4740219759
 21
205.7181455197
  0
LINE
  5
43A
100
AcDbEntity
  8
0
100
AcDbLine
 62
7
  6
CONTINUOUS
 10
566.4656862038
 20
234.0078159617
 11
566.4740219759
 21
233.5085144026
  0
LINE
  5
43B
100
AcDbEntity
  8
0
100
AcDbLine
 62
7
  6
CONTINUOUS
 10
566.4656862038
 20
242.0078159617
 11
566.4740219759
 21
241.5085144026
  0
LINE
  5
43C
100
AcDbEntity
  8
0
100
AcDbLine
 62
7
  6
CONTINUOUS
 10
566.4656862038
 20
258.0078159617
 11
566.4740219759
 21
257.5085144026
  0
LINE
  5
43D
100
AcDbEntity
  8
0
100
AcDbLine
 62
7
  6
CONTINUOUS
 10
566.4656862037
 20
266.0078159617
 11
566.4740219759
 21
265.5085144026
  0
LINE
  5
43E
100
AcDbEntity
  8
0
100
AcDbLine
 62
7
  6
CONTINUOUS
 10
566.4656862037
 20
282.0078159617
 11
566.4740219759
 21
281.5085144026
  0
LINE
  5
43F
100
AcDbEntity
  8
0
100
AcDbLine
 62
7
  6
CONTINUOUS
 10
566.4656862038
 20
290.0078159617
 11
566.4740219759
 21
289.5085144026
  0
LINE
  5
440
100
AcDbEntity
  8
0
100
AcDbLine
 62
7
  6
CONTINUOUS
 10
566.4656862037
 20
318.2174470789
 11
566.4740219759
 21
317.7181455197
  0
LINE
  5
441
100
AcDbEntity
  8
0
100
AcDbLine
 62
7
  6
CONTINUOUS
 10
566.4740219759
 20
325.7181455197
 11
566.4656862037
 21
326.2174470789
  0
LINE
  5
442
100
AcDbEntity
  8
0
100
AcDbLine
 62
7
  6
CONTINUOUS
 10
566.4656862037
 20
334.2174470789
 11
566.4740219759
 21
333.7181455197
  0
LINE
  5
443
100
AcDbEntity
  8
0
100
AcDbLine
 62
7
  6
CONTINUOUS
 10
566.4740219759
 20
341.7181455197
 11
566.4656862038
 21
342.2174470789
  0
LINE
  5
444
100
AcDbEntity
  8
0
100
AcDbLine
 62
7
  6
CONTINUOUS
 10
544.104620082
 20
205.242860217
 11
544.1133396412
 21
200.6756133357
  0
LINE
  5
445
100
AcDbEntity
  8
0
100
AcDbLine
 62
7
  6
CONTINUOUS
 10
553.60462201
 20
317.0434920741
 11
553.613339835
 21
309.6570735855
  0
LINE
  5
446
100
AcDbEntity
  8
0
100
AcDbLine
 62
7
  6
CONTINUOUS
 10
521.1395195787
 20
327.742860217
 11
521.1395195787
 21
327.242860217
  0
LINE
  5
447
100
AcDbEntity
  8
0
100
AcDbLine
 62
7
  6
CONTINUOUS
 10
521.5395195787
 20
339.3999516589
 11
521.5395195787
 21
339.692860217
  0
LINE
  5
448
100
AcDbEntity
  8
0
100
AcDbLine
 62
7
  6
CONTINUOUS
 10
521.6395195787
 20
343.6995913917
 11
521.6395195787
 21
328.042860217
  0
LINE
  5
449
100
AcDbEntity
  8
0
100
AcDbLine
 62
7
  6
CONTINUOUS
 10
521.6395195787
 20
326.942860217
 11
521.6395195787
 21
303.492860217
  0
LINE
  5
44A
100
AcDbEntity
  8
0
100
AcDbLine
 62
7
  6
CONTINUOUS
 10
521.6395195787
 20
171.5861290478
 11
521.6395195787
 21
205.492860217
  0
LINE
  5
44B
100
AcDbEntity
  8
0
100
AcDbLine
 62
7
  6
CONTINUOUS
 10
521.6395195787
 20
206.092860217
 11
521.6395195787
 21
302.9070431009
  0
LINE
  5
44C
100
AcDbEntity
  8
0
100
AcDbLine
 62
7
  6
CONTINUOUS
 10
521.9395195787
 20
302.892860217
 11
521.9395195787
 21
293.492860217
  0
LINE
  5
44D
100
AcDbEntity
  8
0
100
AcDbLine
 62
7
  6
CONTINUOUS
 10
521.9395195787
 20
289.492860217
 11
521.9395195787
 21
285.492860217
  0
LINE
  5
44E
100
AcDbEntity
  8
0
100
AcDbLine
 62
7
  6
CONTINUOUS
 10
521.9395195787
 20
281.492860217
 11
521.9395195787
 21
277.492860217
  0
LINE
  5
44F
100
AcDbEntity
  8
0
100
AcDbLine
 62
7
  6
CONTINUOUS
 10
521.9395195787
 20
273.492860217
 11
521.9395195787
 21
269.492860217
  0
LINE
  5
450
100
AcDbEntity
  8
0
100
AcDbLine
 62
7
  6
CONTINUOUS
 10
521.9395195787
 20
265.492860217
 11
521.9395195787
 21
261.492860217
  0
LINE
  5
451
100
AcDbEntity
  8
0
100
AcDbLine
 62
7
  6
CONTINUOUS
 10
521.9395195787
 20
257.492860217
 11
521.9395195787
 21
253.492860217
  0
LINE
  5
452
100
AcDbEntity
  8
0
100
AcDbLine
 62
7
  6
CONTINUOUS
 10
521.9395195787
 20
249.492860217
 11
521.9395195787
 21
245.492860217
  0
LINE
  5
453
100
AcDbEntity
  8
0
100
AcDbLine
 62
7
  6
CONTINUOUS
 10
521.9395195787
 20
241.492860217
 11
521.9395195787
 21
237.492860217
  0
LINE
  5
454
100
AcDbEntity
  8
0
100
AcDbLine
 62
7
  6
CONTINUOUS
 10
521.9395195787
 20
233.492860217
 11
521.9395195787
 21
229.492860217
  0
LINE
  5
455
100
AcDbEntity
  8
0
100
AcDbLine
 62
7
  6
CONTINUOUS
 10
521.9395195787
 20
225.492860217
 11
521.9395195787
 21
221.492860217
  0
LINE
  5
456
100
AcDbEntity
  8
0
100
AcDbLine
 62
7
  6
CONTINUOUS
 10
521.9395195787
 20
217.492860217
 11
521.9395195787
 21
206.092860217
  0
LINE
  5
457
100
AcDbEntity
  8
0
100
AcDbLine
 62
7
  6
CONTINUOUS
 10
521.9395195787
 20
217.992860217
 11
521.9395195787
 21
220.992860217
  0
LINE
  5
458
100
AcDbEntity
  8
0
100
AcDbLine
 62
7
  6
CONTINUOUS
 10
521.9395195787
 20
225.992860217
 11
521.9395195787
 21
228.992860217
  0
LINE
  5
459
100
AcDbEntity
  8
0
100
AcDbLine
 62
7
  6
CONTINUOUS
 10
521.9395195787
 20
233.992860217
 11
521.9395195787
 21
236.992860217
  0
LINE
  5
45A
100
AcDbEntity
  8
0
100
AcDbLine
 62
7
  6
CONTINUOUS
 10
521.9395195787
 20
241.992860217
 11
521.9395195787
 21
244.992860217
  0
LINE
  5
45B
100
AcDbEntity
  8
0
100
AcDbLine
 62
7
  6
CONTINUOUS
 10
521.9395195787
 20
249.992860217
 11
521.9395195787
 21
252.992860217
  0
LINE
  5
45C
100
AcDbEntity
  8
0
100
AcDbLine
 62
7
  6
CONTINUOUS
 10
521.9395195787
 20
257.992860217
 11
521.9395195787
 21
260.992860217
  0
LINE
  5
45D
100
AcDbEntity
  8
0
100
AcDbLine
 62
7
  6
CONTINUOUS
 10
521.9395195787
 20
265.992860217
 11
521.9395195787
 21
268.992860217
  0
LINE
  5
45E
100
AcDbEntity
  8
0
100
AcDbLine
 62
7
  6
CONTINUOUS
 10
521.9395195787
 20
273.992860217
 11
521.9395195787
 21
276.992860217
  0
LINE
  5
45F
100
AcDbEntity
  8
0
100
AcDbLine
 62
7
  6
CONTINUOUS
 10
521.9395195787
 20
281.992860217
 11
521.9395195787
 21
284.992860217
  0
LINE
  5
460
100
AcDbEntity
  8
0
100
AcDbLine
 62
7
  6
CONTINUOUS
 10
521.9395195787
 20
289.992860217
 11
521.9395195787
 21
292.992860217
  0
LINE
  5
461
100
AcDbEntity
  8
0
100
AcDbLine
 62
7
  6
CONTINUOUS
 10
522.0871836224
 20
327.242860217
 11
522.0871836224
 21
327.742860217
  0
LINE
  5
462
100
AcDbEntity
  8
0
100
AcDbLine
 62
7
  6
CONTINUOUS
 10
522.5871836563
 20
339.2562340804
 11
522.5871836223
 21
327.742860217
  0
LINE
  5
463
100
AcDbEntity
  8
0
100
AcDbLine
 62
7
  6
CONTINUOUS
 10
522.5871836219
 20
205.492860217
 11
522.587183615
 21
199.1882417582
  0
LINE
  5
464
100
AcDbEntity
  8
0
100
AcDbLine
 62
7
  6
CONTINUOUS
 10
522.5871836224
 20
303.492860217
 11
522.5871836224
 21
327.242860217
  0
LINE
  5
465
100
AcDbEntity
  8
0
100
AcDbLine
 62
7
  6
CONTINUOUS
 10
522.5871838664
 20
192.1806535069
 11
522.5871836186
 21
176.0294860822
  0
LINE
  5
466
100
AcDbEntity
  8
0
100
AcDbLine
 62
7
  6
CONTINUOUS
 10
522.8909283962
 20
206.092860217
 11
522.8909283962
 21
302.892860217
  0
LINE
  5
467
100
AcDbEntity
  8
0
100
AcDbLine
 62
7
  6
CONTINUOUS
 10
535.6395195787
 20
292.992860217
 11
535.6395195787
 21
289.992860217
  0
LINE
  5
468
100
AcDbEntity
  8
0
100
AcDbLine
 62
7
  6
CONTINUOUS
 10
535.6395195787
 20
284.992860217
 11
535.6395195787
 21
281.992860217
  0
LINE
  5
469
100
AcDbEntity
  8
0
100
AcDbLine
 62
7
  6
CONTINUOUS
 10
535.6395195787
 20
276.992860217
 11
535.6395195787
 21
273.992860217
  0
LINE
  5
46A
100
AcDbEntity
  8
0
100
AcDbLine
 62
7
  6
CONTINUOUS
 10
535.6395195787
 20
268.992860217
 11
535.6395195787
 21
265.992860217
  0
LINE
  5
46B
100
AcDbEntity
  8
0
100
AcDbLine
 62
7
  6
CONTINUOUS
 10
535.6395195787
 20
260.992860217
 11
535.6395195787
 21
257.992860217
  0
LINE
  5
46C
100
AcDbEntity
  8
0
100
AcDbLine
 62
7
  6
CONTINUOUS
 10
535.6395195787
 20
252.992860217
 11
535.6395195787
 21
249.992860217
  0
LINE
  5
46D
100
AcDbEntity
  8
0
100
AcDbLine
 62
7
  6
CONTINUOUS
 10
535.6395195787
 20
244.992860217
 11
535.6395195787
 21
241.992860217
  0
LINE
  5
46E
100
AcDbEntity
  8
0
100
AcDbLine
 62
7
  6
CONTINUOUS
 10
535.6395195787
 20
236.992860217
 11
535.6395195787
 21
233.992860217
  0
LINE
  5
46F
100
AcDbEntity
  8
0
100
AcDbLine
 62
7
  6
CONTINUOUS
 10
535.6395195787
 20
228.992860217
 11
535.6395195787
 21
225.992860217
  0
LINE
  5
470
100
AcDbEntity
  8
0
100
AcDbLine
 62
7
  6
CONTINUOUS
 10
535.6395195787
 20
217.992860217
 11
535.6395195787
 21
220.992860217
  0
LINE
  5
471
100
AcDbEntity
  8
0
100
AcDbLine
 62
7
  6
CONTINUOUS
 10
542.6395195787
 20
205.742860217
 11
542.6395195787
 21
205.242860217
  0
LINE
  5
472
100
AcDbEntity
  8
0
100
AcDbLine
 62
7
  6
CONTINUOUS
 10
543.1395195787
 20
207.192860217
 11
543.1395195787
 21
206.042860217
  0
LINE
  5
473
100
AcDbEntity
  8
0
100
AcDbLine
 62
7
  6
CONTINUOUS
 10
543.1395195787
 20
199.3928602166
 11
543.1395195787
 21
204.942860217
  0
LINE
  5
474
100
AcDbEntity
  8
0
100
AcDbLine
 62
7
  6
CONTINUOUS
 10
543.2395195787
 20
217.992860217
 11
543.2395195787
 21
220.992860217
  0
LINE
  5
475
100
AcDbEntity
  8
0
100
AcDbLine
 62
7
  6
CONTINUOUS
 10
543.2395195787
 20
225.992860217
 11
543.2395195787
 21
228.992860217
  0
LINE
  5
476
100
AcDbEntity
  8
0
100
AcDbLine
 62
7
  6
CONTINUOUS
 10
543.2395195787
 20
233.992860217
 11
543.2395195787
 21
236.992860217
  0
LINE
  5
477
100
AcDbEntity
  8
0
100
AcDbLine
 62
7
  6
CONTINUOUS
 10
543.2395195787
 20
241.992860217
 11
543.2395195787
 21
244.992860217
  0
LINE
  5
478
100
AcDbEntity
  8
0
100
AcDbLine
 62
7
  6
CONTINUOUS
 10
543.2395195787
 20
249.992860217
 11
543.2395195787
 21
252.992860217
  0
LINE
  5
479
100
AcDbEntity
  8
0
100
AcDbLine
 62
7
  6
CONTINUOUS
 10
543.2395195787
 20
257.992860217
 11
543.2395195787
 21
260.992860217
  0
LINE
  5
47A
100
AcDbEntity
  8
0
100
AcDbLine
 62
7
  6
CONTINUOUS
 10
543.2395195787
 20
265.992860217
 11
543.2395195787
 21
268.992860217
  0
LINE
  5
47B
100
AcDbEntity
  8
0
100
AcDbLine
 62
7
  6
CONTINUOUS
 10
543.2395195787
 20
273.992860217
 11
543.2395195787
 21
276.992860217
  0
LINE
  5
47C
100
AcDbEntity
  8
0
100
AcDbLine
 62
7
  6
CONTINUOUS
 10
543.2395195787
 20
281.992860217
 11
543.2395195787
 21
284.992860217
  0
LINE
  5
47D
100
AcDbEntity
  8
0
100
AcDbLine
 62
7
  6
CONTINUOUS
 10
543.2395195787
 20
289.992860217
 11
543.2395195787
 21
292.992860217
  0
LINE
  5
47E
100
AcDbEntity
  8
0
100
AcDbLine
 62
7
  6
CONTINUOUS
 10
543.604620082
 20
205.242860217
 11
543.604620082
 21
205.742860217
  0
LINE
  5
47F
100
AcDbEntity
  8
0
100
AcDbLine
 62
7
  6
CONTINUOUS
 10
544.1395195787
 20
198.392860217
 11
544.1395195787
 21
199.392860217
  0
LINE
  5
480
100
AcDbEntity
  8
0
100
AcDbLine
 62
7
  6
CONTINUOUS
 10
546.6918549569
 20
196.2285252299
 11
546.6918551444
 21
198.0473211714
  0
LINE
  5
481
100
AcDbEntity
  8
0
100
AcDbLine
 62
7
  6
CONTINUOUS
 10
547.6395195787
 20
408.3930440197
 11
547.6395195787
 21
364.392860217
  0
LINE
  5
482
100
AcDbEntity
  8
0
100
AcDbLine
 62
7
  6
CONTINUOUS
 10
547.6395195787
 20
219.2786466546
 11
547.6395195787
 21
209.192860217
  0
LINE
  5
483
100
AcDbEntity
  8
0
100
AcDbLine
 62
7
  6
CONTINUOUS
 10
547.6395195787
 20
136.5926775702
 11
547.6395195787
 21
189.892860217
  0
LINE
  5
484
100
AcDbEntity
  8
0
100
AcDbLine
 62
7
  6
CONTINUOUS
 10
547.6395195787
 20
190.3928602169
 11
547.6395195787
 21
197.5001868552
  0
LINE
  5
485
100
AcDbEntity
  8
0
100
AcDbLine
 62
7
  6
CONTINUOUS
 10
547.6395195787
 20
357.351670917
 11
547.6395195787
 21
363.892860217
  0
LINE
  5
486
100
AcDbEntity
  8
0
100
AcDbLine
 62
7
  6
CONTINUOUS
 10
548.1395195787
 20
364.392860217
 11
548.1395195787
 21
363.892860217
  0
LINE
  5
487
100
AcDbEntity
  8
0
100
AcDbLine
 62
7
  6
CONTINUOUS
 10
548.1395195787
 20
151.392860217
 11
548.1395195787
 21
150.892860217
  0
LINE
  5
488
100
AcDbEntity
  8
0
100
AcDbLine
 62
7
  6
CONTINUOUS
 10
548.1395195787
 20
190.392860217
 11
548.1395195787
 21
197.2115117206
  0
LINE
  5
489
100
AcDbEntity
  8
0
100
AcDbLine
 62
7
  6
CONTINUOUS
 10
548.1395208364
 20
219.2786179937
 11
548.1395195787
 21
209.192860217
  0
LINE
  5
48A
100
AcDbEntity
  8
0
100
AcDbLine
 62
7
  6
CONTINUOUS
 10
548.2395195787
 20
220.992860217
 11
548.2395195787
 21
219.9857534358
  0
LINE
  5
48B
100
AcDbEntity
  8
0
100
AcDbLine
 62
7
  6
CONTINUOUS
 10
548.5871835203
 20
362.992860217
 11
548.5871834168
 21
357.3516726628
  0
LINE
  5
48C
100
AcDbEntity
  8
0
100
AcDbLine
 62
7
  6
CONTINUOUS
 10
548.6133516006
 20
363.892860217
 11
548.5871831865
 21
408.3930440193
  0
LINE
  5
48D
100
AcDbEntity
  8
0
100
AcDbLine
 62
7
  6
CONTINUOUS
 10
549.1395195753
 20
152.292860217
 11
549.1395195762
 21
189.892860217
  0
LINE
  5
48E
100
AcDbEntity
  8
0
100
AcDbLine
 62
7
  6
CONTINUOUS
 10
549.3895195787
 20
150.8928602169
 11
549.3895195787
 21
151.392860217
  0
LINE
  5
48F
100
AcDbEntity
  8
0
100
AcDbLine
 62
7
  6
CONTINUOUS
 10
550.2395195787
 20
346.192860217
 11
550.2395195787
 21
343.392860217
  0
LINE
  5
490
100
AcDbEntity
  8
0
100
AcDbLine
 62
7
  6
CONTINUOUS
 10
550.2395195787
 20
171.892860217
 11
550.2395195787
 21
169.092860217
  0
LINE
  5
491
100
AcDbEntity
  8
0
100
AcDbLine
 62
7
  6
CONTINUOUS
 10
550.6395195787
 20
209.192860217
 11
550.6395195787
 21
209.613494061
  0
LINE
  5
492
100
AcDbEntity
  8
0
100
AcDbLine
 62
7
  6
CONTINUOUS
 10
551.0485297265
 20
167.692860217
 11
551.0485297265
 21
173.292860217
  0
LINE
  5
493
100
AcDbEntity
  8
0
100
AcDbLine
 62
7
  6
CONTINUOUS
 10
551.0485297265
 20
341.992860217
 11
551.0485297265
 21
347.592860217
  0
LINE
  5
494
100
AcDbEntity
  8
0
100
AcDbLine
 62
7
  6
CONTINUOUS
 10
551.3395195787
 20
363.892860217
 11
551.3395195787
 21
362.992860217
  0
LINE
  5
495
100
AcDbEntity
  8
0
100
AcDbLine
 62
7
  6
CONTINUOUS
 10
551.3395195787
 20
152.292860217
 11
551.3395195787
 21
151.392860217
  0
LINE
  5
496
100
AcDbEntity
  8
0
100
AcDbLine
 62
7
  6
CONTINUOUS
 10
551.6395195785
 20
206.8928573688
 11
551.6395195785
 21
208.192860217
  0
LINE
  5
497
100
AcDbEntity
  8
0
100
AcDbLine
 62
7
  6
CONTINUOUS
 10
551.6918402725
 20
309.4069641997
 11
551.6918494263
 21
341.545268551
  0
LINE
  5
498
100
AcDbEntity
  8
0
100
AcDbLine
 62
7
  6
CONTINUOUS
 10
551.6918511116
 20
347.4623514917
 11
551.6918555351
 21
362.992860217
  0
LINE
  5
499
100
AcDbEntity
  8
0
100
AcDbLine
 62
7
  6
CONTINUOUS
 10
551.6918554912
 20
408.501460507
 11
551.7180235131
 21
363.892860217
  0
LINE
  5
49A
100
AcDbEntity
  8
0
100
AcDbLine
 62
7
  6
CONTINUOUS
 10
552.5395195787
 20
409.3293518901
 11
552.5395195787
 21
408.617591905
  0
LINE
  5
49B
100
AcDbEntity
  8
0
100
AcDbLine
 62
7
  6
CONTINUOUS
 10
552.5395195787
 20
136.3681285289
 11
552.5395195787
 21
135.6563685439
  0
LINE
  5
49C
100
AcDbEntity
  8
0
100
AcDbLine
 62
7
  6
CONTINUOUS
 10
552.5395195787
 20
162.492860217
 11
552.5395195787
 21
163.992860217
  0
LINE
  5
49D
100
AcDbEntity
  8
0
100
AcDbLine
 62
7
  6
CONTINUOUS
 10
552.5395195787
 20
164.992860217
 11
552.5395195787
 21
166.492860217
  0
LINE
  5
49E
100
AcDbEntity
  8
0
100
AcDbLine
 62
7
  6
CONTINUOUS
 10
552.5395195787
 20
378.492860217
 11
552.5395195787
 21
379.992860217
  0
LINE
  5
49F
100
AcDbEntity
  8
0
100
AcDbLine
 62
7
  6
CONTINUOUS
 10
552.5395195787
 20
380.992860217
 11
552.5395195787
 21
382.492860217
  0
LINE
  5
4A0
100
AcDbEntity
  8
0
100
AcDbLine
 62
7
  6
CONTINUOUS
 10
552.6395195787
 20
136.4180736457
 11
552.6395195787
 21
161.781710815
  0
LINE
  5
4A1
100
AcDbEntity
  8
0
100
AcDbLine
 62
7
  6
CONTINUOUS
 10
552.6395195787
 20
163.992860217
 11
552.6395195787
 21
164.992860217
  0
LINE
  5
4A2
100
AcDbEntity
  8
0
100
AcDbLine
 62
7
  6
CONTINUOUS
 10
552.6395195787
 20
167.2038252758
 11
552.6395195787
 21
168.2202566348
  0
LINE
  5
4A3
100
AcDbEntity
  8
0
100
AcDbLine
 62
7
  6
CONTINUOUS
 10
552.6395195787
 20
169.1021586337
 11
552.6395195787
 21
197.0181686588
  0
LINE
  5
4A4
100
AcDbEntity
  8
0
100
AcDbLine
 62
7
  6
CONTINUOUS
 10
552.6395195787
 20
197.3227598154
 11
552.6395195787
 21
205.0181686588
  0
LINE
  5
4A5
100
AcDbEntity
  8
0
100
AcDbLine
 62
7
  6
CONTINUOUS
 10
552.6395195787
 20
205.3227598154
 11
552.6395195787
 21
217.0786466546
  0
LINE
  5
4A6
100
AcDbEntity
  8
0
100
AcDbLine
 62
7
  6
CONTINUOUS
 10
552.6395195787
 20
309.6570737793
 11
552.6395195787
 21
317.0181686588
  0
LINE
  5
4A7
100
AcDbEntity
  8
0
100
AcDbLine
 62
7
  6
CONTINUOUS
 10
552.6395195787
 20
317.3227598153
 11
552.6395195787
 21
325.0181686588
  0
LINE
  5
4A8
100
AcDbEntity
  8
0
100
AcDbLine
 62
7
  6
CONTINUOUS
 10
552.6395195787
 20
325.3227598153
 11
552.6395195787
 21
333.0181686588
  0
LINE
  5
4A9
100
AcDbEntity
  8
0
100
AcDbLine
 62
7
  6
CONTINUOUS
 10
552.6395195787
 20
333.3227598153
 11
552.6395195787
 21
341.0181686588
  0
LINE
  5
4AA
100
AcDbEntity
  8
0
100
AcDbLine
 62
7
  6
CONTINUOUS
 10
552.6395195787
 20
341.3227598154
 11
552.6395195787
 21
377.781710815
  0
LINE
  5
4AB
100
AcDbEntity
  8
0
100
AcDbLine
 62
7
  6
CONTINUOUS
 10
552.6395195787
 20
379.992860217
 11
552.6395195787
 21
380.992860217
  0
LINE
  5
4AC
100
AcDbEntity
  8
0
100
AcDbLine
 62
7
  6
CONTINUOUS
 10
552.6395195787
 20
383.2038252758
 11
552.6395195787
 21
384.2202566348
  0
LINE
  5
4AD
100
AcDbEntity
  8
0
100
AcDbLine
 62
7
  6
CONTINUOUS
 10
552.6395195787
 20
385.1021586343
 11
552.6395195787
 21
408.5676468332
  0
LINE
  5
4AE
100
AcDbEntity
  8
0
100
AcDbLine
 62
7
  6
CONTINUOUS
 10
552.7829419406
 20
160.2340542153
 11
552.7829419406
 21
161.989596872
  0
LINE
  5
4AF
100
AcDbEntity
  8
0
100
AcDbLine
 62
7
  6
CONTINUOUS
 10
552.7829419406
 20
163.992860217
 11
552.7829419406
 21
164.992860217
  0
LINE
  5
4B0
100
AcDbEntity
  8
0
100
AcDbLine
 62
7
  6
CONTINUOUS
 10
552.7829419406
 20
166.9961235923
 11
552.7829419406
 21
167.9383066604
  0
LINE
  5
4B1
100
AcDbEntity
  8
0
100
AcDbLine
 62
7
  6
CONTINUOUS
 10
552.7829419406
 20
376.2340542153
 11
552.7829419406
 21
377.989596872
  0
LINE
  5
4B2
100
AcDbEntity
  8
0
100
AcDbLine
 62
7
  6
CONTINUOUS
 10
552.7829419406
 20
379.992860217
 11
552.7829419406
 21
380.992860217
  0
LINE
  5
4B3
100
AcDbEntity
  8
0
100
AcDbLine
 62
7
  6
CONTINUOUS
 10
552.7829419406
 20
382.9961235923
 11
552.7829419406
 21
383.9383066604
  0
LINE
  5
4B4
100
AcDbEntity
  8
0
100
AcDbLine
 62
7
  6
CONTINUOUS
 10
552.8395195787
 20
220.4929415651
 11
552.8395195787
 21
222.4927788688
  0
LINE
  5
4B5
100
AcDbEntity
  8
0
100
AcDbLine
 62
7
  6
CONTINUOUS
 10
553.1134861877
 20
336.968721602
 11
553.1134862377
 21
334.0169956214
  0
LINE
  5
4B6
100
AcDbEntity
  8
0
100
AcDbLine
 62
7
  6
CONTINUOUS
 10
553.1133972328
 20
342.0169956214
 11
553.1134188945
 21
344.968721602
  0
LINE
  5
4B7
100
AcDbEntity
  8
0
100
AcDbLine
 62
7
  6
CONTINUOUS
 10
553.1133972328
 20
326.0169956214
 11
553.1134188945
 21
328.968721602
  0
LINE
  5
4B8
100
AcDbEntity
  8
0
100
AcDbLine
 62
7
  6
CONTINUOUS
 10
553.1133972328
 20
318.0169956214
 11
553.1134188945
 21
320.968721602
  0
LINE
  5
4B9
100
AcDbEntity
  8
0
100
AcDbLine
 62
7
  6
CONTINUOUS
 10
553.1133972328
 20
206.0169956214
 11
553.1134188945
 21
208.968721602
  0
LINE
  5
4BA
100
AcDbEntity
  8
0
100
AcDbLine
 62
7
  6
CONTINUOUS
 10
553.1133972328
 20
198.0169956214
 11
553.1134188945
 21
200.968721602
  0
LINE
  5
4BB
100
AcDbEntity
  8
0
100
AcDbLine
 62
7
  6
CONTINUOUS
 10
553.2395195787
 20
228.992860217
 11
553.2395195787
 21
225.992860217
  0
LINE
  5
4BC
100
AcDbEntity
  8
0
100
AcDbLine
 62
7
  6
CONTINUOUS
 10
553.3395195787
 20
134.6553130108
 11
553.3395195787
 21
134.6177690432
  0
LINE
  5
4BD
100
AcDbEntity
  8
0
100
AcDbLine
 62
7
  6
CONTINUOUS
 10
553.3395195787
 20
163.992860217
 11
553.3395195787
 21
164.992860217
  0
LINE
  5
4BE
100
AcDbEntity
  8
0
100
AcDbLine
 62
7
  6
CONTINUOUS
 10
553.3395195787
 20
379.992860217
 11
553.3395195787
 21
380.992860217
  0
LINE
  5
4BF
100
AcDbEntity
  8
0
100
AcDbLine
 62
7
  6
CONTINUOUS
 10
553.5395195787
 20
134.592860217
 11
553.5395195787
 21
135.4478625616
  0
LINE
  5
4C0
100
AcDbEntity
  8
0
100
AcDbLine
 62
7
  6
CONTINUOUS
 10
553.5395195787
 20
161.492860217
 11
553.5395195787
 21
167.492860217
  0
LINE
  5
4C1
100
AcDbEntity
  8
0
100
AcDbLine
 62
7
  6
CONTINUOUS
 10
553.5395195787
 20
219.0070737794
 11
553.5395195787
 21
308.0890620928
  0
LINE
  5
4C2
100
AcDbEntity
  8
0
100
AcDbLine
 62
7
  6
CONTINUOUS
 10
553.5395195787
 20
377.492860217
 11
553.5395195787
 21
383.492860217
  0
LINE
  5
4C3
100
AcDbEntity
  8
0
100
AcDbLine
 62
7
  6
CONTINUOUS
 10
553.5395195787
 20
409.5380543399
 11
553.5395195787
 21
410.347283476
  0
LINE
  5
4C4
100
AcDbEntity
  8
0
100
AcDbLine
 62
7
  6
CONTINUOUS
 10
553.604619998
 20
333.0434334417
 11
553.6046222038
 21
329.9422283497
  0
LINE
  5
4C5
100
AcDbEntity
  8
0
100
AcDbLine
 62
7
  6
CONTINUOUS
 10
553.6046178719
 20
406.0695175271
 11
553.6046190914
 21
385.306701813
  0
LINE
  5
4C6
100
AcDbEntity
  8
0
100
AcDbLine
 62
7
  6
CONTINUOUS
 10
553.6046202758
 20
375.6790192232
 11
553.60462201
 21
345.9422283599
  0
LINE
  5
4C7
100
AcDbEntity
  8
0
100
AcDbLine
 62
7
  6
CONTINUOUS
 10
553.6046200819
 20
159.6790190259
 11
553.6046200055
 21
138.9165506612
  0
LINE
  5
4C8
100
AcDbEntity
  8
0
100
AcDbLine
 62
7
  6
CONTINUOUS
 10
553.6046222038
 20
201.9422283497
 11
553.6046222038
 21
205.0434920842
  0
LINE
  5
4C9
100
AcDbEntity
  8
0
100
AcDbLine
 62
7
  6
CONTINUOUS
 10
553.6046222038
 20
321.9422283497
 11
553.6046222038
 21
325.0434920842
  0
LINE
  5
4CA
100
AcDbEntity
  8
0
100
AcDbLine
 62
7
  6
CONTINUOUS
 10
553.6046222038
 20
337.9422283497
 11
553.6046222038
 21
341.0434920842
  0
LINE
  5
4CB
100
AcDbEntity
  8
0
100
AcDbLine
 62
7
  6
CONTINUOUS
 10
553.60462201
 20
197.0434920741
 11
553.6046202758
 21
169.3067012108
  0
LINE
  5
4CC
100
AcDbEntity
  8
0
100
AcDbLine
 62
7
  6
CONTINUOUS
 10
553.6395195787
 20
197.5452679963
 11
553.6395195787
 21
201.4404524377
  0
LINE
  5
4CD
100
AcDbEntity
  8
0
100
AcDbLine
 62
7
  6
CONTINUOUS
 10
553.6395195787
 20
205.5452679963
 11
553.6395195787
 21
209.4404524377
  0
LINE
  5
4CE
100
AcDbEntity
  8
0
100
AcDbLine
 62
7
  6
CONTINUOUS
 10
553.6395195787
 20
317.5452679963
 11
553.6395195787
 21
321.4404524377
  0
LINE
  5
4CF
100
AcDbEntity
  8
0
100
AcDbLine
 62
7
  6
CONTINUOUS
 10
553.6395195787
 20
325.5452679963
 11
553.6395195787
 21
329.4404524377
  0
LINE
  5
4D0
100
AcDbEntity
  8
0
100
AcDbLine
 62
7
  6
CONTINUOUS
 10
553.6395195787
 20
333.5452679963
 11
553.6395195787
 21
337.4404524377
  0
LINE
  5
4D1
100
AcDbEntity
  8
0
100
AcDbLine
 62
7
  6
CONTINUOUS
 10
553.6395195787
 20
341.5452679963
 11
553.6395195787
 21
345.4404524377
  0
LINE
  5
4D2
100
AcDbEntity
  8
0
100
AcDbLine
 62
7
  6
CONTINUOUS
 10
554.4871830717
 20
306.9929289463
 11
554.4871843386
 21
220.3689467089
  0
LINE
  5
4D3
100
AcDbEntity
  8
0
100
AcDbLine
 62
7
  6
CONTINUOUS
 10
554.6395195787
 20
160.1234968022
 11
554.6395195787
 21
161.992860217
  0
LINE
  5
4D4
100
AcDbEntity
  8
0
100
AcDbLine
 62
7
  6
CONTINUOUS
 10
554.6395195787
 20
166.992860217
 11
554.6395195787
 21
168.8639940143
  0
LINE
  5
4D5
100
AcDbEntity
  8
0
100
AcDbLine
 62
7
  6
CONTINUOUS
 10
554.6395195787
 20
376.1217264196
 11
554.6395195787
 21
377.992860217
  0
LINE
  5
4D6
100
AcDbEntity
  8
0
100
AcDbLine
 62
7
  6
CONTINUOUS
 10
554.6395195787
 20
382.992860217
 11
554.6395195787
 21
384.8622236317
  0
LINE
  5
4D7
100
AcDbEntity
  8
0
100
AcDbLine
 62
7
  6
CONTINUOUS
 10
555.6395195787
 20
220.4929415651
 11
555.6395195787
 21
222.4927788688
  0
LINE
  5
4D8
100
AcDbEntity
  8
0
100
AcDbLine
 62
7
  6
CONTINUOUS
 10
555.9895195787
 20
269.017860217
 11
555.9895195787
 21
305.535736006
  0
LINE
  5
4D9
100
AcDbEntity
  8
0
100
AcDbLine
 62
7
  6
CONTINUOUS
 10
556.1396416108
 20
221.492860217
 11
556.1396416108
 21
222.992860217
  0
LINE
  5
4DA
100
AcDbEntity
  8
0
100
AcDbLine
 62
7
  6
CONTINUOUS
 10
556.6395195787
 20
221.9070185603
 11
556.6395195787
 21
225.0175104995
  0
LINE
  5
4DB
100
AcDbEntity
  8
0
100
AcDbLine
 62
7
  6
CONTINUOUS
 10
556.6395195787
 20
225.3118554487
 11
556.6395195787
 21
233.0181686589
  0
LINE
  5
4DC
100
AcDbEntity
  8
0
100
AcDbLine
 62
7
  6
CONTINUOUS
 10
556.6395195787
 20
233.3227598153
 11
556.6395195787
 21
241.0181686588
  0
LINE
  5
4DD
100
AcDbEntity
  8
0
100
AcDbLine
 62
7
  6
CONTINUOUS
 10
556.6395195787
 20
241.3227598153
 11
556.6395195787
 21
249.0183735693
  0
LINE
  5
4DE
100
AcDbEntity
  8
0
100
AcDbLine
 62
7
  6
CONTINUOUS
 10
556.6395195787
 20
249.3308894106
 11
556.6395195787
 21
257.0181686589
  0
LINE
  5
4DF
100
AcDbEntity
  8
0
100
AcDbLine
 62
7
  6
CONTINUOUS
 10
556.6395195787
 20
257.3227598153
 11
556.6395195787
 21
265.0181686588
  0
LINE
  5
4E0
100
AcDbEntity
  8
0
100
AcDbLine
 62
7
  6
CONTINUOUS
 10
556.6395195787
 20
265.3227598153
 11
556.6395195787
 21
273.0183735693
  0
LINE
  5
4E1
100
AcDbEntity
  8
0
100
AcDbLine
 62
7
  6
CONTINUOUS
 10
556.6395195787
 20
273.3308894106
 11
556.6395195787
 21
281.0181686589
  0
LINE
  5
4E2
100
AcDbEntity
  8
0
100
AcDbLine
 62
7
  6
CONTINUOUS
 10
556.6395195787
 20
281.3227598153
 11
556.6395195787
 21
289.0181686588
  0
LINE
  5
4E3
100
AcDbEntity
  8
0
100
AcDbLine
 62
7
  6
CONTINUOUS
 10
556.6395195787
 20
289.3227598153
 11
556.6395195787
 21
293.6742979291
  0
LINE
  5
4E4
100
AcDbEntity
  8
0
100
AcDbLine
 62
7
  6
CONTINUOUS
 10
556.6395195787
 20
293.9674966956
 11
556.6395195787
 21
304.8287113581
  0
LINE
  5
4E5
100
AcDbEntity
  8
0
100
AcDbLine
 62
7
  6
CONTINUOUS
 10
557.1134820709
 20
252.9687210856
 11
557.1135283365
 21
250.0169881445
  0
LINE
  5
4E6
100
AcDbEntity
  8
0
100
AcDbLine
 62
7
  6
CONTINUOUS
 10
557.1134820709
 20
276.9687210856
 11
557.1135283365
 21
274.0169881445
  0
LINE
  5
4E7
100
AcDbEntity
  8
0
100
AcDbLine
 62
7
  6
CONTINUOUS
 10
557.1134861878
 20
244.968721602
 11
557.1134862377
 21
242.0169956214
  0
LINE
  5
4E8
100
AcDbEntity
  8
0
100
AcDbLine
 62
7
  6
CONTINUOUS
 10
557.1134861878
 20
260.968721602
 11
557.1134862377
 21
258.0169956214
  0
LINE
  5
4E9
100
AcDbEntity
  8
0
100
AcDbLine
 62
7
  6
CONTINUOUS
 10
557.1134861878
 20
268.968721602
 11
557.1134862377
 21
266.0169956214
  0
LINE
  5
4EA
100
AcDbEntity
  8
0
100
AcDbLine
 62
7
  6
CONTINUOUS
 10
557.1134861878
 20
284.968721602
 11
557.1134862377
 21
282.0169956214
  0
LINE
  5
4EB
100
AcDbEntity
  8
0
100
AcDbLine
 62
7
  6
CONTINUOUS
 10
557.1134861878
 20
292.968721602
 11
557.1134862377
 21
290.0169956214
  0
LINE
  5
4EC
100
AcDbEntity
  8
0
100
AcDbLine
 62
7
  6
CONTINUOUS
 10
557.1142178458
 20
228.9686675676
 11
557.1142178458
 21
226.0170528664
  0
LINE
  5
4ED
100
AcDbEntity
  8
0
100
AcDbLine
 62
7
  6
CONTINUOUS
 10
557.1133972329
 20
234.0169956214
 11
557.1134188946
 21
236.968721602
  0
LINE
  5
4EE
100
AcDbEntity
  8
0
100
AcDbLine
 62
7
  6
CONTINUOUS
 10
557.6046198311
 20
233.043433433
 11
557.6046203233
 21
229.9429647342
  0
LINE
  5
4EF
100
AcDbEntity
  8
0
100
AcDbLine
 62
7
  6
CONTINUOUS
 10
557.604619998
 20
237.9422869922
 11
557.604619998
 21
241.0434334417
  0
LINE
  5
4F0
100
AcDbEntity
  8
0
100
AcDbLine
 62
7
  6
CONTINUOUS
 10
557.604619998
 20
261.9422869923
 11
557.604619998
 21
265.0434334417
  0
LINE
  5
4F1
100
AcDbEntity
  8
0
100
AcDbLine
 62
7
  6
CONTINUOUS
 10
557.604619998
 20
285.9422869922
 11
557.604619998
 21
289.0434334417
  0
LINE
  5
4F2
100
AcDbEntity
  8
0
100
AcDbLine
 62
7
  6
CONTINUOUS
 10
557.604620082
 20
221.0786466546
 11
557.604620082
 21
225.0427536533
  0
LINE
  5
4F3
100
AcDbEntity
  8
0
100
AcDbLine
 62
7
  6
CONTINUOUS
 10
557.6046199207
 20
281.0434334377
 11
557.6046198159
 21
277.9421881379
  0
LINE
  5
4F4
100
AcDbEntity
  8
0
100
AcDbLine
 62
7
  6
CONTINUOUS
 10
557.6046199207
 20
257.0434334377
 11
557.6046198159
 21
253.9421881379
  0
LINE
  5
4F5
100
AcDbEntity
  8
0
100
AcDbLine
 62
7
  6
CONTINUOUS
 10
557.6046202758
 20
305.6570735855
 11
557.6046198042
 21
293.9422870024
  0
LINE
  5
4F6
100
AcDbEntity
  8
0
100
AcDbLine
 62
7
  6
CONTINUOUS
 10
557.6046212618
 20
273.0435746805
 11
557.6046199207
 21
269.9422869963
  0
LINE
  5
4F7
100
AcDbEntity
  8
0
100
AcDbLine
 62
7
  6
CONTINUOUS
 10
557.6046212618
 20
249.0435746805
 11
557.6046199207
 21
245.9422869963
  0
LINE
  5
4F8
100
AcDbEntity
  8
0
100
AcDbLine
 62
7
  6
CONTINUOUS
 10
557.6395195787
 20
410.3917258046
 11
557.6395195787
 21
409.7079394475
  0
LINE
  5
4F9
100
AcDbEntity
  8
0
100
AcDbLine
 62
7
  6
CONTINUOUS
 10
557.6395195787
 20
382.992860217
 11
557.6395195787
 21
377.992860217
  0
LINE
  5
4FA
100
AcDbEntity
  8
0
100
AcDbLine
 62
7
  6
CONTINUOUS
 10
557.6395195787
 20
166.992860217
 11
557.6395195787
 21
161.992860217
  0
LINE
  5
4FB
100
AcDbEntity
  8
0
100
AcDbLine
 62
7
  6
CONTINUOUS
 10
557.6395195787
 20
225.5452679963
 11
557.6395195787
 21
229.4404524377
  0
LINE
  5
4FC
100
AcDbEntity
  8
0
100
AcDbLine
 62
7
  6
CONTINUOUS
 10
557.6395195787
 20
233.5452679963
 11
557.6395195787
 21
237.4404524377
  0
LINE
  5
4FD
100
AcDbEntity
  8
0
100
AcDbLine
 62
7
  6
CONTINUOUS
 10
557.6395195787
 20
241.5452679963
 11
557.6395195787
 21
245.4404524377
  0
LINE
  5
4FE
100
AcDbEntity
  8
0
100
AcDbLine
 62
7
  6
CONTINUOUS
 10
557.6395195787
 20
249.5452679963
 11
557.6395195787
 21
253.4404524377
  0
LINE
  5
4FF
100
AcDbEntity
  8
0
100
AcDbLine
 62
7
  6
CONTINUOUS
 10
557.6395195787
 20
257.5452679963
 11
557.6395195787
 21
261.4404524377
  0
LINE
  5
500
100
AcDbEntity
  8
0
100
AcDbLine
 62
7
  6
CONTINUOUS
 10
557.6395195787
 20
265.5452679963
 11
557.6395195787
 21
269.4404524377
  0
LINE
  5
501
100
AcDbEntity
  8
0
100
AcDbLine
 62
7
  6
CONTINUOUS
 10
557.6395195787
 20
273.5452679963
 11
557.6395195787
 21
277.4404524377
  0
LINE
  5
502
100
AcDbEntity
  8
0
100
AcDbLine
 62
7
  6
CONTINUOUS
 10
557.6395195787
 20
281.5452679963
 11
557.6395195787
 21
285.4404524377
  0
LINE
  5
503
100
AcDbEntity
  8
0
100
AcDbLine
 62
7
  6
CONTINUOUS
 10
557.6395195787
 20
289.5452679963
 11
557.6395195787
 21
293.4404524377
  0
LINE
  5
504
100
AcDbEntity
  8
0
100
AcDbLine
 62
7
  6
CONTINUOUS
 10
558.1395195787
 20
377.992860217
 11
558.1395196279
 21
358.9785102659
  0
LINE
  5
505
100
AcDbEntity
  8
0
100
AcDbLine
 62
7
  6
CONTINUOUS
 10
558.1395195787
 20
135.2603206017
 11
558.1395195787
 21
161.992860217
  0
LINE
  5
506
100
AcDbEntity
  8
0
100
AcDbLine
 62
7
  6
CONTINUOUS
 10
558.1395195787
 20
166.992860217
 11
558.1395196279
 21
186.0072101007
  0
LINE
  5
507
100
AcDbEntity
  8
0
100
AcDbLine
 62
7
  6
CONTINUOUS
 10
558.1395195787
 20
382.992860217
 11
558.1395196279
 21
388.3365638578
  0
LINE
  5
508
100
AcDbEntity
  8
0
100
AcDbLine
 62
7
  6
CONTINUOUS
 10
558.6395195787
 20
133.642860217
 11
558.6395195787
 21
162.492860217
  0
LINE
  5
509
100
AcDbEntity
  8
0
100
AcDbLine
 62
7
  6
CONTINUOUS
 10
558.6395195787
 20
166.492860217
 11
558.6395195787
 21
185.658206241
  0
LINE
  5
50A
100
AcDbEntity
  8
0
100
AcDbLine
 62
7
  6
CONTINUOUS
 10
558.6395195787
 20
359.3275141929
 11
558.6395195787
 21
378.492860217
  0
LINE
  5
50B
100
AcDbEntity
  8
0
100
AcDbLine
 62
7
  6
CONTINUOUS
 10
558.6395195787
 20
382.492860217
 11
558.6395195787
 21
388.0375600435
  0
LINE
  5
50C
100
AcDbEntity
  8
0
100
AcDbLine
 62
7
  6
CONTINUOUS
 10
561.9395195787
 20
160.692860217
 11
561.9395195787
 21
172.3095939822
  0
LINE
  5
50D
100
AcDbEntity
  8
0
100
AcDbLine
 62
7
  6
CONTINUOUS
 10
561.9395195787
 20
376.692860217
 11
561.9395195787
 21
388.3095939822
  0
LINE
  5
50E
100
AcDbEntity
  8
0
100
AcDbLine
 62
7
  6
CONTINUOUS
 10
562.7395195787
 20
383.492860217
 11
562.7395195787
 21
377.492860217
  0
LINE
  5
50F
100
AcDbEntity
  8
0
100
AcDbLine
 62
7
  6
CONTINUOUS
 10
562.7395195787
 20
167.492860217
 11
562.7395195787
 21
161.492860217
  0
LINE
  5
510
100
AcDbEntity
  8
0
100
AcDbLine
 62
7
  6
CONTINUOUS
 10
562.9269280929
 20
385.092860217
 11
562.9269280929
 21
383.892860217
  0
LINE
  5
511
100
AcDbEntity
  8
0
100
AcDbLine
 62
7
  6
CONTINUOUS
 10
562.9269280929
 20
169.092860217
 11
562.9269280929
 21
167.892860217
  0
LINE
  5
512
100
AcDbEntity
  8
0
100
AcDbLine
 62
7
  6
CONTINUOUS
 10
563.0395195787
 20
161.9580476453
 11
563.0395195787
 21
171.592860217
  0
LINE
  5
513
100
AcDbEntity
  8
0
100
AcDbLine
 62
7
  6
CONTINUOUS
 10
563.0395195787
 20
377.9580476453
 11
563.0395195787
 21
387.592860217
  0
LINE
  5
514
100
AcDbEntity
  8
0
100
AcDbLine
 62
7
  6
CONTINUOUS
 10
563.5395195787
 20
134.492860217
 11
563.5395195787
 21
134.7771695672
  0
LINE
  5
515
100
AcDbEntity
  8
0
100
AcDbLine
 62
7
  6
CONTINUOUS
 10
563.5395195787
 20
161.392860217
 11
563.5395195787
 21
172.0439450689
  0
LINE
  5
516
100
AcDbEntity
  8
0
100
AcDbLine
 62
7
  6
CONTINUOUS
 10
563.5395195787
 20
377.392860217
 11
563.5395195787
 21
388.0439450689
  0
LINE
  5
517
100
AcDbEntity
  8
0
100
AcDbLine
 62
7
  6
CONTINUOUS
 10
563.5395195787
 20
410.1136756676
 11
563.5395195787
 21
410.492860217
  0
LINE
  5
518
100
AcDbEntity
  8
0
100
AcDbLine
 62
7
  6
CONTINUOUS
 10
563.6395195787
 20
413.742860217
 11
563.6395195787
 21
414.042860217
  0
LINE
  5
519
100
AcDbEntity
  8
0
100
AcDbLine
 62
7
  6
CONTINUOUS
 10
549.1403929562
 20
150.892860217
 11
549.1395941322
 21
136.557754773
  0
LINE
  5
51A
100
AcDbEntity
  8
0
100
AcDbLine
 62
7
  6
CONTINUOUS
 10
550.8117760912
 20
342.1233686916
 11
550.8117760912
 21
347.4623517424
  0
LINE
  5
51B
100
AcDbEntity
  8
0
100
AcDbLine
 62
7
  6
CONTINUOUS
 10
550.8117760912
 20
167.8233686916
 11
550.8117760912
 21
173.1623517424
  0
LINE
  5
51C
100
AcDbEntity
  8
0
100
AcDbLine
 62
7
  6
CONTINUOUS
 10
553.613339835
 20
217.0786468484
 11
553.60462201
 21
209.9422283599
  0
LWPOLYLINE
  5
51D
100
AcDbEntity
  8
0
100
AcDbPolyline
 62
7
  6
CONTINUOUS
 90
4
 70
0
 10
543.604620082
 20
205.742860217
 10
543.6052514911
 20
205.84546626
 10
543.6070695613
 20
205.9356964999
 10
543.6093018714
 20
205.9928481884
  0
LINE
  5
51E
100
AcDbEntity
  8
0
100
AcDbLine
 62
7
  6
CONTINUOUS
 10
544.104620082
 20
205.742860217
 11
544.1172829532
 21
207.3728061351
  0
LWPOLYLINE
  5
51F
100
AcDbEntity
  8
0
100
AcDbPolyline
 62
7
  6
CONTINUOUS
 90
4
 70
0
 10
522.0871836224
 20
327.742860217
 10
522.0881304957
 20
327.84546626
 10
522.0908569088
 20
327.9356964999
 10
522.0942160635
 20
327.9929943299
  0
LINE
  5
520
100
AcDbEntity
  8
0
100
AcDbLine
 62
7
  6
CONTINUOUS
 10
544.1172829532
 20
207.3728061351
 11
544.1299458245
 21
208.1880141147
  0
LINE
  5
521
100
AcDbEntity
  8
0
100
AcDbLine
 62
7
  6
CONTINUOUS
 10
553.5961764785
 20
345.4427239441
 11
553.6046138765
 21
345.9421119015
  0
LINE
  5
522
100
AcDbEntity
  8
0
100
AcDbLine
 62
7
  6
CONTINUOUS
 10
553.5961764785
 20
337.4427239441
 11
553.6046140704
 21
337.9421118914
  0
LINE
  5
523
100
AcDbEntity
  8
0
100
AcDbLine
 62
7
  6
CONTINUOUS
 10
553.5961764785
 20
329.4427239441
 11
553.6046140704
 21
329.9421118914
  0
LINE
  5
524
100
AcDbEntity
  8
0
100
AcDbLine
 62
7
  6
CONTINUOUS
 10
553.5961764785
 20
321.4427239441
 11
553.6046140704
 21
321.9421118914
  0
LINE
  5
525
100
AcDbEntity
  8
0
100
AcDbLine
 62
7
  6
CONTINUOUS
 10
553.5961764785
 20
209.4427239441
 11
553.6046138765
 21
209.9421119015
  0
LINE
  5
526
100
AcDbEntity
  8
0
100
AcDbLine
 62
7
  6
CONTINUOUS
 10
553.5961764785
 20
201.4427239441
 11
553.6046140704
 21
201.9421118914
  0
LINE
  5
527
100
AcDbEntity
  8
0
100
AcDbLine
 62
7
  6
CONTINUOUS
 10
577.4692435906
 20
382.8195531669
 11
577.5395195702
 21
382.2910203477
  0
LINE
  5
528
100
AcDbEntity
  8
0
100
AcDbLine
 62
7
  6
CONTINUOUS
 10
573.5295746445
 20
386.3988316976
 11
573.3742576878
 21
387.641367342
  0
LINE
  5
529
100
AcDbEntity
  8
0
100
AcDbLine
 62
7
  6
CONTINUOUS
 10
576.075879647
 20
170.2049618772
 11
576.078517805
 21
167.692860217
  0
LINE
  5
52A
100
AcDbEntity
  8
0
100
AcDbLine
 62
7
  6
CONTINUOUS
 10
576.075879647
 20
386.2049618772
 11
576.078517805
 21
383.692860217
  0
LINE
  5
52B
100
AcDbEntity
  8
0
100
AcDbLine
 62
7
  6
CONTINUOUS
 10
567.4220392413
 20
200.2685664503
 11
567.4222912741
 21
198.714798667
  0
LINE
  5
52C
100
AcDbEntity
  8
0
100
AcDbLine
 62
7
  6
CONTINUOUS
 10
567.4220392413
 20
208.2685664503
 11
567.4222912741
 21
206.714798667
  0
LINE
  5
52D
100
AcDbEntity
  8
0
100
AcDbLine
 62
7
  6
CONTINUOUS
 10
567.4220392413
 20
320.2685664503
 11
567.4222912741
 21
318.714798667
  0
LINE
  5
52E
100
AcDbEntity
  8
0
100
AcDbLine
 62
7
  6
CONTINUOUS
 10
567.4220392413
 20
328.2685664503
 11
567.4222912741
 21
326.714798667
  0
LINE
  5
52F
100
AcDbEntity
  8
0
100
AcDbLine
 62
7
  6
CONTINUOUS
 10
567.4220392413
 20
336.2685664503
 11
567.4222912741
 21
334.714798667
  0
LINE
  5
530
100
AcDbEntity
  8
0
100
AcDbLine
 62
7
  6
CONTINUOUS
 10
567.4220392413
 20
344.2685664503
 11
567.4222912741
 21
342.714798667
  0
LINE
  5
531
100
AcDbEntity
  8
0
100
AcDbLine
 62
7
  6
CONTINUOUS
 10
566.0395195787
 20
410.492860217
 11
566.0395195787
 21
410.2016585002
  0
LINE
  5
532
100
AcDbEntity
  8
0
100
AcDbLine
 62
7
  6
CONTINUOUS
 10
566.0395195787
 20
377.4399561826
 11
566.0395196993
 21
383.5928572117
  0
LINE
  5
533
100
AcDbEntity
  8
0
100
AcDbLine
 62
7
  6
CONTINUOUS
 10
566.0395195787
 20
161.4399561826
 11
566.0395196993
 21
167.5928572117
  0
LINE
  5
534
100
AcDbEntity
  8
0
100
AcDbLine
 62
7
  6
CONTINUOUS
 10
566.5395195787
 20
383.592860217
 11
566.5395195787
 21
377.8929317509
  0
LINE
  5
535
100
AcDbEntity
  8
0
100
AcDbLine
 62
7
  6
CONTINUOUS
 10
566.5395195787
 20
167.592860217
 11
566.5395195787
 21
161.8929317509
  0
LINE
  5
536
100
AcDbEntity
  8
0
100
AcDbLine
 62
7
  6
CONTINUOUS
 10
566.9395195787
 20
198.7167737235
 11
566.9395195787
 21
200.2689465565
  0
LINE
  5
537
100
AcDbEntity
  8
0
100
AcDbLine
 62
7
  6
CONTINUOUS
 10
566.9395195787
 20
206.7167737235
 11
566.9395195787
 21
208.2689465565
  0
LINE
  5
538
100
AcDbEntity
  8
0
100
AcDbLine
 62
7
  6
CONTINUOUS
 10
566.9395195787
 20
226.5071413207
 11
566.9395195787
 21
228.478577807
  0
LINE
  5
539
100
AcDbEntity
  8
0
100
AcDbLine
 62
7
  6
CONTINUOUS
 10
566.9395195787
 20
234.5071426063
 11
566.9395195787
 21
236.4785776736
  0
LINE
  5
53A
100
AcDbEntity
  8
0
100
AcDbLine
 62
7
  6
CONTINUOUS
 10
566.9395195787
 20
250.5071428162
 11
566.9395195787
 21
252.478577167
  0
LINE
  5
53B
100
AcDbEntity
  8
0
100
AcDbLine
 62
7
  6
CONTINUOUS
 10
566.9395195787
 20
274.5071428162
 11
566.9395195787
 21
276.478577167
  0
LINE
  5
53C
100
AcDbEntity
  8
0
100
AcDbLine
 62
7
  6
CONTINUOUS
 10
566.9395195787
 20
318.7167737235
 11
566.9395195787
 21
320.2689465565
  0
LINE
  5
53D
100
AcDbEntity
  8
0
100
AcDbLine
 62
7
  6
CONTINUOUS
 10
566.9395195787
 20
326.7167737235
 11
566.9395195787
 21
328.2689465565
  0
LINE
  5
53E
100
AcDbEntity
  8
0
100
AcDbLine
 62
7
  6
CONTINUOUS
 10
566.9395195787
 20
342.7167737235
 11
566.9395195787
 21
344.2689465565
  0
LINE
  5
53F
100
AcDbEntity
  8
0
100
AcDbLine
 62
7
  6
CONTINUOUS
 10
566.9395308897
 20
292.4785776736
 11
566.9394602232
 21
290.5071426063
  0
LINE
  5
540
100
AcDbEntity
  8
0
100
AcDbLine
 62
7
  6
CONTINUOUS
 10
566.9395308897
 20
284.4785776736
 11
566.9394602232
 21
282.5071426063
  0
LINE
  5
541
100
AcDbEntity
  8
0
100
AcDbLine
 62
7
  6
CONTINUOUS
 10
566.9395308897
 20
268.4785776736
 11
566.9394602232
 21
266.5071426063
  0
LINE
  5
542
100
AcDbEntity
  8
0
100
AcDbLine
 62
7
  6
CONTINUOUS
 10
566.9395308897
 20
260.4785776736
 11
566.9394602232
 21
258.5071426063
  0
LINE
  5
543
100
AcDbEntity
  8
0
100
AcDbLine
 62
7
  6
CONTINUOUS
 10
566.9395308897
 20
244.4785776736
 11
566.9394602232
 21
242.5071426063
  0
LINE
  5
544
100
AcDbEntity
  8
0
100
AcDbLine
 62
7
  6
CONTINUOUS
 10
566.9395308897
 20
336.2689465565
 11
566.9394602232
 21
334.7167737235
  0
LINE
  5
545
100
AcDbEntity
  8
0
100
AcDbLine
 62
7
  6
CONTINUOUS
 10
567.0395195787
 20
168.092860217
 11
567.0395195787
 21
168.5928601573
  0
LINE
  5
546
100
AcDbEntity
  8
0
100
AcDbLine
 62
7
  6
CONTINUOUS
 10
567.0395195787
 20
384.092860217
 11
567.0395195787
 21
384.5928601573
  0
LINE
  5
547
100
AcDbEntity
  8
0
100
AcDbLine
 62
7
  6
CONTINUOUS
 10
567.4220392413
 20
236.4781975675
 11
567.4222912741
 21
234.5051675499
  0
LINE
  5
548
100
AcDbEntity
  8
0
100
AcDbLine
 62
7
  6
CONTINUOUS
 10
567.4220392413
 20
244.4781975675
 11
567.4222912741
 21
242.5051675499
  0
LINE
  5
549
100
AcDbEntity
  8
0
100
AcDbLine
 62
7
  6
CONTINUOUS
 10
567.4220392413
 20
260.4781975675
 11
567.4222912741
 21
258.5051675499
  0
LINE
  5
54A
100
AcDbEntity
  8
0
100
AcDbLine
 62
7
  6
CONTINUOUS
 10
567.4220392413
 20
268.4781975675
 11
567.4222912741
 21
266.5051675499
  0
LINE
  5
54B
100
AcDbEntity
  8
0
100
AcDbLine
 62
7
  6
CONTINUOUS
 10
567.4220392413
 20
284.4781975675
 11
567.4222912741
 21
282.5051675499
  0
LINE
  5
54C
100
AcDbEntity
  8
0
100
AcDbLine
 62
7
  6
CONTINUOUS
 10
567.4220392413
 20
292.4781975675
 11
567.4222912741
 21
290.5051675499
  0
LINE
  5
54D
100
AcDbEntity
  8
0
100
AcDbLine
 62
7
  6
CONTINUOUS
 10
567.4229520141
 20
228.4785778072
 11
567.4229520141
 21
226.5071426268
  0
LINE
  5
54E
100
AcDbEntity
  8
0
100
AcDbLine
 62
7
  6
CONTINUOUS
 10
567.422244148
 20
276.4794352903
 11
567.4221690388
 21
274.50557471
  0
LINE
  5
54F
100
AcDbEntity
  8
0
100
AcDbLine
 62
7
  6
CONTINUOUS
 10
567.422244148
 20
252.4794352903
 11
567.4221690388
 21
250.50557471
  0
LINE
  5
550
100
AcDbEntity
  8
0
100
AcDbLine
 62
7
  6
CONTINUOUS
 10
569.0395195574
 20
394.3276305647
 11
569.0395195787
 21
410.1060372302
  0
LINE
  5
551
100
AcDbEntity
  8
0
100
AcDbLine
 62
7
  6
CONTINUOUS
 10
569.5395195787
 20
394.027514193
 11
569.5395195787
 21
410.2767657964
  0
LINE
  5
552
100
AcDbEntity
  8
0
100
AcDbLine
 62
7
  6
CONTINUOUS
 10
572.8541093821
 20
168.5928602179
 11
572.8541093872
 21
171.5928601197
  0
LINE
  5
553
100
AcDbEntity
  8
0
100
AcDbLine
 62
7
  6
CONTINUOUS
 10
572.8541093821
 20
384.5928602179
 11
572.8541093872
 21
387.5928601197
  0
LINE
  5
554
100
AcDbEntity
  8
0
100
AcDbLine
 62
7
  6
CONTINUOUS
 10
573.0395195787
 20
383.492860217
 11
573.0395195787
 21
376.692860217
  0
LINE
  5
555
100
AcDbEntity
  8
0
100
AcDbLine
 62
7
  6
CONTINUOUS
 10
573.0395195787
 20
167.492860217
 11
573.0395195787
 21
160.692860217
  0
LINE
  5
556
100
AcDbEntity
  8
0
100
AcDbLine
 62
7
  6
CONTINUOUS
 10
573.1224375394
 20
168.592860217
 11
573.1224375394
 21
171.5928602503
  0
LINE
  5
557
100
AcDbEntity
  8
0
100
AcDbLine
 62
7
  6
CONTINUOUS
 10
573.1224375394
 20
384.592860217
 11
573.1224375394
 21
387.5928602503
  0
LINE
  5
558
100
AcDbEntity
  8
0
100
AcDbLine
 62
7
  6
CONTINUOUS
 10
573.1395195474
 20
193.0968681628
 11
573.1395195474
 21
351.8888962208
  0
LINE
  5
559
100
AcDbEntity
  8
0
100
AcDbLine
 62
7
  6
CONTINUOUS
 10
573.6395195787
 20
192.7467520794
 11
573.6395195787
 21
352.2389683546
  0
LINE
  5
55A
100
AcDbEntity
  8
0
100
AcDbLine
 62
7
  6
CONTINUOUS
 10
573.9339467697
 20
384.392860217
 11
573.933958189
 21
385.7910803675
  0
LINE
  5
55B
100
AcDbEntity
  8
0
100
AcDbLine
 62
7
  6
CONTINUOUS
 10
573.9339467697
 20
168.392860217
 11
573.933958189
 21
169.7910803675
  0
LINE
  5
55C
100
AcDbEntity
  8
0
100
AcDbLine
 62
7
  6
CONTINUOUS
 10
574.0395195787
 20
168.392860217
 11
574.0395195787
 21
169.792860217
  0
LINE
  5
55D
100
AcDbEntity
  8
0
100
AcDbLine
 62
7
  6
CONTINUOUS
 10
574.0395195787
 20
384.392860217
 11
574.0395195787
 21
385.792860217
  0
LINE
  5
55E
100
AcDbEntity
  8
0
100
AcDbLine
 62
7
  6
CONTINUOUS
 10
575.8812274195
 20
167.692860217
 11
575.881226675
 21
170.2049549616
  0
LINE
  5
55F
100
AcDbEntity
  8
0
100
AcDbLine
 62
7
  6
CONTINUOUS
 10
575.8812274195
 20
383.692860217
 11
575.881226675
 21
386.2049549616
  0
LINE
  5
560
100
AcDbEntity
  8
0
100
AcDbLine
 62
7
  6
CONTINUOUS
 10
577.5395193646
 20
173.6398902867
 11
577.5395194248
 21
166.2910203476
  0
LINE
  5
561
100
AcDbEntity
  8
0
100
AcDbLine
 62
7
  6
CONTINUOUS
 10
577.5395193646
 20
389.6398902867
 11
577.5395194248
 21
382.2910203477
  0
LINE
  5
562
100
AcDbEntity
  8
0
100
AcDbLine
 62
7
  6
CONTINUOUS
 10
580.9395721682
 20
407.0222077121
 11
580.9395722062
 21
410.5214021189
  0
LINE
  5
563
100
AcDbEntity
  8
0
100
AcDbLine
 62
7
  6
CONTINUOUS
 10
580.9395721682
 20
134.4643183159
 11
580.9395722062
 21
137.9635136914
  0
LINE
  5
564
100
AcDbEntity
  8
0
100
AcDbLine
 62
7
  6
CONTINUOUS
 10
581.9395195787
 20
125.3202757348
 11
581.9395195787
 21
419.6654446992
  0
LINE
  5
565
100
AcDbEntity
  8
0
100
AcDbLine
 62
7
  6
CONTINUOUS
 10
582.2656663015
 20
125.0213943579
 11
582.2656663015
 21
419.9643260761
  0
LINE
  5
566
100
AcDbEntity
  8
0
100
AcDbLine
 62
7
  6
CONTINUOUS
 10
589.0656663015
 20
419.3694031641
 11
589.0656663015
 21
125.6163172698
  0
LINE
  5
567
100
AcDbEntity
  8
0
100
AcDbLine
 62
7
  6
CONTINUOUS
 10
589.3395195787
 20
125.9151756793
 11
589.3395195787
 21
419.0705447547
  0
LINE
  5
568
100
AcDbEntity
  8
0
100
AcDbLine
 62
7
  6
CONTINUOUS
 10
589.9895195787
 20
154.642860217
 11
589.9895195787
 21
127.092860217
  0
LINE
  5
569
100
AcDbEntity
  8
0
100
AcDbLine
 62
7
  6
CONTINUOUS
 10
590.2895195787
 20
127.392860217
 11
590.2895195787
 21
154.342860217
  0
LINE
  5
56A
100
AcDbEntity
  8
0
100
AcDbLine
 62
7
  6
CONTINUOUS
 10
590.3795195787
 20
155.092860217
 11
590.3795195787
 21
417.892860217
  0
LINE
  5
56B
100
AcDbEntity
  8
0
100
AcDbLine
 62
7
  6
CONTINUOUS
 10
590.6375195787
 20
127.992860217
 11
590.6375195787
 21
153.692860217
  0
LINE
  5
56C
100
AcDbEntity
  8
0
100
AcDbLine
 62
7
  6
CONTINUOUS
 10
590.6795195787
 20
417.5928602167
 11
590.6795195787
 21
155.3928602188
  0
LINE
  5
56D
100
AcDbEntity
  8
0
100
AcDbLine
 62
7
  6
CONTINUOUS
 10
557.5961764786
 20
293.4427239441
 11
557.6046096357
 21
293.942170598
  0
LINE
  5
56E
100
AcDbEntity
  8
0
100
AcDbLine
 62
7
  6
CONTINUOUS
 10
557.5961764786
 20
285.4427239441
 11
557.6046098295
 21
285.9421705878
  0
LINE
  5
56F
100
AcDbEntity
  8
0
100
AcDbLine
 62
7
  6
CONTINUOUS
 10
557.5961764786
 20
269.4427239441
 11
557.6046097522
 21
269.9421705919
  0
LINE
  5
570
100
AcDbEntity
  8
0
100
AcDbLine
 62
7
  6
CONTINUOUS
 10
557.5961764786
 20
261.4427239441
 11
557.6046098295
 21
261.9421705878
  0
LINE
  5
571
100
AcDbEntity
  8
0
100
AcDbLine
 62
7
  6
CONTINUOUS
 10
557.5961764786
 20
245.4427239441
 11
557.6046097522
 21
245.9421705919
  0
LINE
  5
572
100
AcDbEntity
  8
0
100
AcDbLine
 62
7
  6
CONTINUOUS
 10
557.5961764786
 20
237.4427239441
 11
557.6046098295
 21
237.9421705878
  0
LINE
  5
573
100
AcDbEntity
  8
0
100
AcDbLine
 62
7
  6
CONTINUOUS
 10
557.596096887
 20
277.4427024642
 11
557.6046139912
 21
277.942123538
  0
LINE
  5
574
100
AcDbEntity
  8
0
100
AcDbLine
 62
7
  6
CONTINUOUS
 10
557.596096887
 20
253.4427024642
 11
557.6046139912
 21
253.942123538
  0
LINE
  5
575
100
AcDbEntity
  8
0
100
AcDbLine
 62
7
  6
CONTINUOUS
 10
557.604620394
 20
229.9429647336
 11
557.595886106
 21
229.4427391711
  0
LINE
  5
576
100
AcDbEntity
  8
0
100
AcDbLine
 62
7
  6
CONTINUOUS
 10
566.4656875568
 20
228.9778925744
 11
566.474421725
 21
229.4781201739
  0
LINE
  5
577
100
AcDbEntity
  8
0
100
AcDbLine
 62
7
  6
CONTINUOUS
 10
566.4656914522
 20
276.9778356465
 11
566.4754597938
 21
277.4771520728
  0
LINE
  5
578
100
AcDbEntity
  8
0
100
AcDbLine
 62
7
  6
CONTINUOUS
 10
566.4656914522
 20
252.9778356465
 11
566.4754597938
 21
253.4771520728
  0
LINE
  5
579
100
AcDbEntity
  8
0
100
AcDbLine
 62
7
  6
CONTINUOUS
 10
566.4656919987
 20
344.7681999761
 11
566.4763751622
 21
345.2674729772
  0
LINE
  5
57A
100
AcDbEntity
  8
0
100
AcDbLine
 62
7
  6
CONTINUOUS
 10
566.4656919987
 20
336.7681999761
 11
566.4763751622
 21
337.2674729772
  0
LINE
  5
57B
100
AcDbEntity
  8
0
100
AcDbLine
 62
7
  6
CONTINUOUS
 10
566.4656919987
 20
328.7681999761
 11
566.4763751622
 21
329.2674729772
  0
LINE
  5
57C
100
AcDbEntity
  8
0
100
AcDbLine
 62
7
  6
CONTINUOUS
 10
566.4656919987
 20
320.7681999761
 11
566.4763751622
 21
321.2674729772
  0
LINE
  5
57D
100
AcDbEntity
  8
0
100
AcDbLine
 62
7
  6
CONTINUOUS
 10
566.4656919987
 20
292.9778310932
 11
566.4763751623
 21
293.4771040943
  0
LINE
  5
57E
100
AcDbEntity
  8
0
100
AcDbLine
 62
7
  6
CONTINUOUS
 10
566.4656919987
 20
284.9778310932
 11
566.4763751623
 21
285.4771040943
  0
LINE
  5
57F
100
AcDbEntity
  8
0
100
AcDbLine
 62
7
  6
CONTINUOUS
 10
566.4656919987
 20
268.9778310932
 11
566.4763751623
 21
269.4771040943
  0
LINE
  5
580
100
AcDbEntity
  8
0
100
AcDbLine
 62
7
  6
CONTINUOUS
 10
566.4656919987
 20
260.9778310932
 11
566.4763751623
 21
261.4771040943
  0
LINE
  5
581
100
AcDbEntity
  8
0
100
AcDbLine
 62
7
  6
CONTINUOUS
 10
566.4656919987
 20
244.9778310932
 11
566.4763751623
 21
245.4771040943
  0
LINE
  5
582
100
AcDbEntity
  8
0
100
AcDbLine
 62
7
  6
CONTINUOUS
 10
566.4656919987
 20
236.9778310932
 11
566.4763751623
 21
237.4771040943
  0
LINE
  5
583
100
AcDbEntity
  8
0
100
AcDbLine
 62
7
  6
CONTINUOUS
 10
566.4656919987
 20
208.7681999761
 11
566.4763751622
 21
209.2674729772
  0
LINE
  5
584
100
AcDbEntity
  8
0
100
AcDbLine
 62
7
  6
CONTINUOUS
 10
566.4656919987
 20
200.7681999761
 11
566.4763751622
 21
201.2674729772
  0
LINE
  5
585
100
AcDbEntity
  8
0
100
AcDbLine
 62
7
  6
CONTINUOUS
 10
557.7567449716
 20
133.6736873856
 11
557.7672148206
 21
133.9735046337
  0
LINE
  5
586
100
AcDbEntity
  8
0
100
AcDbLine
 62
7
  6
CONTINUOUS
 10
577.0083067647
 20
388.4489815622
 11
577.1154205219
 21
389.8113307204
  0
LINE
  5
587
100
AcDbEntity
  8
0
100
AcDbLine
 62
7
  6
CONTINUOUS
 10
577.2998844561
 20
389.6189241843
 11
577.2028474369
 21
388.3854712235
  0
LINE
  5
588
100
AcDbEntity
  8
0
100
AcDbLine
 62
7
  6
CONTINUOUS
 10
577.10523227
 20
173.6821697374
 11
577.0083067652
 21
172.4489815621
  0
LINE
  5
589
100
AcDbEntity
  8
0
100
AcDbLine
 62
7
  6
CONTINUOUS
 10
577.3001548572
 20
173.6224545619
 11
577.2028474369
 21
172.3854712236
  0
LINE
  5
58A
100
AcDbEntity
  8
0
100
AcDbLine
 62
7
  6
CONTINUOUS
 10
562.9536367792
 20
411.7121491557
 11
562.9814145569
 21
411.9121491557
  0
LINE
  5
58B
100
AcDbEntity
  8
0
100
AcDbLine
 62
7
  6
CONTINUOUS
 10
563.1599893361
 20
413.1978875655
 11
563.1877671138
 21
413.3978875655
  0
LINE
  5
58C
100
AcDbEntity
  8
0
100
AcDbLine
 62
7
  6
CONTINUOUS
 10
563.4331670218
 20
412.2571218072
 11
563.5006306898
 21
412.742860217
  0
LINE
  5
58D
100
AcDbEntity
  8
0
100
AcDbLine
 62
7
  6
CONTINUOUS
 10
563.1658600827
 20
410.3325118457
 11
563.2942781329
 21
411.2571218072
  0
LWPOLYLINE
  5
58E
100
AcDbEntity
  8
0
100
AcDbPolyline
 62
7
  6
CONTINUOUS
 90
4
 70
0
 10
573.1224375394
 20
387.5928602503
 10
573.1360419587
 20
387.6890320342
 10
573.1713555359
 20
387.7619071907
 10
573.2224375394
 20
387.792860217
  0
LWPOLYLINE
  5
58F
100
AcDbEntity
  8
0
100
AcDbPolyline
 62
7
  6
CONTINUOUS
 90
3
 70
0
 10
577.2028474369
 20
172.3854712236
 10
577.1833738014
 20
172.2424970094
 10
577.1730562228
 20
172.1995984679
  0
LWPOLYLINE
  5
590
100
AcDbEntity
  8
0
100
AcDbPolyline
 62
7
  6
CONTINUOUS
 90
4
 70
0
 10
573.1224375394
 20
171.5928602503
 10
573.1360419587
 20
171.6890320342
 10
573.1713555359
 20
171.7619071907
 10
573.2224375394
 20
171.792860217
  0
LWPOLYLINE
  5
591
100
AcDbEntity
  8
0
100
AcDbPolyline
 62
7
  6
CONTINUOUS
 90
4
 70
0
 10
573.9339467697
 20
384.392860217
 10
573.8979976132
 20
384.242860217
 10
573.7997826911
 20
384.1330525959
 10
573.6656186124
 20
384.092860217
  0
LWPOLYLINE
  5
592
100
AcDbEntity
  8
0
100
AcDbPolyline
 62
7
  6
CONTINUOUS
 90
3
 70
0
 10
577.1730350065
 20
388.2001756744
 10
577.1831793378
 20
388.2416871311
 10
577.2028474369
 20
388.3854712235
  0
LINE
  5
593
100
AcDbEntity
  8
0
100
AcDbLine
 62
7
  6
CONTINUOUS
 10
560.1332837438
 20
357.0426262889
 11
560.0123951995
 21
356.5573612129
  0
LINE
  5
594
100
AcDbEntity
  8
0
100
AcDbLine
 62
7
  6
CONTINUOUS
 10
572.0476713617
 20
353.3325186845
 11
572.1685481467
 21
353.8177440249
  0
LWPOLYLINE
  5
595
100
AcDbEntity
  8
0
100
AcDbPolyline
 62
7
  6
CONTINUOUS
 90
4
 70
0
 10
550.2395195787
 20
346.0052957823
 10
550.2519244729
 20
346.04182763
 10
550.287942739
 20
346.0251687681
 10
550.3460189108
 20
345.954986273
  0
LWPOLYLINE
  5
596
100
AcDbEntity
  8
0
100
AcDbPolyline
 62
7
  6
CONTINUOUS
 90
4
 70
0
 10
573.9339467697
 20
168.392860217
 10
573.8979976132
 20
168.242860217
 10
573.7997826911
 20
168.1330525959
 10
573.6656186124
 20
168.092860217
  0
LWPOLYLINE
  5
597
100
AcDbEntity
  8
0
100
AcDbPolyline
 62
7
  6
CONTINUOUS
 90
4
 70
0
 10
577.0083313325
 20
388.4487288326
 10
576.9816714108
 20
388.37628341
 10
576.9437794583
 20
388.3237291061
 10
576.9003410592
 20
388.3017624936
  0
LWPOLYLINE
  5
598
100
AcDbEntity
  8
0
100
AcDbPolyline
 62
7
  6
CONTINUOUS
 90
3
 70
0
 10
577.1730562228
 20
172.1995984679
 10
577.1526267797
 20
172.1437538857
 10
577.1124244271
 20
172.1025235605
  0
LWPOLYLINE
  5
599
100
AcDbEntity
  8
0
100
AcDbPolyline
 62
7
  6
CONTINUOUS
 90
4
 70
0
 10
577.008331333
 20
172.4487288326
 10
576.9814141191
 20
172.3758327918
 10
576.9439343611
 20
172.3238639322
 10
576.9003410585
 20
172.3017624935
  0
LINE
  5
59A
100
AcDbEntity
  8
0
100
AcDbLine
 62
7
  6
CONTINUOUS
 10
573.3742576883
 20
387.6413673423
 11
573.4035365232
 21
387.679119391
  0
LINE
  5
59B
100
AcDbEntity
  8
0
100
AcDbLine
 62
7
  6
CONTINUOUS
 10
573.5295746592
 20
386.3988315755
 11
573.5589427387
 21
386.4359363765
  0
LWPOLYLINE
  5
59C
100
AcDbEntity
  8
0
100
AcDbPolyline
 62
7
  6
CONTINUOUS
 90
4
 70
0
 10
550.3460189108
 20
343.6307341609
 10
550.2881853459
 20
343.560760531
 10
550.2517619779
 20
343.5439816119
 10
550.2395195787
 20
343.5804246517
  0
LINE
  5
59D
100
AcDbEntity
  8
0
100
AcDbLine
 62
7
  6
CONTINUOUS
 10
552.6394150847
 20
341.0182678199
 11
553.1133516075
 21
341.5176927083
  0
LINE
  5
59E
100
AcDbEntity
  8
0
100
AcDbLine
 62
7
  6
CONTINUOUS
 10
552.6394150847
 20
333.0182678199
 11
553.1133516075
 21
333.5176927083
  0
LINE
  5
59F
100
AcDbEntity
  8
0
100
AcDbLine
 62
7
  6
CONTINUOUS
 10
552.6394150847
 20
325.0182678199
 11
553.1133516075
 21
325.5176927083
  0
LINE
  5
5A0
100
AcDbEntity
  8
0
100
AcDbLine
 62
7
  6
CONTINUOUS
 10
553.495946949
 20
376.959636651
 11
552.7829019955
 21
376.2340368347
  0
LINE
  5
5A1
100
AcDbEntity
  8
0
100
AcDbLine
 62
7
  6
CONTINUOUS
 10
554.032273488
 20
376.1142022936
 11
553.6046202758
 21
375.6790192232
  0
LINE
  5
5A2
100
AcDbEntity
  8
0
100
AcDbLine
 62
7
  6
CONTINUOUS
 10
566.5395195787
 20
377.892860217
 11
566.0395195787
 21
377.392860217
  0
LWPOLYLINE
  5
5A3
100
AcDbEntity
  8
0
100
AcDbPolyline
 62
7
  6
CONTINUOUS
 90
3
 70
0
 10
577.1124244272
 20
388.1025235606
 10
577.1511896698
 20
388.1405813248
 10
577.1730350065
 20
388.2001756744
  0
LINE
  5
5A4
100
AcDbEntity
  8
0
100
AcDbLine
 62
7
  6
CONTINUOUS
 10
562.504915032
 20
414.2396633978
 11
557.5826387218
 21
410.4659182266
  0
LINE
  5
5A5
100
AcDbEntity
  8
0
100
AcDbLine
 62
7
  6
CONTINUOUS
 10
563.1877671138
 20
413.3978875655
 11
563.6395195787
 21
413.742860217
  0
LINE
  5
5A6
100
AcDbEntity
  8
0
100
AcDbLine
 62
7
  6
CONTINUOUS
 10
562.9814145569
 20
411.9121491557
 11
563.4331670218
 21
412.2571218072
  0
LINE
  5
5A7
100
AcDbEntity
  8
0
100
AcDbLine
 62
7
  6
CONTINUOUS
 10
555.815795789
 20
134.5258400086
 11
555.6675787142
 21
134.26501114
  0
LINE
  5
5A8
100
AcDbEntity
  8
0
100
AcDbLine
 62
7
  6
CONTINUOUS
 10
552.6394150847
 20
317.0182678199
 11
553.1133516075
 21
317.5176927083
  0
LINE
  5
5A9
100
AcDbEntity
  8
0
100
AcDbLine
 62
7
  6
CONTINUOUS
 10
556.6394150847
 20
289.0182678199
 11
557.1133516075
 21
289.5176927083
  0
LINE
  5
5AA
100
AcDbEntity
  8
0
100
AcDbLine
 62
7
  6
CONTINUOUS
 10
556.6394150847
 20
281.01826782
 11
557.1133516075
 21
281.5176927083
  0
LINE
  5
5AB
100
AcDbEntity
  8
0
100
AcDbLine
 62
7
  6
CONTINUOUS
 10
556.6395176669
 20
273.0183759191
 11
557.1133500835
 21
273.5176911023
  0
LINE
  5
5AC
100
AcDbEntity
  8
0
100
AcDbLine
 62
7
  6
CONTINUOUS
 10
556.6394150847
 20
265.0182678199
 11
557.1133516075
 21
265.5176927083
  0
LINE
  5
5AD
100
AcDbEntity
  8
0
100
AcDbLine
 62
7
  6
CONTINUOUS
 10
573.3742576883
 20
171.6413673423
 11
573.4035365232
 21
171.679119391
  0
LINE
  5
5AE
100
AcDbEntity
  8
0
100
AcDbLine
 62
7
  6
CONTINUOUS
 10
573.5295746592
 20
170.3988315755
 11
573.5589427387
 21
170.4359363765
  0
LINE
  5
5AF
100
AcDbEntity
  8
0
100
AcDbLine
 62
7
  6
CONTINUOUS
 10
556.6394150847
 20
257.01826782
 11
557.1133516075
 21
257.5176927083
  0
LINE
  5
5B0
100
AcDbEntity
  8
0
100
AcDbLine
 62
7
  6
CONTINUOUS
 10
556.6395176669
 20
249.0183759191
 11
557.1133500835
 21
249.5176911023
  0
LINE
  5
5B1
100
AcDbEntity
  8
0
100
AcDbLine
 62
7
  6
CONTINUOUS
 10
556.6394150847
 20
241.0182678199
 11
557.1133516075
 21
241.5176927083
  0
LINE
  5
5B2
100
AcDbEntity
  8
0
100
AcDbLine
 62
7
  6
CONTINUOUS
 10
556.6394150847
 20
233.0182678199
 11
557.1133516075
 21
233.5176927083
  0
LINE
  5
5B3
100
AcDbEntity
  8
0
100
AcDbLine
 62
7
  6
CONTINUOUS
 10
557.1142178458
 20
225.517738099
 11
556.6395195787
 21
225.0175104995
  0
LINE
  5
5B4
100
AcDbEntity
  8
0
100
AcDbLine
 62
7
  6
CONTINUOUS
 10
552.6394150847
 20
205.0182678199
 11
553.1133516075
 21
205.5176927083
  0
LINE
  5
5B5
100
AcDbEntity
  8
0
100
AcDbLine
 62
7
  6
CONTINUOUS
 10
552.6394150847
 20
197.0182678199
 11
553.1133516075
 21
197.5176927083
  0
LINE
  5
5B6
100
AcDbEntity
  8
0
100
AcDbLine
 62
7
  6
CONTINUOUS
 10
557.604620082
 20
221.0786466546
 11
553.613339835
 21
217.0786468484
  0
LINE
  5
5B7
100
AcDbEntity
  8
0
100
AcDbLine
 62
7
  6
CONTINUOUS
 10
553.2465987504
 20
225.2999393887
 11
547.9324127975
 21
219.9857534358
  0
LINE
  5
5B8
100
AcDbEntity
  8
0
100
AcDbLine
 62
7
  6
CONTINUOUS
 10
553.6001521409
 20
224.9463853509
 11
548.2860008617
 21
219.6322329402
  0
LINE
  5
5B9
100
AcDbEntity
  8
0
100
AcDbLine
 62
7
  6
CONTINUOUS
 10
553.3396416108
 20
222.992860217
 11
552.8395195787
 21
222.4927788688
  0
LINE
  5
5BA
100
AcDbEntity
  8
0
100
AcDbLine
 62
7
  6
CONTINUOUS
 10
556.1396416108
 20
222.992860217
 11
555.6395195787
 21
222.4927788688
  0
LINE
  5
5BB
100
AcDbEntity
  8
0
100
AcDbLine
 62
7
  6
CONTINUOUS
 10
552.9324127975
 20
217.7857534358
 11
556.346672113
 21
221.2000127513
  0
LINE
  5
5BC
100
AcDbEntity
  8
0
100
AcDbLine
 62
7
  6
CONTINUOUS
 10
545.1395195787
 20
209.192860217
 11
543.1581147559
 21
207.2114553942
  0
LINE
  5
5BD
100
AcDbEntity
  8
0
100
AcDbLine
 62
7
  6
CONTINUOUS
 10
522.1601919267
 20
344.5772274225
 11
547.1188416937
 21
358.2084899875
  0
LINE
  5
5BE
100
AcDbEntity
  8
0
100
AcDbLine
 62
7
  6
CONTINUOUS
 10
546.6919131967
 20
352.4212177654
 11
522.5871836563
 21
339.2562340804
  0
LINE
  5
5BF
100
AcDbEntity
  8
0
100
AcDbLine
 62
7
  6
CONTINUOUS
 10
553.495946949
 20
160.959636651
 11
552.7829019955
 21
160.2340368347
  0
LINE
  5
5C0
100
AcDbEntity
  8
0
100
AcDbLine
 62
7
  6
CONTINUOUS
 10
554.0309686754
 20
160.1128745067
 11
553.6046200819
 21
159.6790190259
  0
LINE
  5
5C1
100
AcDbEntity
  8
0
100
AcDbLine
 62
7
  6
CONTINUOUS
 10
566.5395195787
 20
161.892860217
 11
566.0395195787
 21
161.392860217
  0
LWPOLYLINE
  5
5C2
100
AcDbEntity
  8
0
100
AcDbPolyline
 62
7
  6
CONTINUOUS
 90
4
 70
0
 10
522.0942160635
 20
326.9927261041
 10
522.006085201
 20
326.9641726654
 10
521.9227617706
 20
326.9480009495
 10
521.8468803839
 20
326.942860217
  0
LINE
  5
5C3
100
AcDbEntity
  8
0
100
AcDbLine
 62
7
  6
CONTINUOUS
 10
590.67951958
 20
155.3928602183
 11
590.3795195797
 21
155.092860218
  0
LWPOLYLINE
  5
5C4
100
AcDbEntity
  8
0
100
AcDbPolyline
 62
7
  6
CONTINUOUS
 90
4
 70
0
 10
543.6093018714
 20
204.9928722456
 10
543.5198523209
 20
204.9642317654
 10
543.4350101597
 20
204.948013931
 10
543.3574522994
 20
204.942860217
  0
ARC
  5
5C5
100
AcDbEntity
  8
0
100
AcDbCircle
 62
7
  6
CONTINUOUS
 10
-130.775225854
 20
108.1707653061
 40
679.6711140097
100
AcDbArc
 50
4.3090488692
 51
4.6156392767
  0
ARC
  5
5C6
100
AcDbEntity
  8
0
100
AcDbCircle
 62
7
  6
CONTINUOUS
 10
293.6347650943
 20
140.132066597
 40
254.0593609203
100
AcDbArc
 50
4.0445899961
 51
4.3130189975
  0
ARC
  5
5C7
100
AcDbEntity
  8
0
100
AcDbCircle
 62
7
  6
CONTINUOUS
 10
-235.2673544358
 20
415.2702159641
 40
784.4806785537
100
AcDbArc
 50
355.4047943227
 51
355.6701122561
  0
ARC
  5
5C8
100
AcDbEntity
  8
0
100
AcDbCircle
 62
7
  6
CONTINUOUS
 10
294.2250506967
 20
375.0790151415
 40
253.4651340388
100
AcDbArc
 50
355.6928083201
 51
356.0156289135
  0
ARC
  5
5C9
100
AcDbEntity
  8
0
100
AcDbCircle
 62
7
  6
CONTINUOUS
 10
387.9318244524
 20
190.5127564433
 40
158.8452934397
100
AcDbArc
 50
0.5961953465
 51
0.9961473641
  0
ARC
  5
5CA
100
AcDbEntity
  8
0
100
AcDbCircle
 62
7
  6
CONTINUOUS
 10
370.9445200761
 20
188.5333553263
 40
152.1581523669
100
AcDbArc
 50
354.9064332041
 51
355.0873265467
  0
ARC
  5
5CB
100
AcDbEntity
  8
0
100
AcDbCircle
 62
7
  6
CONTINUOUS
 10
445.2519324109
 20
182.150836124
 40
77.5771357405
100
AcDbArc
 50
355.0840662404
 51
355.4742784911
  0
ARC
  5
5CC
100
AcDbEntity
  8
0
100
AcDbCircle
 62
7
  6
CONTINUOUS
 10
568.6465314777
 20
145.9075017627
 40
27.8175043073
100
AcDbArc
 50
123.646857953
 51
124.1910020616
  0
ARC
  5
5CD
100
AcDbEntity
  8
0
100
AcDbCircle
 62
7
  6
CONTINUOUS
 10
579.8159149844
 20
165.8743866646
 40
26.4207963261
100
AcDbArc
 50
191.7228733937
 51
192.5955425182
  0
ARC
  5
5CE
100
AcDbEntity
  8
0
100
AcDbCircle
 62
7
  6
CONTINUOUS
 10
565.650931305
 20
150.4339130636
 40
22.3896346969
100
AcDbArc
 50
122.5496810322
 51
123.6832417741
  0
ARC
  5
5CF
100
AcDbEntity
  8
0
100
AcDbCircle
 62
7
  6
CONTINUOUS
 10
568.9513450723
 20
165.3727550797
 40
15.3240254664
100
AcDbArc
 50
168.3116486531
 51
169.4868601879
  0
ARC
  5
5D0
100
AcDbEntity
  8
0
100
AcDbCircle
 62
7
  6
CONTINUOUS
 10
567.4677779731
 20
165.6935829077
 40
13.8062323724
100
AcDbArc
 50
166.6922595992
 51
168.368179663
  0
ARC
  5
5D1
100
AcDbEntity
  8
0
100
AcDbCircle
 62
7
  6
CONTINUOUS
 10
557.9155376816
 20
138.2209156485
 40
4.55
100
AcDbArc
 50
240.3924184854
 51
267.9999999256
  0
ARC
  5
5D2
100
AcDbEntity
  8
0
100
AcDbCircle
 62
7
  6
CONTINUOUS
 10
557.9155376816
 20
138.2209156485
 40
4.2500334858
100
AcDbArc
 50
240.3924184857
 51
268.0
  0
ARC
  5
5D3
100
AcDbEntity
  8
0
100
AcDbCircle
 62
7
  6
CONTINUOUS
 10
553.5395195787
 20
166.492860217
 40
1.0
100
AcDbArc
 50
90.0
 51
180.0
  0
ARC
  5
5D4
100
AcDbEntity
  8
0
100
AcDbCircle
 62
7
  6
CONTINUOUS
 10
553.5395195787
 20
162.492860217
 40
1.0
100
AcDbArc
 50
180.0
 51
270.0
  0
ARC
  5
5D5
100
AcDbEntity
  8
0
100
AcDbCircle
 62
7
  6
CONTINUOUS
 10
553.6395195787
 20
136.4180736088
 40
1.0
100
AcDbArc
 50
179.9999948517
 51
268.0
  0
ARC
  5
5D6
100
AcDbEntity
  8
0
100
AcDbCircle
 62
7
  6
CONTINUOUS
 10
546.6395195787
 20
156.1995913919
 40
1.0
100
AcDbArc
 50
40.9057800714
 51
61.3586697662
  0
ARC
  5
5D7
100
AcDbEntity
  8
0
100
AcDbCircle
 62
7
  6
CONTINUOUS
 10
548.6396071464
 20
136.5926714448
 40
0.9999819246
100
AcDbArc
 50
179.9996556049
 51
267.9945771838
  0
ARC
  5
5D8
100
AcDbEntity
  8
0
100
AcDbCircle
 62
7
  6
CONTINUOUS
 10
563.5395195787
 20
161.892860217
 40
0.5
100
AcDbArc
 50
180.0
 51
270.0
  0
ARC
  5
5D9
100
AcDbEntity
  8
0
100
AcDbCircle
 62
7
  6
CONTINUOUS
 10
563.5395195787
 20
134.992860217
 40
0.5
100
AcDbArc
 50
225.0
 51
270.0000000005
  0
ARC
  5
5DA
100
AcDbEntity
  8
0
100
AcDbCircle
 62
7
  6
CONTINUOUS
 10
553.852617723
 20
160.6092283703
 40
0.5
100
AcDbArc
 50
90.9930020316
 51
135.5
  0
ARC
  5
5DB
100
AcDbEntity
  8
0
100
AcDbCircle
 62
7
  6
CONTINUOUS
 10
553.1395195787
 20
159.8835744267
 40
0.5
100
AcDbArc
 50
135.4983578389
 51
180.0
  0
ARC
  5
5DC
100
AcDbEntity
  8
0
100
AcDbCircle
 62
7
  6
CONTINUOUS
 10
589.0395195787
 20
125.9151756793
 40
0.3
100
AcDbArc
 50
275.0000004323
 51
360.0
  0
ARC
  5
5DD
100
AcDbEntity
  8
0
100
AcDbCircle
 62
7
  6
CONTINUOUS
 10
589.9895195787
 20
127.392860217
 40
0.3
100
AcDbArc
 50
270.0
 51
360.0
  0
ARC
  5
5DE
100
AcDbEntity
  8
0
100
AcDbCircle
 62
7
  6
CONTINUOUS
 10
589.9895195787
 20
154.342860217
 40
0.3
100
AcDbArc
 50
0.0
 51
90.0
  0
ARC
  5
5DF
100
AcDbEntity
  8
0
100
AcDbCircle
 62
7
  6
CONTINUOUS
 10
582.2395195787
 20
125.3202527673
 40
0.3
100
AcDbArc
 50
180.000000004
 51
275.00062431
  0
ARC
  5
5E0
100
AcDbEntity
  8
0
100
AcDbCircle
 62
7
  6
CONTINUOUS
 10
562.1395195787
 20
160.692860217
 40
0.2
100
AcDbArc
 50
180.0
 51
270.0000000001
  0
ARC
  5
5E1
100
AcDbEntity
  8
0
100
AcDbCircle
 62
7
  6
CONTINUOUS
 10
572.8395195787
 20
160.692860217
 40
0.2
100
AcDbArc
 50
270.0
 51
360.0
  0
ARC
  5
5E2
100
AcDbEntity
  8
0
100
AcDbCircle
 62
7
  6
CONTINUOUS
 10
522.6395195787
 20
171.5861290421
 40
1.0
100
AcDbArc
 50
180.0
 51
241.3585908766
  0
ARC
  5
5E3
100
AcDbEntity
  8
0
100
AcDbCircle
 62
7
  6
CONTINUOUS
 10
544.1395195787
 20
200.6756133357
 40
1.0
100
AcDbArc
 50
179.9999999788
 51
239.9999999806
  0
ARC
  5
5E4
100
AcDbEntity
  8
0
100
AcDbCircle
 62
7
  6
CONTINUOUS
 10
544.1395195787
 20
199.392860217
 40
1.0
100
AcDbArc
 50
180.0000000202
 51
269.999999996
  0
ARC
  5
5E5
100
AcDbEntity
  8
0
100
AcDbCircle
 62
7
  6
CONTINUOUS
 10
522.6395195787
 20
195.1839068695
 40
1.0
100
AcDbArc
 50
180.0
 51
263.0000642268
  0
ARC
  5
5E6
100
AcDbEntity
  8
0
100
AcDbCircle
 62
7
  6
CONTINUOUS
 10
548.1395195787
 20
189.892860217
 40
0.5
100
AcDbArc
 50
89.9992560576
 51
180.0
  0
ARC
  5
5E7
100
AcDbEntity
  8
0
100
AcDbCircle
 62
7
  6
CONTINUOUS
 10
542.9395195787
 20
205.242860217
 40
0.3
100
AcDbArc
 50
179.9999210889
 51
270.0
  0
ARC
  5
5E8
100
AcDbEntity
  8
0
100
AcDbCircle
 62
7
  6
CONTINUOUS
 10
542.9395195787
 20
205.742860217
 40
0.3
100
AcDbArc
 50
90.0
 51
180.0000463075
  0
ARC
  5
5E9
100
AcDbEntity
  8
0
100
AcDbCircle
 62
7
  6
CONTINUOUS
 10
568.7244997587
 20
186.4618849322
 40
28.4283077181
100
AcDbArc
 50
149.9921922455
 51
151.0184958239
  0
ARC
  5
5EA
100
AcDbEntity
  8
0
100
AcDbCircle
 62
7
  6
CONTINUOUS
 10
568.7067113047
 20
183.3125307484
 40
28.0452910877
100
AcDbArc
 50
235.9813796826
 51
236.517162882
  0
ARC
  5
5EB
100
AcDbEntity
  8
0
100
AcDbCircle
 62
7
  6
CONTINUOUS
 10
555.0395195787
 20
170.492860217
 40
5.0
100
AcDbArc
 50
147.7307720129
 51
163.7397952917
  0
ARC
  5
5EC
100
AcDbEntity
  8
0
100
AcDbCircle
 62
7
  6
CONTINUOUS
 10
555.0395195787
 20
170.492860217
 40
5.0
100
AcDbArc
 50
196.2602047083
 51
212.2692279871
  0
ARC
  5
5ED
100
AcDbEntity
  8
0
100
AcDbCircle
 62
7
  6
CONTINUOUS
 10
560.6388509272
 20
186.0194457055
 40
2.4889705166
100
AcDbArc
 50
105.0136311972
 51
113.1126152176
  0
ARC
  5
5EE
100
AcDbEntity
  8
0
100
AcDbCircle
 62
7
  6
CONTINUOUS
 10
560.6395195787
 20
185.658206241
 40
2.0
100
AcDbArc
 50
105.0
 51
180.0
  0
ARC
  5
5EF
100
AcDbEntity
  8
0
100
AcDbCircle
 62
7
  6
CONTINUOUS
 10
560.6395195787
 20
186.008206241
 40
2.0
100
AcDbArc
 50
104.6619441947
 51
142.3367767214
  0
ARC
  5
5F0
100
AcDbEntity
  8
0
100
AcDbCircle
 62
7
  6
CONTINUOUS
 10
567.0395195787
 20
167.592860217
 40
0.9999996383
100
AcDbArc
 50
89.9998276425
 51
180.0001721888
  0
ARC
  5
5F1
100
AcDbEntity
  8
0
100
AcDbCircle
 62
7
  6
CONTINUOUS
 10
567.0395195787
 20
167.592860217
 40
0.5
100
AcDbArc
 50
90.0000020187
 51
180.0
  0
ARC
  5
5F2
100
AcDbEntity
  8
0
100
AcDbCircle
 62
7
  6
CONTINUOUS
 10
563.5395195787
 20
171.592860217
 40
0.5
100
AcDbArc
 50
90.0
 51
180.0
  0
ARC
  5
5F3
100
AcDbEntity
  8
0
100
AcDbCircle
 62
7
  6
CONTINUOUS
 10
553.852617723
 20
168.3764920637
 40
0.5
100
AcDbArc
 50
224.5
 51
269.0097640126
  0
ARC
  5
5F4
100
AcDbEntity
  8
0
100
AcDbCircle
 62
7
  6
CONTINUOUS
 10
553.1395195787
 20
169.1021460073
 40
0.5
100
AcDbArc
 50
180.0
 51
224.5027535317
  0
ARC
  5
5F5
100
AcDbEntity
  8
0
100
AcDbCircle
 62
7
  6
CONTINUOUS
 10
573.7395195787
 20
168.392860217
 40
0.3
100
AcDbArc
 50
270.0
 51
0.0000294995
  0
ARC
  5
5F6
100
AcDbEntity
  8
0
100
AcDbCircle
 62
7
  6
CONTINUOUS
 10
573.7395195787
 20
169.792860217
 40
0.3
100
AcDbArc
 50
0.0
 51
90.0
  0
ARC
  5
5F7
100
AcDbEntity
  8
0
100
AcDbCircle
 62
7
  6
CONTINUOUS
 10
551.0485297265
 20
167.972860217
 40
0.28
100
AcDbArc
 50
212.2692279868
 51
270.0
  0
ARC
  5
5F8
100
AcDbEntity
  8
0
100
AcDbCircle
 62
7
  6
CONTINUOUS
 10
551.0485297265
 20
173.012860217
 40
0.28
100
AcDbArc
 50
90.0
 51
147.7307720132
  0
ARC
  5
5F9
100
AcDbEntity
  8
0
100
AcDbCircle
 62
7
  6
CONTINUOUS
 10
562.1395195787
 20
172.3095939822
 40
0.2
100
AcDbArc
 50
95.0000000015
 51
180.0
  0
ARC
  5
5FA
100
AcDbEntity
  8
0
100
AcDbCircle
 62
7
  6
CONTINUOUS
 10
566.9250703497
 20
204.4293215378
 40
101.6559323119
100
AcDbArc
 50
95.2606226009
 51
95.4437235876
  0
ARC
  5
5FB
100
AcDbEntity
  8
0
100
AcDbCircle
 62
7
  6
CONTINUOUS
 10
577.3090543897
 20
196.2928282399
 40
43.6173271878
100
AcDbArc
 50
236.4991268018
 51
237.0802588808
  0
ARC
  5
5FC
100
AcDbEntity
  8
0
100
AcDbCircle
 62
7
  6
CONTINUOUS
 10
554.1395195787
 20
206.892860217
 40
2.5
100
AcDbArc
 50
180.0000652765
 51
233.1301023542
  0
ARC
  5
5FD
100
AcDbEntity
  8
0
100
AcDbCircle
 62
7
  6
CONTINUOUS
 10
571.6395195787
 20
192.7467520794
 40
2.0
100
AcDbArc
 50
285.0000000025
 51
360.0
  0
ARC
  5
5FE
100
AcDbEntity
  8
0
100
AcDbCircle
 62
7
  6
CONTINUOUS
 10
571.6395195787
 20
193.0967520794
 40
2.0
100
AcDbArc
 50
285.3380106982
 51
360.0
  0
ARC
  5
5FF
100
AcDbEntity
  8
0
100
AcDbCircle
 62
7
  6
CONTINUOUS
 10
566.4395195787
 20
198.7167737441
 40
0.5
100
AcDbArc
 50
272.999832858
 51
360.0
  0
ARC
  5
600
100
AcDbEntity
  8
0
100
AcDbCircle
 62
7
  6
CONTINUOUS
 10
566.4395195787
 20
200.2689466899
 40
0.5
100
AcDbArc
 50
359.9999915034
 51
87.0
  0
ARC
  5
601
100
AcDbEntity
  8
0
100
AcDbCircle
 62
7
  6
CONTINUOUS
 10
566.4395195787
 20
206.7167737441
 40
0.5
100
AcDbArc
 50
272.999832858
 51
360.0
  0
ARC
  5
602
100
AcDbEntity
  8
0
100
AcDbCircle
 62
7
  6
CONTINUOUS
 10
566.4395195787
 20
208.2689466899
 40
0.5
100
AcDbArc
 50
359.9999915034
 51
87.0
  0
ARC
  5
603
100
AcDbEntity
  8
0
100
AcDbCircle
 62
7
  6
CONTINUOUS
 10
577.7986095384
 20
277.887840824
 40
120.6593331521
100
AcDbArc
 50
258.0993043743
 51
258.4329316704
  0
ARC
  5
604
100
AcDbEntity
  8
0
100
AcDbCircle
 62
7
  6
CONTINUOUS
 10
541.4970869565
 20
226.1984295752
 40
58.1658070921
100
AcDbArc
 50
281.5556865274
 51
282.0142821673
  0
ARC
  5
605
100
AcDbEntity
  8
0
100
AcDbCircle
 62
7
  6
CONTINUOUS
 10
548.6395195787
 20
219.2786466546
 40
1.0
100
AcDbArc
 50
135.0000000017
 51
180.0
  0
ARC
  5
606
100
AcDbEntity
  8
0
100
AcDbCircle
 62
7
  6
CONTINUOUS
 10
555.6395195787
 20
221.9070737793
 40
1.0
100
AcDbArc
 50
315.0
 51
359.9977119387
  0
ARC
  5
607
100
AcDbEntity
  8
0
100
AcDbCircle
 62
7
  6
CONTINUOUS
 10
553.6395195787
 20
217.0786466546
 40
1.0
100
AcDbArc
 50
135.0
 51
180.0
  0
ARC
  5
608
100
AcDbEntity
  8
0
100
AcDbCircle
 62
7
  6
CONTINUOUS
 10
566.4395195787
 20
226.5071426269
 40
0.5
100
AcDbArc
 50
272.9999999091
 51
360.0
  0
ARC
  5
609
100
AcDbEntity
  8
0
100
AcDbCircle
 62
7
  6
CONTINUOUS
 10
566.4395195787
 20
228.478577807
 40
0.5
100
AcDbArc
 50
0.0
 51
87.0
  0
ARC
  5
60A
100
AcDbEntity
  8
0
100
AcDbCircle
 62
7
  6
CONTINUOUS
 10
566.4395195787
 20
236.478577807
 40
0.5
100
AcDbArc
 50
359.9999915035
 51
87.0
  0
ARC
  5
60B
100
AcDbEntity
  8
0
100
AcDbCircle
 62
7
  6
CONTINUOUS
 10
566.4395195787
 20
234.5071426269
 40
0.5
100
AcDbArc
 50
272.9998327667
 51
360.0
  0
ARC
  5
60C
100
AcDbEntity
  8
0
100
AcDbCircle
 62
7
  6
CONTINUOUS
 10
566.4395195787
 20
244.478577807
 40
0.5
100
AcDbArc
 50
359.9999915035
 51
87.0
  0
ARC
  5
60D
100
AcDbEntity
  8
0
100
AcDbCircle
 62
7
  6
CONTINUOUS
 10
566.4395195787
 20
242.5071426269
 40
0.5
100
AcDbArc
 50
272.9998327667
 51
360.0
  0
ARC
  5
60E
100
AcDbEntity
  8
0
100
AcDbCircle
 62
7
  6
CONTINUOUS
 10
566.4395195787
 20
252.478577807
 40
0.5
100
AcDbArc
 50
359.9999606614
 51
87.0
  0
ARC
  5
60F
100
AcDbEntity
  8
0
100
AcDbCircle
 62
7
  6
CONTINUOUS
 10
566.4395195787
 20
250.5071426269
 40
0.5
100
AcDbArc
 50
273.0008835446
 51
360.0
  0
ARC
  5
610
100
AcDbEntity
  8
0
100
AcDbCircle
 62
7
  6
CONTINUOUS
 10
566.4395195787
 20
260.478577807
 40
0.5
100
AcDbArc
 50
359.9999915035
 51
87.0
  0
ARC
  5
611
100
AcDbEntity
  8
0
100
AcDbCircle
 62
7
  6
CONTINUOUS
 10
566.4395195787
 20
258.5071426269
 40
0.5
100
AcDbArc
 50
272.9998327667
 51
360.0
  0
ARC
  5
612
100
AcDbEntity
  8
0
100
AcDbCircle
 62
7
  6
CONTINUOUS
 10
566.4395195787
 20
268.478577807
 40
0.5
100
AcDbArc
 50
359.9999915042
 51
87.0
  0
ARC
  5
613
100
AcDbEntity
  8
0
100
AcDbCircle
 62
7
  6
CONTINUOUS
 10
566.4395195787
 20
266.5071426269
 40
0.5
100
AcDbArc
 50
272.9998327669
 51
360.0
  0
ARC
  5
614
100
AcDbEntity
  8
0
100
AcDbCircle
 62
7
  6
CONTINUOUS
 10
566.4395195787
 20
276.478577807
 40
0.5
100
AcDbArc
 50
359.9999606616
 51
87.0
  0
ARC
  5
615
100
AcDbEntity
  8
0
100
AcDbCircle
 62
7
  6
CONTINUOUS
 10
566.4395195787
 20
274.5071426269
 40
0.5
100
AcDbArc
 50
273.0008835448
 51
360.0
  0
ARC
  5
616
100
AcDbEntity
  8
0
100
AcDbCircle
 62
7
  6
CONTINUOUS
 10
566.4395195787
 20
284.478577807
 40
0.5
100
AcDbArc
 50
359.9999915035
 51
87.0
  0
ARC
  5
617
100
AcDbEntity
  8
0
100
AcDbCircle
 62
7
  6
CONTINUOUS
 10
566.4395195787
 20
282.5071426269
 40
0.5
100
AcDbArc
 50
272.9998327667
 51
360.0
  0
ARC
  5
618
100
AcDbEntity
  8
0
100
AcDbCircle
 62
7
  6
CONTINUOUS
 10
566.4395195787
 20
292.478577807
 40
0.5
100
AcDbArc
 50
359.9999915035
 51
87.0
  0
ARC
  5
619
100
AcDbEntity
  8
0
100
AcDbCircle
 62
7
  6
CONTINUOUS
 10
566.4395195787
 20
290.5071426269
 40
0.5
100
AcDbArc
 50
272.9998327667
 51
360.0
  0
ARC
  5
61A
100
AcDbEntity
  8
0
100
AcDbCircle
 62
7
  6
CONTINUOUS
 10
548.6395195787
 20
219.2786466546
 40
0.499996227
100
AcDbArc
 50
134.9945250122
 51
180.0032843057
  0
ARC
  5
61B
100
AcDbEntity
  8
0
100
AcDbCircle
 62
7
  6
CONTINUOUS
 10
882.4052720757
 20
135.6191517651
 40
328.8171855569
100
AcDbArc
 50
179.425424778
 51
179.5815587814
  0
ARC
  5
61C
100
AcDbEntity
  8
0
100
AcDbCircle
 62
7
  6
CONTINUOUS
 10
822.9684708939
 20
148.1751082647
 40
301.6638859787
100
AcDbArc
 50
174.8936933794
 51
175.3149525188
  0
ARC
  5
61D
100
AcDbEntity
  8
0
100
AcDbCircle
 62
7
  6
CONTINUOUS
 10
830.4544769702
 20
135.9734438191
 40
276.8651895842
100
AcDbArc
 50
179.5763603572
 51
179.7493784362
  0
ARC
  5
61E
100
AcDbEntity
  8
0
100
AcDbCircle
 62
7
  6
CONTINUOUS
 10
728.2405495119
 20
136.4001361029
 40
174.6503747467
100
AcDbArc
 50
179.7426822037
 51
179.9790093503
  0
ARC
  5
61F
100
AcDbEntity
  8
0
100
AcDbCircle
 62
7
  6
CONTINUOUS
 10
681.1917334203
 20
178.1827884033
 40
133.5429320371
100
AcDbArc
 50
161.5848685436
 51
161.8786643556
  0
ARC
  5
620
100
AcDbEntity
  8
0
100
AcDbCircle
 62
7
  6
CONTINUOUS
 10
446.2511731196
 20
333.2191744814
 40
76.574359687
100
AcDbArc
 50
4.5218451323
 51
4.9238225519
  0
ARC
  5
621
100
AcDbEntity
  8
0
100
AcDbCircle
 62
7
  6
CONTINUOUS
 10
522.6395195787
 20
343.6995913919
 40
1.0
100
AcDbArc
 50
118.6413284289
 51
180.0
  0
ARC
  5
622
100
AcDbEntity
  8
0
100
AcDbCircle
 62
7
  6
CONTINUOUS
 10
521.4395195787
 20
327.742860217
 40
0.3
100
AcDbArc
 50
90.0
 51
180.0000463075
  0
ARC
  5
623
100
AcDbEntity
  8
0
100
AcDbCircle
 62
7
  6
CONTINUOUS
 10
521.4395195787
 20
327.242860217
 40
0.3
100
AcDbArc
 50
179.9999210891
 51
270.0
  0
ARC
  5
624
100
AcDbEntity
  8
0
100
AcDbCircle
 62
7
  6
CONTINUOUS
 10
634.3804833501
 20
313.4165220397
 40
120.0867037235
100
AcDbArc
 50
230.1036156517
 51
230.2576069677
  0
ARC
  5
625
100
AcDbEntity
  8
0
100
AcDbCircle
 62
7
  6
CONTINUOUS
 10
555.0395195787
 20
344.792860217
 40
5.0
100
AcDbArc
 50
147.7307720129
 51
163.7397952918
  0
ARC
  5
626
100
AcDbEntity
  8
0
100
AcDbCircle
 62
7
  6
CONTINUOUS
 10
555.0395195787
 20
344.792860217
 40
5.0
100
AcDbArc
 50
196.2602047082
 51
212.2692279871
  0
ARC
  5
627
100
AcDbEntity
  8
0
100
AcDbCircle
 62
7
  6
CONTINUOUS
 10
553.6981831386
 20
309.4095361462
 40
2.0066473027
100
AcDbArc
 50
180.046955835
 51
224.954256472
  0
ARC
  5
628
100
AcDbEntity
  8
0
100
AcDbCircle
 62
7
  6
CONTINUOUS
 10
553.6395195787
 20
309.6570737793
 40
1.0
100
AcDbArc
 50
180.0
 51
224.9999999992
  0
ARC
  5
629
100
AcDbEntity
  8
0
100
AcDbCircle
 62
7
  6
CONTINUOUS
 10
555.6395195787
 20
304.8286466546
 40
1.0
100
AcDbArc
 50
0.0
 51
44.9977051105
  0
ARC
  5
62A
100
AcDbEntity
  8
0
100
AcDbCircle
 62
7
  6
CONTINUOUS
 10
566.4395195787
 20
320.2689466899
 40
0.5
100
AcDbArc
 50
359.9999915035
 51
87.0
  0
ARC
  5
62B
100
AcDbEntity
  8
0
100
AcDbCircle
 62
7
  6
CONTINUOUS
 10
566.4395195787
 20
318.7167737441
 40
0.5
100
AcDbArc
 50
272.999832858
 51
360.0
  0
ARC
  5
62C
100
AcDbEntity
  8
0
100
AcDbCircle
 62
7
  6
CONTINUOUS
 10
566.4395195787
 20
326.7167737441
 40
0.5
100
AcDbArc
 50
272.999832858
 51
360.0
  0
ARC
  5
62D
100
AcDbEntity
  8
0
100
AcDbCircle
 62
7
  6
CONTINUOUS
 10
566.4395195787
 20
328.2689466899
 40
0.5
100
AcDbArc
 50
359.9999915035
 51
87.0
  0
ARC
  5
62E
100
AcDbEntity
  8
0
100
AcDbCircle
 62
7
  6
CONTINUOUS
 10
566.4395195787
 20
342.7167737441
 40
0.5
100
AcDbArc
 50
272.999832858
 51
360.0
  0
ARC
  5
62F
100
AcDbEntity
  8
0
100
AcDbCircle
 62
7
  6
CONTINUOUS
 10
566.4395195787
 20
344.2689466899
 40
0.5
100
AcDbArc
 50
359.9999915035
 51
87.0
  0
ARC
  5
630
100
AcDbEntity
  8
0
100
AcDbCircle
 62
7
  6
CONTINUOUS
 10
566.4395195787
 20
334.7167737441
 40
0.5
100
AcDbArc
 50
272.999832858
 51
360.0
  0
ARC
  5
631
100
AcDbEntity
  8
0
100
AcDbCircle
 62
7
  6
CONTINUOUS
 10
566.4395195787
 20
336.2689466899
 40
0.5
100
AcDbArc
 50
359.9999915035
 51
87.0
  0
ARC
  5
632
100
AcDbEntity
  8
0
100
AcDbCircle
 62
7
  6
CONTINUOUS
 10
551.0485297265
 20
342.272860217
 40
0.28
100
AcDbArc
 50
212.2692279868
 51
270.0
  0
ARC
  5
633
100
AcDbEntity
  8
0
100
AcDbCircle
 62
7
  6
CONTINUOUS
 10
551.0485297265
 20
347.312860217
 40
0.28
100
AcDbArc
 50
90.0
 51
147.7307720132
  0
ARC
  5
634
100
AcDbEntity
  8
0
100
AcDbCircle
 62
7
  6
CONTINUOUS
 10
546.6395195787
 20
359.086129042
 40
1.0
100
AcDbArc
 50
298.6413302338
 51
339.5471099673
  0
ARC
  5
635
100
AcDbEntity
  8
0
100
AcDbCircle
 62
7
  6
CONTINUOUS
 10
553.5395195787
 20
378.492860217
 40
1.0
100
AcDbArc
 50
180.0
 51
270.0
  0
ARC
  5
636
100
AcDbEntity
  8
0
100
AcDbCircle
 62
7
  6
CONTINUOUS
 10
553.5395195787
 20
382.492860217
 40
1.0
100
AcDbArc
 50
90.0
 51
180.0
  0
ARC
  5
637
100
AcDbEntity
  8
0
100
AcDbCircle
 62
7
  6
CONTINUOUS
 10
553.1395195787
 20
375.8835744267
 40
0.5
100
AcDbArc
 50
135.4983578389
 51
180.0
  0
ARC
  5
638
100
AcDbEntity
  8
0
100
AcDbCircle
 62
7
  6
CONTINUOUS
 10
553.852617723
 20
384.3764920637
 40
0.5
100
AcDbArc
 50
224.5
 51
269.0097640126
  0
ARC
  5
639
100
AcDbEntity
  8
0
100
AcDbCircle
 62
7
  6
CONTINUOUS
 10
553.1395195787
 20
385.1021460073
 40
0.5
100
AcDbArc
 50
180.0
 51
224.5027535285
  0
ARC
  5
63A
100
AcDbEntity
  8
0
100
AcDbCircle
 62
7
  6
CONTINUOUS
 10
553.852617723
 20
376.6092283703
 40
0.5
100
AcDbArc
 50
90.9930020527
 51
135.5
  0
ARC
  5
63B
100
AcDbEntity
  8
0
100
AcDbCircle
 62
7
  6
CONTINUOUS
 10
565.9212794466
 20
365.9921225366
 40
22.9074233846
100
AcDbArc
 50
123.3374698967
 51
124.2922856052
  0
ARC
  5
63C
100
AcDbEntity
  8
0
100
AcDbCircle
 62
7
  6
CONTINUOUS
 10
565.2959148137
 20
366.965830517
 40
21.7502633504
100
AcDbArc
 50
122.5152665924
 51
123.3708203594
  0
ARC
  5
63D
100
AcDbEntity
  8
0
100
AcDbCircle
 62
7
  6
CONTINUOUS
 10
571.6395195787
 20
352.2389683546
 40
2.0
100
AcDbArc
 50
0.0
 51
74.999999998
  0
ARC
  5
63E
100
AcDbEntity
  8
0
100
AcDbCircle
 62
7
  6
CONTINUOUS
 10
560.6395195787
 20
359.3275141929
 40
2.0
100
AcDbArc
 50
180.0
 51
255.0000000014
  0
ARC
  5
63F
100
AcDbEntity
  8
0
100
AcDbCircle
 62
7
  6
CONTINUOUS
 10
571.6395195787
 20
351.8889683546
 40
2.0
100
AcDbArc
 50
0.0
 51
74.66199513
  0
ARC
  5
640
100
AcDbEntity
  8
0
100
AcDbCircle
 62
7
  6
CONTINUOUS
 10
560.6395195787
 20
358.9775141929
 40
2.0
100
AcDbArc
 50
217.6633951733
 51
255.3380291984
  0
ARC
  5
641
100
AcDbEntity
  8
0
100
AcDbCircle
 62
7
  6
CONTINUOUS
 10
562.9498666184
 20
384.2808716317
 40
33.8249562196
100
AcDbArc
 50
242.1834159288
 51
243.0871517485
  0
ARC
  5
642
100
AcDbEntity
  8
0
100
AcDbCircle
 62
7
  6
CONTINUOUS
 10
572.1151982281
 20
380.7426460975
 40
18.549876257
100
AcDbArc
 50
167.1350505112
 51
167.9568614391
  0
ARC
  5
643
100
AcDbEntity
  8
0
100
AcDbCircle
 62
7
  6
CONTINUOUS
 10
567.5457395786
 20
379.3316042912
 40
13.8908008231
100
AcDbArc
 50
190.4233066347
 51
191.7252635176
  0
ARC
  5
644
100
AcDbEntity
  8
0
100
AcDbCircle
 62
7
  6
CONTINUOUS
 10
567.4543425988
 20
379.2972798304
 40
13.7943438057
100
AcDbArc
 50
191.6628161696
 51
193.3413710019
  0
ARC
  5
645
100
AcDbEntity
  8
0
100
AcDbCircle
 62
7
  6
CONTINUOUS
 10
560.6380303228
 20
388.351375806
 40
2.486269589
100
AcDbArc
 50
105.0107382831
 51
112.4672195995
  0
ARC
  5
646
100
AcDbEntity
  8
0
100
AcDbCircle
 62
7
  6
CONTINUOUS
 10
560.6395195787
 20
388.0375600435
 40
2.0
100
AcDbArc
 50
104.9999999948
 51
180.0
  0
ARC
  5
647
100
AcDbEntity
  8
0
100
AcDbCircle
 62
7
  6
CONTINUOUS
 10
567.5395195787
 20
394.027514193
 40
2.0
100
AcDbArc
 50
284.9999999833
 51
359.9999999999
  0
ARC
  5
648
100
AcDbEntity
  8
0
100
AcDbCircle
 62
7
  6
CONTINUOUS
 10
560.6395195787
 20
388.3375600435
 40
2.0
100
AcDbArc
 50
104.6619689536
 51
116.6961156275
  0
ARC
  5
649
100
AcDbEntity
  8
0
100
AcDbCircle
 62
7
  6
CONTINUOUS
 10
567.0395195787
 20
383.592860217
 40
0.9999996383
100
AcDbArc
 50
89.9998276425
 51
180.0001721888
  0
ARC
  5
64A
100
AcDbEntity
  8
0
100
AcDbCircle
 62
7
  6
CONTINUOUS
 10
563.5395195787
 20
377.892860217
 40
0.5
100
AcDbArc
 50
180.0
 51
270.0
  0
ARC
  5
64B
100
AcDbEntity
  8
0
100
AcDbCircle
 62
7
  6
CONTINUOUS
 10
563.5395195787
 20
387.592860217
 40
0.5
100
AcDbArc
 50
90.0
 51
180.0
  0
ARC
  5
64C
100
AcDbEntity
  8
0
100
AcDbCircle
 62
7
  6
CONTINUOUS
 10
567.0395195787
 20
383.592860217
 40
0.5
100
AcDbArc
 50
90.0000020187
 51
180.0
  0
ARC
  5
64D
100
AcDbEntity
  8
0
100
AcDbCircle
 62
7
  6
CONTINUOUS
 10
573.7395195787
 20
385.792860217
 40
0.3
100
AcDbArc
 50
0.0
 51
90.0
  0
ARC
  5
64E
100
AcDbEntity
  8
0
100
AcDbCircle
 62
7
  6
CONTINUOUS
 10
573.7395195787
 20
384.392860217
 40
0.3
100
AcDbArc
 50
270.0
 51
0.0000294995
  0
ARC
  5
64F
100
AcDbEntity
  8
0
100
AcDbCircle
 62
7
  6
CONTINUOUS
 10
562.1395195787
 20
376.692860217
 40
0.2
100
AcDbArc
 50
180.0
 51
270.0000000001
  0
ARC
  5
650
100
AcDbEntity
  8
0
100
AcDbCircle
 62
7
  6
CONTINUOUS
 10
572.8395195787
 20
376.692860217
 40
0.2
100
AcDbArc
 50
270.0
 51
360.0
  0
ARC
  5
651
100
AcDbEntity
  8
0
100
AcDbCircle
 62
7
  6
CONTINUOUS
 10
562.1395195787
 20
388.3095939822
 40
0.2
100
AcDbArc
 50
95.0000000078
 51
180.0
  0
ARC
  5
652
100
AcDbEntity
  8
0
100
AcDbCircle
 62
7
  6
CONTINUOUS
 10
576.7766387666
 20
426.9039654652
 40
206.716298738
100
AcDbArc
 50
264.424306924
 51
264.6784230879
  0
ARC
  5
653
100
AcDbEntity
  8
0
100
AcDbCircle
 62
7
  6
CONTINUOUS
 10
577.8004761444
 20
493.8969920637
 40
120.6686726252
100
AcDbArc
 50
258.0993331197
 51
258.4329346254
  0
ARC
  5
654
100
AcDbEntity
  8
0
100
AcDbCircle
 62
7
  6
CONTINUOUS
 10
542.6847326809
 20
436.5473385467
 40
52.3912852605
100
AcDbArc
 50
281.59631949
 51
282.0303287811
  0
ARC
  5
655
100
AcDbEntity
  8
0
100
AcDbCircle
 62
7
  6
CONTINUOUS
 10
574.8134298919
 20
408.4826486362
 40
39.0626638621
100
AcDbArc
 50
236.2172116865
 51
237.1157758085
  0
ARC
  5
656
100
AcDbEntity
  8
0
100
AcDbCircle
 62
7
  6
CONTINUOUS
 10
548.6395195787
 20
408.3930429778
 40
1.0
100
AcDbArc
 50
91.999996652
 51
180.0
  0
ARC
  5
657
100
AcDbEntity
  8
0
100
AcDbCircle
 62
7
  6
CONTINUOUS
 10
553.6395195787
 20
408.5676468252
 40
1.0
100
AcDbArc
 50
91.9999343511
 51
180.0
  0
ARC
  5
658
100
AcDbEntity
  8
0
100
AcDbCircle
 62
7
  6
CONTINUOUS
 10
562.8091308035
 20
413.842860217
 40
0.5
100
AcDbArc
 50
90.0
 51
127.4761795211
  0
ARC
  5
659
100
AcDbEntity
  8
0
100
AcDbCircle
 62
7
  6
CONTINUOUS
 10
563.5395195787
 20
409.992860217
 40
0.5
100
AcDbArc
 50
89.9999999995
 51
180.0
  0
ARC
  5
65A
100
AcDbEntity
  8
0
100
AcDbCircle
 62
7
  6
CONTINUOUS
 10
563.3395195787
 20
414.042860217
 40
0.3
100
AcDbArc
 50
0.0
 51
90.0
  0
ARC
  5
65B
100
AcDbEntity
  8
0
100
AcDbCircle
 62
7
  6
CONTINUOUS
 10
855.835657227
 20
409.1484780815
 40
302.2467223911
100
AcDbArc
 50
180.2516224661
 51
180.5836771197
  0
ARC
  5
65C
100
AcDbEntity
  8
0
100
AcDbCircle
 62
7
  6
CONTINUOUS
 10
723.852074723
 20
408.5751316714
 40
170.2618948288
100
AcDbArc
 50
180.0097412734
 51
180.2537363569
  0
SPLINE
  5
65D
100
AcDbEntity
  8
0
100
AcDbSpline
 62
7
  6
CONTINUOUS
 70
0
 71
3
 72
9
 73
5
 74
0
 42
0.0000001
 43
0.0000001
 44
0.0000000001
 40
0.0
 40
0.0
 40
0.0
 40
0.0
 40
0.4848924439
 40
1.0
 40
1.0
 40
1.0
 40
1.0
 10
553.3395195787
 20
410.3304074232
 30
0.0
 10
553.2681593506
 20
410.31563158
 30
0.0
 10
553.123494618
 20
410.2728161655
 30
0.0
 10
552.9864838609
 20
410.2087610412
 30
0.0
 10
552.9202920128
 20
410.1686149636
 30
0.0
  0
SPLINE
  5
65E
100
AcDbEntity
  8
0
100
AcDbSpline
 62
7
  6
CONTINUOUS
 70
0
 71
3
 72
9
 73
5
 74
0
 42
0.0000001
 43
0.0000001
 44
0.0000000001
 40
0.0
 40
0.0
 40
0.0
 40
0.0
 40
0.5280589448
 40
1.0
 40
1.0
 40
1.0
 40
1.0
 10
552.9202920128
 20
410.1686149636
 30
0.0
 10
552.8457991521
 20
410.1234342313
 30
0.0
 10
552.7109207619
 20
410.0225059086
 30
0.0
 10
552.6408746713
 20
409.8576030541
 30
0.0
 10
552.6408746713
 20
409.7797384437
 30
0.0
  0
SPLINE
  5
65F
100
AcDbEntity
  8
0
100
AcDbSpline
 62
7
  6
CONTINUOUS
 70
0
 71
3
 72
9
 73
5
 74
0
 42
0.0000001
 43
0.0000001
 44
0.0000000001
 40
0.0
 40
0.0
 40
0.0
 40
0.0
 40
0.445661272
 40
1.0
 40
1.0
 40
1.0
 40
1.0
 10
552.6408746713
 20
409.7797384437
 30
0.0
 10
552.6408746713
 20
409.7341117502
 30
0.0
 10
552.6636793061
 20
409.6313629956
 30
0.0
 10
552.719592007
 20
409.5437116153
 30
0.0
 10
552.7547446369
 20
409.4991559982
 30
0.0
  0
SPLINE
  5
660
100
AcDbEntity
  8
0
100
AcDbSpline
 62
7
  6
CONTINUOUS
 70
0
 71
3
 72
9
 73
5
 74
0
 42
0.0000001
 43
0.0000001
 44
0.0000000001
 40
0.0
 40
0.0
 40
0.0
 40
0.0
 40
0.4852251363
 40
1.0
 40
1.0
 40
1.0
 40
1.0
 10
552.5395195787
 20
409.3293518901
 30
0.0
 10
552.5395195787
 20
409.4058889909
 30
0.0
 10
552.5520399236
 20
409.5636684558
 30
0.0
 10
552.58772173
 20
409.7183952818
 30
0.0
 10
552.6147102816
 20
409.7949769706
 30
0.0
  0
SPLINE
  5
661
100
AcDbEntity
  8
0
100
AcDbSpline
 62
7
  6
CONTINUOUS
 70
0
 71
3
 72
9
 73
5
 74
0
 42
0.0000001
 43
0.0000001
 44
0.0000000001
 40
0.0
 40
0.0
 40
0.0
 40
0.0
 40
0.5279709237
 40
1.0
 40
1.0
 40
1.0
 40
1.0
 10
552.6147102816
 20
409.7949769706
 30
0.0
 10
552.6435118535
 20
409.8767032173
 30
0.0
 10
552.7140997388
 20
410.0288292356
 30
0.0
 10
552.8608817016
 20
410.1300195753
 30
0.0
 10
552.9367439183
 20
410.1457275999
 30
0.0
  0
SPLINE
  5
662
100
AcDbEntity
  8
0
100
AcDbSpline
 62
7
  6
CONTINUOUS
 70
0
 71
3
 72
9
 73
5
 74
0
 42
0.0000001
 43
0.0000001
 44
0.0000000001
 40
0.0
 40
0.0
 40
0.0
 40
0.0
 40
0.4467824068
 40
1.0
 40
1.0
 40
1.0
 40
1.0
 10
552.9367439183
 20
410.1457275999
 30
0.0
 10
552.9804481713
 20
410.154776999
 30
0.0
 10
553.0829640541
 20
410.1540091371
 30
0.0
 10
553.1783390263
 20
410.1197462469
 30
0.0
 10
553.2282627751
 20
410.0960462591
 30
0.0
  0
SPLINE
  5
663
100
AcDbEntity
  8
0
100
AcDbSpline
 62
7
  6
CONTINUOUS
 70
0
 71
3
 72
9
 73
5
 74
0
 42
0.0000001
 43
0.0000001
 44
0.0000000001
 40
0.0
 40
0.0
 40
0.0
 40
0.0
 40
0.4852251363
 40
1.0
 40
1.0
 40
1.0
 40
1.0
 10
552.5395195787
 20
135.6563685439
 30
0.0
 10
552.5395195787
 20
135.5798314431
 30
0.0
 10
552.5520399236
 20
135.4220519782
 30
0.0
 10
552.58772173
 20
135.2673251521
 30
0.0
 10
552.6147102816
 20
135.1907434634
 30
0.0
  0
SPLINE
  5
664
100
AcDbEntity
  8
0
100
AcDbSpline
 62
7
  6
CONTINUOUS
 70
0
 71
3
 72
9
 73
5
 74
0
 42
0.0000001
 43
0.0000001
 44
0.0000000001
 40
0.0
 40
0.0
 40
0.0
 40
0.0
 40
0.5279709237
 40
1.0
 40
1.0
 40
1.0
 40
1.0
 10
552.6147102816
 20
135.1907434634
 30
0.0
 10
552.6435118535
 20
135.1090172167
 30
0.0
 10
552.7140997388
 20
134.9568911983
 30
0.0
 10
552.8608817016
 20
134.8557008586
 30
0.0
 10
552.9367439183
 20
134.8399928341
 30
0.0
  0
SPLINE
  5
665
100
AcDbEntity
  8
0
100
AcDbSpline
 62
7
  6
CONTINUOUS
 70
0
 71
3
 72
9
 73
5
 74
0
 42
0.0000001
 43
0.0000001
 44
0.0000000001
 40
0.0
 40
0.0
 40
0.0
 40
0.0
 40
0.4467824068
 40
1.0
 40
1.0
 40
1.0
 40
1.0
 10
552.9367439183
 20
134.8399928341
 30
0.0
 10
552.9804481713
 20
134.8309434349
 30
0.0
 10
553.0829640541
 20
134.8317112969
 30
0.0
 10
553.1783390263
 20
134.8659741871
 30
0.0
 10
553.2282627751
 20
134.8896741748
 30
0.0
  0
SPLINE
  5
666
100
AcDbEntity
  8
0
100
AcDbSpline
 62
7
  6
CONTINUOUS
 70
0
 71
3
 72
9
 73
5
 74
0
 42
0.0000001
 43
0.0000001
 44
0.0000000001
 40
0.0
 40
0.0
 40
0.0
 40
0.0
 40
0.4848924439
 40
1.0
 40
1.0
 40
1.0
 40
1.0
 10
553.3395195787
 20
134.6553130108
 30
0.0
 10
553.2681593506
 20
134.6700888539
 30
0.0
 10
553.123494618
 20
134.7129042685
 30
0.0
 10
552.9864838609
 20
134.7769593927
 30
0.0
 10
552.9202920128
 20
134.8171054704
 30
0.0
  0
SPLINE
  5
667
100
AcDbEntity
  8
0
100
AcDbSpline
 62
7
  6
CONTINUOUS
 70
0
 71
3
 72
9
 73
5
 74
0
 42
0.0000001
 43
0.0000001
 44
0.0000000001
 40
0.0
 40
0.0
 40
0.0
 40
0.0
 40
0.5280589448
 40
1.0
 40
1.0
 40
1.0
 40
1.0
 10
552.9202920128
 20
134.8171054704
 30
0.0
 10
552.8457991521
 20
134.8622862026
 30
0.0
 10
552.7109207619
 20
134.9632145253
 30
0.0
 10
552.6408746713
 20
135.1281173799
 30
0.0
 10
552.6408746713
 20
135.2059819902
 30
0.0
  0
SPLINE
  5
668
100
AcDbEntity
  8
0
100
AcDbSpline
 62
7
  6
CONTINUOUS
 70
0
 71
3
 72
9
 73
5
 74
0
 42
0.0000001
 43
0.0000001
 44
0.0000000001
 40
0.0
 40
0.0
 40
0.0
 40
0.0
 40
0.445661272
 40
1.0
 40
1.0
 40
1.0
 40
1.0
 10
552.6408746713
 20
135.2059819902
 30
0.0
 10
552.6408746713
 20
135.2516086837
 30
0.0
 10
552.6636793061
 20
135.3543574384
 30
0.0
 10
552.719592007
 20
135.4420088186
 30
0.0
 10
552.7547446369
 20
135.4865644358
 30
0.0
  0
SPLINE
  5
669
100
AcDbEntity
  8
0
100
AcDbSpline
 62
7
  6
CONTINUOUS
 70
0
 71
3
 72
9
 73
5
 74
0
 42
0.0000001
 43
0.0000001
 44
0.0000000001
 40
0.0
 40
0.0
 40
0.0
 40
0.0
 40
0.543323075
 40
1.0
 40
1.0
 40
1.0
 40
1.0
 10
535.6395195787
 20
217.992860217
 30
0.0
 10
535.6395195787
 20
217.874013962
 30
0.0
 10
535.629486228
 20
217.6097837254
 30
0.0
 10
535.320443995
 20
217.5606679642
 30
0.0
 10
535.2419720392
 20
217.6224807965
 30
0.0
  0
SPLINE
  5
66A
100
AcDbEntity
  8
0
100
AcDbSpline
 62
7
  6
CONTINUOUS
 70
0
 71
3
 72
9
 73
5
 74
0
 42
0.0000001
 43
0.0000001
 44
0.0000000001
 40
0.0
 40
0.0
 40
0.0
 40
0.0
 40
0.5427870407
 40
1.0
 40
1.0
 40
1.0
 40
1.0
 10
535.1401102033
 20
221.492860217
 30
0.0
 10
535.2588378301
 20
221.492860217
 30
0.0
 10
535.52301066
 20
221.4824009454
 30
0.0
 10
535.5718464917
 20
221.1734767112
 30
0.0
 10
535.5100521133
 20
221.0948425194
 30
0.0
  0
SPLINE
  5
66B
100
AcDbEntity
  8
0
100
AcDbSpline
 62
7
  6
CONTINUOUS
 70
0
 71
3
 72
9
 73
5
 74
0
 42
0.0000001
 43
0.0000001
 44
0.0000000001
 40
0.0
 40
0.0
 40
0.0
 40
0.0
 40
0.543323075
 40
1.0
 40
1.0
 40
1.0
 40
1.0
 10
535.6395195787
 20
225.992860217
 30
0.0
 10
535.6395195787
 20
225.874013962
 30
0.0
 10
535.629486228
 20
225.6097837254
 30
0.0
 10
535.320443995
 20
225.5606679642
 30
0.0
 10
535.2419720392
 20
225.6224807965
 30
0.0
  0
SPLINE
  5
66C
100
AcDbEntity
  8
0
100
AcDbSpline
 62
7
  6
CONTINUOUS
 70
0
 71
3
 72
9
 73
5
 74
0
 42
0.0000001
 43
0.0000001
 44
0.0000000001
 40
0.0
 40
0.0
 40
0.0
 40
0.0
 40
0.5427870407
 40
1.0
 40
1.0
 40
1.0
 40
1.0
 10
535.1401102033
 20
229.492860217
 30
0.0
 10
535.2588378301
 20
229.492860217
 30
0.0
 10
535.52301066
 20
229.4824009454
 30
0.0
 10
535.5718464917
 20
229.1734767112
 30
0.0
 10
535.5100521133
 20
229.0948425194
 30
0.0
  0
SPLINE
  5
66D
100
AcDbEntity
  8
0
100
AcDbSpline
 62
7
  6
CONTINUOUS
 70
0
 71
3
 72
9
 73
5
 74
0
 42
0.0000001
 43
0.0000001
 44
0.0000000001
 40
0.0
 40
0.0
 40
0.0
 40
0.0
 40
0.543323075
 40
1.0
 40
1.0
 40
1.0
 40
1.0
 10
535.6395195787
 20
233.992860217
 30
0.0
 10
535.6395195787
 20
233.874013962
 30
0.0
 10
535.629486228
 20
233.6097837254
 30
0.0
 10
535.320443995
 20
233.5606679642
 30
0.0
 10
535.2419720392
 20
233.6224807965
 30
0.0
  0
SPLINE
  5
66E
100
AcDbEntity
  8
0
100
AcDbSpline
 62
7
  6
CONTINUOUS
 70
0
 71
3
 72
9
 73
5
 74
0
 42
0.0000001
 43
0.0000001
 44
0.0000000001
 40
0.0
 40
0.0
 40
0.0
 40
0.0
 40
0.5427870407
 40
1.0
 40
1.0
 40
1.0
 40
1.0
 10
535.1401102033
 20
237.492860217
 30
0.0
 10
535.2588378301
 20
237.492860217
 30
0.0
 10
535.52301066
 20
237.4824009454
 30
0.0
 10
535.5718464917
 20
237.1734767112
 30
0.0
 10
535.5100521133
 20
237.0948425194
 30
0.0
  0
SPLINE
  5
66F
100
AcDbEntity
  8
0
100
AcDbSpline
 62
7
  6
CONTINUOUS
 70
0
 71
3
 72
9
 73
5
 74
0
 42
0.0000001
 43
0.0000001
 44
0.0000000001
 40
0.0
 40
0.0
 40
0.0
 40
0.0
 40
0.543323075
 40
1.0
 40
1.0
 40
1.0
 40
1.0
 10
535.6395195787
 20
241.992860217
 30
0.0
 10
535.6395195787
 20
241.874013962
 30
0.0
 10
535.629486228
 20
241.6097837254
 30
0.0
 10
535.320443995
 20
241.5606679642
 30
0.0
 10
535.2419720392
 20
241.6224807965
 30
0.0
  0
SPLINE
  5
670
100
AcDbEntity
  8
0
100
AcDbSpline
 62
7
  6
CONTINUOUS
 70
0
 71
3
 72
9
 73
5
 74
0
 42
0.0000001
 43
0.0000001
 44
0.0000000001
 40
0.0
 40
0.0
 40
0.0
 40
0.0
 40
0.5427870407
 40
1.0
 40
1.0
 40
1.0
 40
1.0
 10
535.1401102033
 20
245.492860217
 30
0.0
 10
535.2588378301
 20
245.492860217
 30
0.0
 10
535.52301066
 20
245.4824009454
 30
0.0
 10
535.5718464917
 20
245.1734767112
 30
0.0
 10
535.5100521133
 20
245.0948425194
 30
0.0
  0
SPLINE
  5
671
100
AcDbEntity
  8
0
100
AcDbSpline
 62
7
  6
CONTINUOUS
 70
0
 71
3
 72
9
 73
5
 74
0
 42
0.0000001
 43
0.0000001
 44
0.0000000001
 40
0.0
 40
0.0
 40
0.0
 40
0.0
 40
0.543323075
 40
1.0
 40
1.0
 40
1.0
 40
1.0
 10
535.6395195787
 20
249.992860217
 30
0.0
 10
535.6395195787
 20
249.874013962
 30
0.0
 10
535.629486228
 20
249.6097837254
 30
0.0
 10
535.320443995
 20
249.5606679642
 30
0.0
 10
535.2419720392
 20
249.6224807965
 30
0.0
  0
SPLINE
  5
672
100
AcDbEntity
  8
0
100
AcDbSpline
 62
7
  6
CONTINUOUS
 70
0
 71
3
 72
9
 73
5
 74
0
 42
0.0000001
 43
0.0000001
 44
0.0000000001
 40
0.0
 40
0.0
 40
0.0
 40
0.0
 40
0.5427870407
 40
1.0
 40
1.0
 40
1.0
 40
1.0
 10
535.1401102033
 20
253.492860217
 30
0.0
 10
535.2588378301
 20
253.492860217
 30
0.0
 10
535.52301066
 20
253.4824009454
 30
0.0
 10
535.5718464917
 20
253.1734767112
 30
0.0
 10
535.5100521133
 20
253.0948425194
 30
0.0
  0
SPLINE
  5
673
100
AcDbEntity
  8
0
100
AcDbSpline
 62
7
  6
CONTINUOUS
 70
0
 71
3
 72
9
 73
5
 74
0
 42
0.0000001
 43
0.0000001
 44
0.0000000001
 40
0.0
 40
0.0
 40
0.0
 40
0.0
 40
0.543323075
 40
1.0
 40
1.0
 40
1.0
 40
1.0
 10
535.6395195787
 20
257.992860217
 30
0.0
 10
535.6395195787
 20
257.874013962
 30
0.0
 10
535.629486228
 20
257.6097837254
 30
0.0
 10
535.320443995
 20
257.5606679642
 30
0.0
 10
535.2419720392
 20
257.6224807965
 30
0.0
  0
SPLINE
  5
674
100
AcDbEntity
  8
0
100
AcDbSpline
 62
7
  6
CONTINUOUS
 70
0
 71
3
 72
9
 73
5
 74
0
 42
0.0000001
 43
0.0000001
 44
0.0000000001
 40
0.0
 40
0.0
 40
0.0
 40
0.0
 40
0.5427870407
 40
1.0
 40
1.0
 40
1.0
 40
1.0
 10
535.1401102033
 20
261.492860217
 30
0.0
 10
535.2588378301
 20
261.492860217
 30
0.0
 10
535.52301066
 20
261.4824009454
 30
0.0
 10
535.5718464917
 20
261.1734767112
 30
0.0
 10
535.5100521133
 20
261.0948425194
 30
0.0
  0
SPLINE
  5
675
100
AcDbEntity
  8
0
100
AcDbSpline
 62
7
  6
CONTINUOUS
 70
0
 71
3
 72
9
 73
5
 74
0
 42
0.0000001
 43
0.0000001
 44
0.0000000001
 40
0.0
 40
0.0
 40
0.0
 40
0.0
 40
0.543323075
 40
1.0
 40
1.0
 40
1.0
 40
1.0
 10
535.6395195787
 20
265.992860217
 30
0.0
 10
535.6395195787
 20
265.874013962
 30
0.0
 10
535.629486228
 20
265.6097837254
 30
0.0
 10
535.320443995
 20
265.5606679642
 30
0.0
 10
535.2419720392
 20
265.6224807965
 30
0.0
  0
SPLINE
  5
676
100
AcDbEntity
  8
0
100
AcDbSpline
 62
7
  6
CONTINUOUS
 70
0
 71
3
 72
9
 73
5
 74
0
 42
0.0000001
 43
0.0000001
 44
0.0000000001
 40
0.0
 40
0.0
 40
0.0
 40
0.0
 40
0.5427870407
 40
1.0
 40
1.0
 40
1.0
 40
1.0
 10
535.1401102033
 20
269.492860217
 30
0.0
 10
535.2588378301
 20
269.492860217
 30
0.0
 10
535.52301066
 20
269.4824009454
 30
0.0
 10
535.5718464917
 20
269.1734767112
 30
0.0
 10
535.5100521133
 20
269.0948425194
 30
0.0
  0
SPLINE
  5
677
100
AcDbEntity
  8
0
100
AcDbSpline
 62
7
  6
CONTINUOUS
 70
0
 71
3
 72
9
 73
5
 74
0
 42
0.0000001
 43
0.0000001
 44
0.0000000001
 40
0.0
 40
0.0
 40
0.0
 40
0.0
 40
0.543323075
 40
1.0
 40
1.0
 40
1.0
 40
1.0
 10
535.6395195787
 20
273.992860217
 30
0.0
 10
535.6395195787
 20
273.874013962
 30
0.0
 10
535.629486228
 20
273.6097837254
 30
0.0
 10
535.320443995
 20
273.5606679642
 30
0.0
 10
535.2419720392
 20
273.6224807965
 30
0.0
  0
SPLINE
  5
678
100
AcDbEntity
  8
0
100
AcDbSpline
 62
7
  6
CONTINUOUS
 70
0
 71
3
 72
9
 73
5
 74
0
 42
0.0000001
 43
0.0000001
 44
0.0000000001
 40
0.0
 40
0.0
 40
0.0
 40
0.0
 40
0.5427870407
 40
1.0
 40
1.0
 40
1.0
 40
1.0
 10
535.1401102033
 20
277.492860217
 30
0.0
 10
535.2588378301
 20
277.492860217
 30
0.0
 10
535.52301066
 20
277.4824009454
 30
0.0
 10
535.5718464917
 20
277.1734767112
 30
0.0
 10
535.5100521133
 20
277.0948425194
 30
0.0
  0
SPLINE
  5
679
100
AcDbEntity
  8
0
100
AcDbSpline
 62
7
  6
CONTINUOUS
 70
0
 71
3
 72
9
 73
5
 74
0
 42
0.0000001
 43
0.0000001
 44
0.0000000001
 40
0.0
 40
0.0
 40
0.0
 40
0.0
 40
0.543323075
 40
1.0
 40
1.0
 40
1.0
 40
1.0
 10
535.6395195787
 20
281.992860217
 30
0.0
 10
535.6395195787
 20
281.874013962
 30
0.0
 10
535.629486228
 20
281.6097837254
 30
0.0
 10
535.320443995
 20
281.5606679642
 30
0.0
 10
535.2419720392
 20
281.6224807965
 30
0.0
  0
SPLINE
  5
67A
100
AcDbEntity
  8
0
100
AcDbSpline
 62
7
  6
CONTINUOUS
 70
0
 71
3
 72
9
 73
5
 74
0
 42
0.0000001
 43
0.0000001
 44
0.0000000001
 40
0.0
 40
0.0
 40
0.0
 40
0.0
 40
0.5427870407
 40
1.0
 40
1.0
 40
1.0
 40
1.0
 10
535.1401102033
 20
285.492860217
 30
0.0
 10
535.2588378301
 20
285.492860217
 30
0.0
 10
535.52301066
 20
285.4824009454
 30
0.0
 10
535.5718464917
 20
285.1734767112
 30
0.0
 10
535.5100521133
 20
285.0948425194
 30
0.0
  0
SPLINE
  5
67B
100
AcDbEntity
  8
0
100
AcDbSpline
 62
7
  6
CONTINUOUS
 70
0
 71
3
 72
9
 73
5
 74
0
 42
0.0000001
 43
0.0000001
 44
0.0000000001
 40
0.0
 40
0.0
 40
0.0
 40
0.0
 40
0.543323075
 40
1.0
 40
1.0
 40
1.0
 40
1.0
 10
535.6395195787
 20
289.992860217
 30
0.0
 10
535.6395195787
 20
289.874013962
 30
0.0
 10
535.629486228
 20
289.6097837254
 30
0.0
 10
535.320443995
 20
289.5606679642
 30
0.0
 10
535.2419720392
 20
289.6224807965
 30
0.0
  0
SPLINE
  5
67C
100
AcDbEntity
  8
0
100
AcDbSpline
 62
7
  6
CONTINUOUS
 70
0
 71
3
 72
9
 73
5
 74
0
 42
0.0000001
 43
0.0000001
 44
0.0000000001
 40
0.0
 40
0.0
 40
0.0
 40
0.0
 40
0.5427870407
 40
1.0
 40
1.0
 40
1.0
 40
1.0
 10
535.1401102033
 20
293.492860217
 30
0.0
 10
535.2588378301
 20
293.492860217
 30
0.0
 10
535.52301066
 20
293.4824009454
 30
0.0
 10
535.5718464917
 20
293.1734767112
 30
0.0
 10
535.5100521133
 20
293.0948425194
 30
0.0
  0
SPLINE
  5
67D
100
AcDbEntity
  8
0
100
AcDbSpline
 62
7
  6
CONTINUOUS
 70
0
 71
3
 72
9
 73
5
 74
0
 42
0.0000001
 43
0.0000001
 44
0.0000000001
 40
0.0
 40
0.0
 40
0.0
 40
0.0
 40
0.5427870407
 40
1.0
 40
1.0
 40
1.0
 40
1.0
 10
552.7401102033
 20
229.492860217
 30
0.0
 10
552.8588378301
 20
229.492860217
 30
0.0
 10
553.12301066
 20
229.4824009454
 30
0.0
 10
553.1718464917
 20
229.1734767112
 30
0.0
 10
553.1100521133
 20
229.0948425194
 30
0.0
  0
SPLINE
  5
67E
100
AcDbEntity
  8
0
100
AcDbSpline
 62
7
  6
CONTINUOUS
 70
0
 71
3
 72
9
 73
5
 74
0
 42
0.0000001
 43
0.0000001
 44
0.0000000001
 40
0.0
 40
0.0
 40
0.0
 40
0.0
 40
0.543323075
 40
1.0
 40
1.0
 40
1.0
 40
1.0
 10
553.2395195787
 20
225.992860217
 30
0.0
 10
553.2395195787
 20
225.874013962
 30
0.0
 10
553.229486228
 20
225.6097837254
 30
0.0
 10
552.920443995
 20
225.5606679642
 30
0.0
 10
552.8419720392
 20
225.6224807965
 30
0.0
  0
SPLINE
  5
67F
100
AcDbEntity
  8
0
100
AcDbSpline
 62
7
  6
CONTINUOUS
 70
0
 71
3
 72
9
 73
5
 74
0
 42
0.0000001
 43
0.0000001
 44
0.0000000001
 40
0.0
 40
0.0
 40
0.0
 40
0.0
 40
0.5427870407
 40
1.0
 40
1.0
 40
1.0
 40
1.0
 10
547.7401102033
 20
221.492860217
 30
0.0
 10
547.8588378301
 20
221.492860217
 30
0.0
 10
548.12301066
 20
221.4824009454
 30
0.0
 10
548.1718464917
 20
221.1734767112
 30
0.0
 10
548.1100521133
 20
221.0948425194
 30
0.0
  0
SPLINE
  5
680
100
AcDbEntity
  8
0
100
AcDbSpline
 62
7
  6
CONTINUOUS
 70
0
 71
3
 72
9
 73
5
 74
0
 42
0.0000001
 43
0.0000001
 44
0.0000000001
 40
0.0
 40
0.0
 40
0.0
 40
0.0
 40
0.2860713494
 40
1.0
 40
1.0
 40
1.0
 40
1.0
 10
572.9541093781
 20
168.092860217
 30
0.0
 10
572.9135872689
 20
168.092860217
 30
0.0
 10
572.8542031494
 20
168.2774263872
 30
0.0
 10
572.8640743721
 20
168.3960707113
 30
0.0
 10
572.8772178066
 20
168.4963412102
 30
0.0
  0
SPLINE
  5
681
100
AcDbEntity
  8
0
100
AcDbSpline
 62
7
  6
CONTINUOUS
 70
0
 71
3
 72
9
 73
5
 74
0
 42
0.0000001
 43
0.0000001
 44
0.0000000001
 40
0.0
 40
0.0
 40
0.0
 40
0.0
 40
0.4249939213
 40
1.0
 40
1.0
 40
1.0
 40
1.0
 10
573.933958189
 20
385.7910803675
 30
0.0
 10
573.8670932518
 20
385.7943342127
 30
0.0
 10
573.6994200457
 20
385.8265624965
 30
0.0
 10
573.6218134194
 20
385.9943355508
 30
0.0
 10
573.6094735204
 20
386.0840646393
 30
0.0
  0
SPLINE
  5
682
100
AcDbEntity
  8
0
100
AcDbSpline
 62
7
  6
CONTINUOUS
 70
0
 71
3
 72
9
 73
5
 74
0
 42
0.0000001
 43
0.0000001
 44
0.0000000001
 40
0.0
 40
0.0
 40
0.0
 40
0.0
 40
0.4482338868
 40
1.0
 40
1.0
 40
1.0
 40
1.0
 10
573.6094735204
 20
386.0840646393
 30
0.0
 10
573.6043410973
 20
386.121384852
 30
0.0
 10
573.6010116794
 20
386.2057793824
 30
0.0
 10
573.6092689544
 20
386.2896207448
 30
0.0
 10
573.6159935681
 20
386.335503341
 30
0.0
  0
SPLINE
  5
683
100
AcDbEntity
  8
0
100
AcDbSpline
 62
7
  6
CONTINUOUS
 70
0
 71
3
 72
9
 73
5
 74
0
 42
0.0000001
 43
0.0000001
 44
0.0000000001
 40
0.0
 40
0.0
 40
0.0
 40
0.0
 40
0.2860713494
 40
1.0
 40
1.0
 40
1.0
 40
1.0
 10
572.9541093781
 20
384.092860217
 30
0.0
 10
572.9135872689
 20
384.092860217
 30
0.0
 10
572.8542031494
 20
384.2774263872
 30
0.0
 10
572.8640743721
 20
384.3960707113
 30
0.0
 10
572.8772178066
 20
384.4963412102
 30
0.0
  0
SPLINE
  5
684
100
AcDbEntity
  8
0
100
AcDbSpline
 62
7
  6
CONTINUOUS
 70
0
 71
3
 72
9
 73
5
 74
0
 42
0.0000001
 43
0.0000001
 44
0.0000000001
 40
0.0
 40
0.0
 40
0.0
 40
0.0
 40
0.5174813269
 40
1.0
 40
1.0
 40
1.0
 40
1.0
 10
573.2224375569
 20
168.392860217
 30
0.0
 10
573.2224371421
 20
168.3192664638
 30
0.0
 10
573.1558531289
 20
168.1814772223
 30
0.0
 10
573.0227308698
 20
168.09286133
 30
0.0
 10
572.9541093403
 20
168.0928613314
 30
0.0
  0
SPLINE
  5
685
100
AcDbEntity
  8
0
100
AcDbSpline
 62
7
  6
CONTINUOUS
 70
0
 71
3
 72
9
 73
5
 74
0
 42
0.0000001
 43
0.0000001
 44
0.0000000001
 40
0.0
 40
0.0
 40
0.0
 40
0.0
 40
0.51748128
 40
1.0
 40
1.0
 40
1.0
 40
1.0
 10
573.222437572
 20
171.792860217
 30
0.0
 10
573.2224371976
 20
171.8664539792
 30
0.0
 10
573.1558531941
 20
172.0042432748
 30
0.0
 10
573.0227309163
 20
172.0928592106
 30
0.0
 10
572.9541093655
 20
172.0928592106
 30
0.0
  0
SPLINE
  5
686
100
AcDbEntity
  8
0
100
AcDbSpline
 62
7
  6
CONTINUOUS
 70
0
 71
3
 72
9
 73
5
 74
0
 42
0.0000001
 43
0.0000001
 44
0.0000000001
 40
0.0
 40
0.0
 40
0.0
 40
0.0
 40
0.3463832579
 40
1.0
 40
1.0
 40
1.0
 40
1.0
 10
572.9541093821
 20
172.092860217
 30
0.0
 10
572.9389044184
 20
172.092860217
 30
0.0
 10
572.9029977151
 20
172.0553223734
 30
0.0
 10
572.8908558741
 20
172.0148410412
 30
0.0
 10
572.8838487354
 20
171.9870184579
 30
0.0
  0
SPLINE
  5
687
100
AcDbEntity
  8
0
100
AcDbSpline
 62
7
  6
CONTINUOUS
 70
0
 71
3
 72
9
 73
5
 74
0
 42
0.0000001
 43
0.0000001
 44
0.0000000001
 40
0.0
 40
0.0
 40
0.0
 40
0.0
 40
0.4201355766
 40
1.0
 40
1.0
 40
1.0
 40
1.0
 10
572.8838487354
 20
171.9870184579
 30
0.0
 10
572.8736339458
 20
171.9464595585
 30
0.0
 10
572.8630420562
 20
171.8465927925
 30
0.0
 10
572.8697615972
 20
171.746894263
 30
0.0
 10
572.8772115952
 20
171.6896502299
 30
0.0
  0
SPLINE
  5
688
100
AcDbEntity
  8
0
100
AcDbSpline
 62
7
  6
CONTINUOUS
 70
0
 71
3
 72
9
 73
5
 74
0
 42
0.0000001
 43
0.0000001
 44
0.0000000001
 40
0.0
 40
0.0
 40
0.0
 40
0.0
 40
0.131648909
 40
1.0
 40
1.0
 40
1.0
 40
1.0
 10
577.0530927254
 20
383.692860217
 30
0.0
 10
577.09696765
 20
383.6928473491
 30
0.0
 10
577.3983930924
 20
383.4856279818
 30
0.0
 10
577.4182634936
 20
383.1046360722
 30
0.0
 10
577.46930931
 20
382.8197762323
 30
0.0
  0
SPLINE
  5
689
100
AcDbEntity
  8
0
100
AcDbSpline
 62
7
  6
CONTINUOUS
 70
0
 71
3
 72
8
 73
4
 74
0
 42
0.0000001
 43
0.0000001
 44
0.0000000001
 40
0.0
 40
0.0
 40
0.0
 40
0.0
 40
1.0
 40
1.0
 40
1.0
 40
1.0
 10
577.3852158626
 20
381.4921127669
 30
0.0
 10
577.4636263555
 20
381.740384787
 30
0.0
 10
577.5728815552
 20
382.0247436706
 30
0.0
 10
577.4789075852
 20
382.2675524314
 30
0.0
  0
SPLINE
  5
68A
100
AcDbEntity
  8
0
100
AcDbSpline
 62
7
  6
CONTINUOUS
 70
0
 71
3
 72
9
 73
5
 74
0
 42
0.0000001
 43
0.0000001
 44
0.0000000001
 40
0.0
 40
0.0
 40
0.0
 40
0.0
 40
0.1473871734
 40
1.0
 40
1.0
 40
1.0
 40
1.0
 10
576.8584388839
 20
383.492860217
 30
0.0
 10
576.898116891
 20
383.4928608887
 30
0.0
 10
577.1544922741
 20
383.3571152964
 30
0.0
 10
577.1996230402
 20
383.0446661703
 30
0.0
 10
577.2519088956
 20
382.8211693411
 30
0.0
  0
SPLINE
  5
68B
100
AcDbEntity
  8
0
100
AcDbSpline
 62
7
  6
CONTINUOUS
 70
0
 71
3
 72
8
 73
4
 74
0
 42
0.0000001
 43
0.0000001
 44
0.0000000001
 40
0.0
 40
0.0
 40
0.0
 40
0.0
 40
1.0
 40
1.0
 40
1.0
 40
1.0
 10
577.2519088956
 20
382.8211693411
 30
0.0
 10
577.2896767039
 20
382.6597301652
 30
0.0
 10
577.3161522546
 20
382.495539869
 30
0.0
 10
577.3359832105
 20
382.3309320076
 30
0.0
  0
SPLINE
  5
68C
100
AcDbEntity
  8
0
100
AcDbSpline
 62
7
  6
CONTINUOUS
 70
0
 71
3
 72
8
 73
4
 74
0
 42
0.0000001
 43
0.0000001
 44
0.0000000001
 40
0.0
 40
0.0
 40
0.0
 40
0.0
 40
1.0
 40
1.0
 40
1.0
 40
1.0
 10
577.3359832105
 20
382.3309320076
 30
0.0
 10
577.3694843207
 20
382.052854334
 30
0.0
 10
577.3839941362
 20
381.7721983199
 30
0.0
 10
577.3852571345
 20
381.4921127583
 30
0.0
  0
SPLINE
  5
68D
100
AcDbEntity
  8
0
100
AcDbSpline
 62
7
  6
CONTINUOUS
 70
0
 71
3
 72
9
 73
5
 74
0
 42
0.0000001
 43
0.0000001
 44
0.0000000001
 40
0.0
 40
0.0
 40
0.0
 40
0.0
 40
0.5042580746
 40
1.0
 40
1.0
 40
1.0
 40
1.0
 10
577.0530926795
 20
383.692860217
 30
0.0
 10
577.0530930142
 20
383.6431056304
 30
0.0
 10
577.0013726692
 20
383.5483040238
 30
0.0
 10
576.9073547957
 20
383.4928588668
 30
0.0
 10
576.8584404881
 20
383.4928589922
 30
0.0
  0
SPLINE
  5
68E
100
AcDbEntity
  8
0
100
AcDbSpline
 62
7
  6
CONTINUOUS
 70
0
 71
3
 72
9
 73
5
 74
0
 42
0.0000001
 43
0.0000001
 44
0.0000000001
 40
0.0
 40
0.0
 40
0.0
 40
0.0
 40
0.1367080305
 40
1.0
 40
1.0
 40
1.0
 40
1.0
 10
576.2886194866
 20
388.2482437907
 30
0.0
 10
576.2568535712
 20
388.2454642383
 30
0.0
 10
576.053542962
 20
388.0953772015
 30
0.0
 10
576.0334638925
 20
387.833674872
 30
0.0
 10
575.9938071088
 20
387.6362547622
 30
0.0
  0
SPLINE
  5
68F
100
AcDbEntity
  8
0
100
AcDbSpline
 62
7
  6
CONTINUOUS
 70
0
 71
3
 72
8
 73
4
 74
0
 42
0.0000001
 43
0.0000001
 44
0.0000000001
 40
0.0
 40
0.0
 40
0.0
 40
0.0
 40
1.0
 40
1.0
 40
1.0
 40
1.0
 10
575.9938071088
 20
387.6362547622
 30
0.0
 10
575.899556795
 20
387.1670561656
 30
0.0
 10
575.8788697021
 20
386.683527263
 30
0.0
 10
575.8812260758
 20
386.2049618106
 30
0.0
  0
SPLINE
  5
690
100
AcDbEntity
  8
0
100
AcDbSpline
 62
7
  6
CONTINUOUS
 70
0
 71
3
 72
8
 73
4
 74
0
 42
0.0000001
 43
0.0000001
 44
0.0000000001
 40
0.0
 40
0.0
 40
0.0
 40
0.0
 40
1.0
 40
1.0
 40
1.0
 40
1.0
 10
576.075879647
 20
386.2049618772
 30
0.0
 10
576.0771753403
 20
386.6366926956
 30
0.0
 10
576.103711937
 20
387.0734130535
 30
0.0
 10
576.200543663
 20
387.4941466928
 30
0.0
  0
SPLINE
  5
691
100
AcDbEntity
  8
0
100
AcDbSpline
 62
7
  6
CONTINUOUS
 70
0
 71
3
 72
9
 73
5
 74
0
 42
0.0000001
 43
0.0000001
 44
0.0000000001
 40
0.0
 40
0.0
 40
0.0
 40
0.0
 40
0.3731914027
 40
1.0
 40
1.0
 40
1.0
 40
1.0
 10
576.200543663
 20
387.4941466928
 30
0.0
 10
576.2184063441
 20
387.5717600035
 30
0.0
 10
576.2734440085
 20
387.7609143537
 30
0.0
 10
576.3681548873
 20
388.0309934826
 30
0.0
 10
576.5007032184
 20
388.0490048858
 30
0.0
  0
SPLINE
  5
692
100
AcDbEntity
  8
0
100
AcDbSpline
 62
7
  6
CONTINUOUS
 70
0
 71
3
 72
9
 73
5
 74
0
 42
0.0000001
 43
0.0000001
 44
0.0000000001
 40
0.0
 40
0.0
 40
0.0
 40
0.0
 40
0.4956218278
 40
1.0
 40
1.0
 40
1.0
 40
1.0
 10
576.9003428812
 20
388.3017454039
 30
0.0
 10
576.9513642117
 20
388.3062082209
 30
0.0
 10
577.0534805973
 20
388.2523953918
 30
0.0
 10
577.1122175061
 20
388.1546439713
 30
0.0
 10
577.1124657928
 20
388.1025235681
 30
0.0
  0
SPLINE
  5
693
100
AcDbEntity
  8
0
100
AcDbSpline
 62
7
  6
CONTINUOUS
 70
0
 71
3
 72
9
 73
5
 74
0
 42
0.0000001
 43
0.0000001
 44
0.0000000001
 40
0.0
 40
0.0
 40
0.0
 40
0.0
 40
0.4971606793
 40
1.0
 40
1.0
 40
1.0
 40
1.0
 10
573.008915318
 20
172.092859065
 30
0.0
 10
573.0796479259
 20
172.0928590643
 30
0.0
 10
573.2129916287
 20
172.0024007474
 30
0.0
 10
573.2772430428
 20
171.864400743
 30
0.0
 10
573.2772434219
 20
171.792860217
 30
0.0
  0
SPLINE
  5
694
100
AcDbEntity
  8
0
100
AcDbSpline
 62
7
  6
CONTINUOUS
 70
0
 71
3
 72
9
 73
5
 74
0
 42
0.0000001
 43
0.0000001
 44
0.0000000001
 40
0.0
 40
0.0
 40
0.0
 40
0.0
 40
0.5478036211
 40
1.0
 40
1.0
 40
1.0
 40
1.0
 10
577.0082536439
 20
388.4487121229
 30
0.0
 10
577.042126172
 20
388.4463103195
 30
0.0
 10
577.1030243051
 20
388.4348452298
 30
0.0
 10
577.1632186063
 20
388.4153748146
 30
0.0
 10
577.186684503
 20
388.4000421848
 30
0.0
  0
SPLINE
  5
695
100
AcDbEntity
  8
0
100
AcDbSpline
 62
7
  6
CONTINUOUS
 70
0
 71
3
 72
8
 73
4
 74
0
 42
0.0000001
 43
0.0000001
 44
0.0000000001
 40
0.0
 40
0.0
 40
0.0
 40
0.0
 40
1.0
 40
1.0
 40
1.0
 40
1.0
 10
548.5871836224
 20
408.3930429778
 30
0.0
 10
548.5807621813
 20
408.5774340727
 30
0.0
 10
548.5766676243
 20
408.7619488225
 30
0.0
 10
548.5766676243
 20
408.9464516972
 30
0.0
  0
SPLINE
  5
696
100
AcDbEntity
  8
0
100
AcDbSpline
 62
7
  6
CONTINUOUS
 70
0
 71
3
 72
10
 73
6
 74
0
 42
0.0000001
 43
0.0000001
 44
0.0000000001
 40
0.0
 40
0.0
 40
0.0
 40
0.0
 40
0.6880355289
 40
0.8142082327
 40
1.0
 40
1.0
 40
1.0
 40
1.0
 10
548.5766676243
 20
408.9464516972
 30
0.0
 10
548.5766676243
 20
409.0550391072
 30
0.0
 10
548.5683580778
 20
409.1349753812
 30
0.0
 10
548.5897182477
 20
409.374270224
 30
0.0
 10
548.600885722
 20
409.2738001294
 30
0.0
 10
548.6039249216
 20
409.244635959
 30
0.0
  0
SPLINE
  5
697
100
AcDbEntity
  8
0
100
AcDbSpline
 62
7
  6
CONTINUOUS
 70
0
 71
3
 72
9
 73
5
 74
0
 42
0.0000001
 43
0.0000001
 44
0.0000000001
 40
0.0
 40
0.0
 40
0.0
 40
0.0
 40
0.2610450163
 40
1.0
 40
1.0
 40
1.0
 40
1.0
 10
551.7092913729
 20
409.5008513965
 30
0.0
 10
551.6845816151
 20
409.4999860443
 30
0.0
 10
551.7060777861
 20
409.3520606529
 30
0.0
 10
551.6841296573
 20
409.2887713259
 30
0.0
 10
551.6827711537
 20
409.2187943136
 30
0.0
  0
SPLINE
  5
698
100
AcDbEntity
  8
0
100
AcDbSpline
 62
7
  6
CONTINUOUS
 70
0
 71
3
 72
8
 73
4
 74
0
 42
0.0000001
 43
0.0000001
 44
0.0000000001
 40
0.0
 40
0.0
 40
0.0
 40
0.0
 40
1.0
 40
1.0
 40
1.0
 40
1.0
 10
551.6827711537
 20
409.2187943136
 30
0.0
 10
551.6781296528
 20
408.979708921
 30
0.0
 10
551.6835326872
 20
408.7404460738
 30
0.0
 10
551.6918552974
 20
408.5014605039
 30
0.0
  0
SPLINE
  5
699
100
AcDbEntity
  8
0
100
AcDbSpline
 62
7
  6
CONTINUOUS
 70
0
 71
3
 72
9
 73
5
 74
0
 42
0.0000001
 43
0.0000001
 44
0.0000000001
 40
0.0
 40
0.0
 40
0.0
 40
0.0
 40
0.2641060979
 40
1.0
 40
1.0
 40
1.0
 40
1.0
 10
552.7829019707
 20
376.2340368096
 30
0.0
 10
552.7594818094
 20
376.2102441373
 30
0.0
 10
552.9779809728
 20
376.1399266398
 30
0.0
 10
553.0155063972
 20
376.0674259383
 30
0.0
 10
553.0927933798
 20
376.0156552813
 30
0.0
  0
SPLINE
  5
69A
100
AcDbEntity
  8
0
100
AcDbSpline
 62
7
  6
CONTINUOUS
 70
0
 71
3
 72
9
 73
5
 74
0
 42
0.0000001
 43
0.0000001
 44
0.0000000001
 40
0.0
 40
0.0
 40
0.0
 40
0.0
 40
0.2725332004
 40
1.0
 40
1.0
 40
1.0
 40
1.0
 10
553.4959468677
 20
376.9596365683
 30
0.0
 10
553.4665587138
 20
376.929724791
 30
0.0
 10
553.6481060731
 20
376.7743735376
 30
0.0
 10
553.6725360064
 20
376.6581291466
 30
0.0
 10
553.7337551162
 20
376.5644235412
 30
0.0
  0
SPLINE
  5
69B
100
AcDbEntity
  8
0
100
AcDbSpline
 62
7
  6
CONTINUOUS
 70
0
 71
3
 72
8
 73
4
 74
0
 42
0.0000001
 43
0.0000001
 44
0.0000000001
 40
0.0
 40
0.0
 40
0.0
 40
0.0
 40
1.0
 40
1.0
 40
1.0
 40
1.0
 10
553.7337551162
 20
376.5644235412
 30
0.0
 10
553.8322395825
 20
376.4136773677
 30
0.0
 10
553.9322075708
 20
376.2639033661
 30
0.0
 10
554.032273488
 20
376.1142022936
 30
0.0
  0
SPLINE
  5
69C
100
AcDbEntity
  8
0
100
AcDbSpline
 62
7
  6
CONTINUOUS
 70
0
 71
3
 72
9
 73
5
 74
0
 42
0.0000001
 43
0.0000001
 44
0.0000000001
 40
0.0
 40
0.0
 40
0.0
 40
0.0
 40
0.2615527322
 40
1.0
 40
1.0
 40
1.0
 40
1.0
 10
553.843974177
 20
377.1091536606
 30
0.0
 10
553.8183682794
 20
377.1087078443
 30
0.0
 10
553.8871372704
 20
376.9501221137
 30
0.0
 10
553.8711510053
 20
376.8896151035
 30
0.0
 10
553.8841653298
 20
376.8184913708
 30
0.0
  0
SPLINE
  5
69D
100
AcDbEntity
  8
0
100
AcDbSpline
 62
7
  6
CONTINUOUS
 70
0
 71
3
 72
8
 73
4
 74
0
 42
0.0000001
 43
0.0000001
 44
0.0000000001
 40
0.0
 40
0.0
 40
0.0
 40
0.0
 40
1.0
 40
1.0
 40
1.0
 40
1.0
 10
567.4222912741
 20
234.5051675499
 30
0.0
 10
567.4217558632
 20
234.2577995646
 30
0.0
 10
567.3160425099
 20
233.9955816811
 30
0.0
 10
567.1451119686
 20
233.8167690504
 30
0.0
  0
SPLINE
  5
69E
100
AcDbEntity
  8
0
100
AcDbSpline
 62
7
  6
CONTINUOUS
 70
0
 71
3
 72
8
 73
4
 74
0
 42
0.0000001
 43
0.0000001
 44
0.0000000001
 40
0.0
 40
0.0
 40
0.0
 40
0.0
 40
1.0
 40
1.0
 40
1.0
 40
1.0
 10
567.1451119686
 20
233.8167690504
 30
0.0
 10
566.9750135227
 20
233.6388268853
 30
0.0
 10
566.7198108863
 20
233.5220926883
 30
0.0
 10
566.4740201128
 20
233.50853573
 30
0.0
  0
SPLINE
  5
69F
100
AcDbEntity
  8
0
100
AcDbSpline
 62
7
  6
CONTINUOUS
 70
0
 71
3
 72
8
 73
4
 74
0
 42
0.0000001
 43
0.0000001
 44
0.0000000001
 40
0.0
 40
0.0
 40
0.0
 40
0.0
 40
1.0
 40
1.0
 40
1.0
 40
1.0
 10
567.4222912741
 20
242.5051675499
 30
0.0
 10
567.4217558632
 20
242.2577995646
 30
0.0
 10
567.3160425099
 20
241.9955816811
 30
0.0
 10
567.1451119686
 20
241.8167690504
 30
0.0
  0
SPLINE
  5
6A0
100
AcDbEntity
  8
0
100
AcDbSpline
 62
7
  6
CONTINUOUS
 70
0
 71
3
 72
8
 73
4
 74
0
 42
0.0000001
 43
0.0000001
 44
0.0000000001
 40
0.0
 40
0.0
 40
0.0
 40
0.0
 40
1.0
 40
1.0
 40
1.0
 40
1.0
 10
567.1451119686
 20
241.8167690504
 30
0.0
 10
566.9750135227
 20
241.6388268853
 30
0.0
 10
566.7198108863
 20
241.5220926883
 30
0.0
 10
566.4740201129
 20
241.50853573
 30
0.0
  0
SPLINE
  5
6A1
100
AcDbEntity
  8
0
100
AcDbSpline
 62
7
  6
CONTINUOUS
 70
0
 71
3
 72
8
 73
4
 74
0
 42
0.0000001
 43
0.0000001
 44
0.0000000001
 40
0.0
 40
0.0
 40
0.0
 40
0.0
 40
1.0
 40
1.0
 40
1.0
 40
1.0
 10
567.4222912741
 20
258.5051675499
 30
0.0
 10
567.4217558632
 20
258.2577995646
 30
0.0
 10
567.3160425099
 20
257.9955816811
 30
0.0
 10
567.1451119686
 20
257.8167690504
 30
0.0
  0
SPLINE
  5
6A2
100
AcDbEntity
  8
0
100
AcDbSpline
 62
7
  6
CONTINUOUS
 70
0
 71
3
 72
8
 73
4
 74
0
 42
0.0000001
 43
0.0000001
 44
0.0000000001
 40
0.0
 40
0.0
 40
0.0
 40
0.0
 40
1.0
 40
1.0
 40
1.0
 40
1.0
 10
567.1451119686
 20
257.8167690504
 30
0.0
 10
566.9750135227
 20
257.6388268853
 30
0.0
 10
566.7198108863
 20
257.5220926883
 30
0.0
 10
566.4740201129
 20
257.50853573
 30
0.0
  0
SPLINE
  5
6A3
100
AcDbEntity
  8
0
100
AcDbSpline
 62
7
  6
CONTINUOUS
 70
0
 71
3
 72
8
 73
4
 74
0
 42
0.0000001
 43
0.0000001
 44
0.0000000001
 40
0.0
 40
0.0
 40
0.0
 40
0.0
 40
1.0
 40
1.0
 40
1.0
 40
1.0
 10
567.4222912741
 20
266.5051675499
 30
0.0
 10
567.4217558632
 20
266.2577995645
 30
0.0
 10
567.3160425099
 20
265.9955816811
 30
0.0
 10
567.1451119686
 20
265.8167690504
 30
0.0
  0
SPLINE
  5
6A4
100
AcDbEntity
  8
0
100
AcDbSpline
 62
7
  6
CONTINUOUS
 70
0
 71
3
 72
8
 73
4
 74
0
 42
0.0000001
 43
0.0000001
 44
0.0000000001
 40
0.0
 40
0.0
 40
0.0
 40
0.0
 40
1.0
 40
1.0
 40
1.0
 40
1.0
 10
567.1451119686
 20
265.8167690504
 30
0.0
 10
566.9750135227
 20
265.6388268853
 30
0.0
 10
566.7198108863
 20
265.5220926883
 30
0.0
 10
566.4740201129
 20
265.50853573
 30
0.0
  0
SPLINE
  5
6A5
100
AcDbEntity
  8
0
100
AcDbSpline
 62
7
  6
CONTINUOUS
 70
0
 71
3
 72
8
 73
4
 74
0
 42
0.0000001
 43
0.0000001
 44
0.0000000001
 40
0.0
 40
0.0
 40
0.0
 40
0.0
 40
1.0
 40
1.0
 40
1.0
 40
1.0
 10
567.4222912741
 20
282.5051675499
 30
0.0
 10
567.4217558632
 20
282.2577995645
 30
0.0
 10
567.3160425098
 20
281.9955816811
 30
0.0
 10
567.1451119686
 20
281.8167690504
 30
0.0
  0
SPLINE
  5
6A6
100
AcDbEntity
  8
0
100
AcDbSpline
 62
7
  6
CONTINUOUS
 70
0
 71
3
 72
8
 73
4
 74
0
 42
0.0000001
 43
0.0000001
 44
0.0000000001
 40
0.0
 40
0.0
 40
0.0
 40
0.0
 40
1.0
 40
1.0
 40
1.0
 40
1.0
 10
567.1451119686
 20
281.8167690504
 30
0.0
 10
566.9750135227
 20
281.6388268853
 30
0.0
 10
566.7198108863
 20
281.5220926883
 30
0.0
 10
566.4740201129
 20
281.50853573
 30
0.0
  0
SPLINE
  5
6A7
100
AcDbEntity
  8
0
100
AcDbSpline
 62
7
  6
CONTINUOUS
 70
0
 71
3
 72
8
 73
4
 74
0
 42
0.0000001
 43
0.0000001
 44
0.0000000001
 40
0.0
 40
0.0
 40
0.0
 40
0.0
 40
1.0
 40
1.0
 40
1.0
 40
1.0
 10
567.4222912741
 20
290.5051675499
 30
0.0
 10
567.4217558632
 20
290.2577995646
 30
0.0
 10
567.3160425099
 20
289.9955816811
 30
0.0
 10
567.1451119686
 20
289.8167690504
 30
0.0
  0
SPLINE
  5
6A8
100
AcDbEntity
  8
0
100
AcDbSpline
 62
7
  6
CONTINUOUS
 70
0
 71
3
 72
8
 73
4
 74
0
 42
0.0000001
 43
0.0000001
 44
0.0000000001
 40
0.0
 40
0.0
 40
0.0
 40
0.0
 40
1.0
 40
1.0
 40
1.0
 40
1.0
 10
567.1451119686
 20
289.8167690504
 30
0.0
 10
566.9750135227
 20
289.6388268853
 30
0.0
 10
566.7198108863
 20
289.5220926883
 30
0.0
 10
566.4740201129
 20
289.50853573
 30
0.0
  0
SPLINE
  5
6A9
100
AcDbEntity
  8
0
100
AcDbSpline
 62
7
  6
CONTINUOUS
 70
0
 71
3
 72
8
 73
4
 74
0
 42
0.0000001
 43
0.0000001
 44
0.0000000001
 40
0.0
 40
0.0
 40
0.0
 40
0.0
 40
1.0
 40
1.0
 40
1.0
 40
1.0
 10
567.4222912741
 20
318.714798667
 30
0.0
 10
567.4217558632
 20
318.4674306817
 30
0.0
 10
567.3160425098
 20
318.2052127982
 30
0.0
 10
567.1451119686
 20
318.0264001675
 30
0.0
  0
SPLINE
  5
6AA
100
AcDbEntity
  8
0
100
AcDbSpline
 62
7
  6
CONTINUOUS
 70
0
 71
3
 72
8
 73
4
 74
0
 42
0.0000001
 43
0.0000001
 44
0.0000000001
 40
0.0
 40
0.0
 40
0.0
 40
0.0
 40
1.0
 40
1.0
 40
1.0
 40
1.0
 10
567.1451119686
 20
318.0264001675
 30
0.0
 10
566.9750135227
 20
317.8484580024
 30
0.0
 10
566.7198108862
 20
317.7317238054
 30
0.0
 10
566.4740201128
 20
317.7181668471
 30
0.0
  0
SPLINE
  5
6AB
100
AcDbEntity
  8
0
100
AcDbSpline
 62
7
  6
CONTINUOUS
 70
0
 71
3
 72
8
 73
4
 74
0
 42
0.0000001
 43
0.0000001
 44
0.0000000001
 40
0.0
 40
0.0
 40
0.0
 40
0.0
 40
1.0
 40
1.0
 40
1.0
 40
1.0
 10
567.4222912741
 20
326.714798667
 30
0.0
 10
567.4217558632
 20
326.4674306817
 30
0.0
 10
567.3160425098
 20
326.2052127982
 30
0.0
 10
567.1451119686
 20
326.0264001675
 30
0.0
  0
SPLINE
  5
6AC
100
AcDbEntity
  8
0
100
AcDbSpline
 62
7
  6
CONTINUOUS
 70
0
 71
3
 72
8
 73
4
 74
0
 42
0.0000001
 43
0.0000001
 44
0.0000000001
 40
0.0
 40
0.0
 40
0.0
 40
0.0
 40
1.0
 40
1.0
 40
1.0
 40
1.0
 10
567.1451119686
 20
326.0264001675
 30
0.0
 10
566.9750135227
 20
325.8484580024
 30
0.0
 10
566.7198108862
 20
325.7317238054
 30
0.0
 10
566.4740201128
 20
325.7181668471
 30
0.0
  0
SPLINE
  5
6AD
100
AcDbEntity
  8
0
100
AcDbSpline
 62
7
  6
CONTINUOUS
 70
0
 71
3
 72
8
 73
4
 74
0
 42
0.0000001
 43
0.0000001
 44
0.0000000001
 40
0.0
 40
0.0
 40
0.0
 40
0.0
 40
1.0
 40
1.0
 40
1.0
 40
1.0
 10
567.4222912741
 20
334.714798667
 30
0.0
 10
567.4217558632
 20
334.4674306817
 30
0.0
 10
567.3160425099
 20
334.2052127982
 30
0.0
 10
567.1451119686
 20
334.0264001675
 30
0.0
  0
SPLINE
  5
6AE
100
AcDbEntity
  8
0
100
AcDbSpline
 62
7
  6
CONTINUOUS
 70
0
 71
3
 72
8
 73
4
 74
0
 42
0.0000001
 43
0.0000001
 44
0.0000000001
 40
0.0
 40
0.0
 40
0.0
 40
0.0
 40
1.0
 40
1.0
 40
1.0
 40
1.0
 10
567.1451119686
 20
334.0264001675
 30
0.0
 10
566.9750135227
 20
333.8484580024
 30
0.0
 10
566.7198108862
 20
333.7317238054
 30
0.0
 10
566.4740201128
 20
333.7181668471
 30
0.0
  0
SPLINE
  5
6AF
100
AcDbEntity
  8
0
100
AcDbSpline
 62
7
  6
CONTINUOUS
 70
0
 71
3
 72
8
 73
4
 74
0
 42
0.0000001
 43
0.0000001
 44
0.0000000001
 40
0.0
 40
0.0
 40
0.0
 40
0.0
 40
1.0
 40
1.0
 40
1.0
 40
1.0
 10
567.4222912741
 20
342.714798667
 30
0.0
 10
567.4217558632
 20
342.4674306817
 30
0.0
 10
567.3160425098
 20
342.2052127982
 30
0.0
 10
567.1451119686
 20
342.0264001675
 30
0.0
  0
SPLINE
  5
6B0
100
AcDbEntity
  8
0
100
AcDbSpline
 62
7
  6
CONTINUOUS
 70
0
 71
3
 72
8
 73
4
 74
0
 42
0.0000001
 43
0.0000001
 44
0.0000000001
 40
0.0
 40
0.0
 40
0.0
 40
0.0
 40
1.0
 40
1.0
 40
1.0
 40
1.0
 10
567.1451119686
 20
342.0264001675
 30
0.0
 10
566.9750135227
 20
341.8484580024
 30
0.0
 10
566.7198108862
 20
341.7317238054
 30
0.0
 10
566.4740201128
 20
341.7181668471
 30
0.0
  0
SPLINE
  5
6B1
100
AcDbEntity
  8
0
100
AcDbSpline
 62
7
  6
CONTINUOUS
 70
0
 71
3
 72
8
 73
4
 74
0
 42
0.0000001
 43
0.0000001
 44
0.0000000001
 40
0.0
 40
0.0
 40
0.0
 40
0.0
 40
1.0
 40
1.0
 40
1.0
 40
1.0
 10
559.99408623
 20
356.5622670917
 30
0.0
 10
559.4763093783
 20
356.7009184494
 30
0.0
 10
558.9834946361
 20
357.0306167162
 30
0.0
 10
558.6571656434
 20
357.4558536569
 30
0.0
  0
SPLINE
  5
6B2
100
AcDbEntity
  8
0
100
AcDbSpline
 62
7
  6
CONTINUOUS
 70
0
 71
3
 72
8
 73
4
 74
0
 42
0.0000001
 43
0.0000001
 44
0.0000000001
 40
0.0
 40
0.0
 40
0.0
 40
0.0
 40
1.0
 40
1.0
 40
1.0
 40
1.0
 10
558.6571656434
 20
357.4558536569
 30
0.0
 10
558.3307996175
 20
357.8811388553
 30
0.0
 10
558.1394649623
 20
358.4424297869
 30
0.0
 10
558.1395196279
 20
358.9785102659
 30
0.0
  0
SPLINE
  5
6B3
100
AcDbEntity
  8
0
100
AcDbSpline
 62
7
  6
CONTINUOUS
 70
0
 71
3
 72
8
 73
4
 74
0
 42
0.0000001
 43
0.0000001
 44
0.0000000001
 40
0.0
 40
0.0
 40
0.0
 40
0.0
 40
1.0
 40
1.0
 40
1.0
 40
1.0
 10
573.1395195474
 20
351.8888962208
 30
0.0
 10
573.1395366157
 20
352.3109602218
 30
0.0
 10
572.927726927
 20
352.7650252312
 30
0.0
 10
572.6045930999
 20
353.0365442011
 30
0.0
  0
SPLINE
  5
6B4
100
AcDbEntity
  8
0
100
AcDbSpline
 62
7
  6
CONTINUOUS
 70
0
 71
3
 72
8
 73
4
 74
0
 42
0.0000001
 43
0.0000001
 44
0.0000000001
 40
0.0
 40
0.0
 40
0.0
 40
0.0
 40
1.0
 40
1.0
 40
1.0
 40
1.0
 10
572.6045930999
 20
353.0365442011
 30
0.0
 10
572.4384946337
 20
353.1761114041
 30
0.0
 10
572.2372599098
 20
353.2817438634
 30
0.0
 10
572.0276950879
 20
353.3378713079
 30
0.0
  0
SPLINE
  5
6B5
100
AcDbEntity
  8
0
100
AcDbSpline
 62
7
  6
CONTINUOUS
 70
0
 71
3
 72
8
 73
4
 74
0
 42
0.0000001
 43
0.0000001
 44
0.0000000001
 40
0.0
 40
0.0
 40
0.0
 40
0.0
 40
1.0
 40
1.0
 40
1.0
 40
1.0
 10
572.0277373672
 20
191.6478604547
 30
0.0
 10
572.4340413824
 20
191.7566801405
 30
0.0
 10
572.816476254
 20
192.0769085435
 30
0.0
 10
572.9956597784
 20
192.4574580691
 30
0.0
  0
SPLINE
  5
6B6
100
AcDbEntity
  8
0
100
AcDbSpline
 62
7
  6
CONTINUOUS
 70
0
 71
3
 72
8
 73
4
 74
0
 42
0.0000001
 43
0.0000001
 44
0.0000000001
 40
0.0
 40
0.0
 40
0.0
 40
0.0
 40
1.0
 40
1.0
 40
1.0
 40
1.0
 10
572.9956597784
 20
192.4574580691
 30
0.0
 10
573.0887244559
 20
192.6551086006
 30
0.0
 10
573.1395370667
 20
192.878403597
 30
0.0
 10
573.1395195474
 20
193.0968681628
 30
0.0
  0
SPLINE
  5
6B7
100
AcDbEntity
  8
0
100
AcDbSpline
 62
7
  6
CONTINUOUS
 70
0
 71
3
 72
8
 73
4
 74
0
 42
0.0000001
 43
0.0000001
 44
0.0000000001
 40
0.0
 40
0.0
 40
0.0
 40
0.0
 40
1.0
 40
1.0
 40
1.0
 40
1.0
 10
558.1395196279
 20
186.0072101007
 30
0.0
 10
558.1394650009
 20
186.543290556
 30
0.0
 10
558.330799561
 20
187.1045814694
 30
0.0
 10
558.6571655499
 20
187.5298666664
 30
0.0
  0
SPLINE
  5
6B8
100
AcDbEntity
  8
0
100
AcDbSpline
 62
7
  6
CONTINUOUS
 70
0
 71
3
 72
8
 73
4
 74
0
 42
0.0000001
 43
0.0000001
 44
0.0000000001
 40
0.0
 40
0.0
 40
0.0
 40
0.0
 40
1.0
 40
1.0
 40
1.0
 40
1.0
 10
558.6571655499
 20
187.5298666664
 30
0.0
 10
558.9151258383
 20
187.8660128819
 30
0.0
 10
559.2720734614
 20
188.1424268091
 30
0.0
 10
559.6618313598
 20
188.3086392311
 30
0.0
  0
SPLINE
  5
6B9
100
AcDbEntity
  8
0
100
AcDbSpline
 62
7
  6
CONTINUOUS
 70
0
 71
3
 72
8
 73
4
 74
0
 42
0.0000001
 43
0.0000001
 44
0.0000000001
 40
0.0
 40
0.0
 40
0.0
 40
0.0
 40
1.0
 40
1.0
 40
1.0
 40
1.0
 10
567.4222912741
 20
198.714798667
 30
0.0
 10
567.4217558632
 20
198.4674306817
 30
0.0
 10
567.3160425099
 20
198.2052127982
 30
0.0
 10
567.1451119686
 20
198.0264001675
 30
0.0
  0
SPLINE
  5
6BA
100
AcDbEntity
  8
0
100
AcDbSpline
 62
7
  6
CONTINUOUS
 70
0
 71
3
 72
8
 73
4
 74
0
 42
0.0000001
 43
0.0000001
 44
0.0000000001
 40
0.0
 40
0.0
 40
0.0
 40
0.0
 40
1.0
 40
1.0
 40
1.0
 40
1.0
 10
567.1451119686
 20
198.0264001675
 30
0.0
 10
566.9750135227
 20
197.8484580024
 30
0.0
 10
566.7198108862
 20
197.7317238055
 30
0.0
 10
566.4740201128
 20
197.7181668471
 30
0.0
  0
SPLINE
  5
6BB
100
AcDbEntity
  8
0
100
AcDbSpline
 62
7
  6
CONTINUOUS
 70
0
 71
3
 72
8
 73
4
 74
0
 42
0.0000001
 43
0.0000001
 44
0.0000000001
 40
0.0
 40
0.0
 40
0.0
 40
0.0
 40
1.0
 40
1.0
 40
1.0
 40
1.0
 10
567.4222912741
 20
206.714798667
 30
0.0
 10
567.4217558632
 20
206.4674306817
 30
0.0
 10
567.3160425098
 20
206.2052127982
 30
0.0
 10
567.1451119686
 20
206.0264001675
 30
0.0
  0
SPLINE
  5
6BC
100
AcDbEntity
  8
0
100
AcDbSpline
 62
7
  6
CONTINUOUS
 70
0
 71
3
 72
8
 73
4
 74
0
 42
0.0000001
 43
0.0000001
 44
0.0000000001
 40
0.0
 40
0.0
 40
0.0
 40
0.0
 40
1.0
 40
1.0
 40
1.0
 40
1.0
 10
567.1451119686
 20
206.0264001675
 30
0.0
 10
566.9750135227
 20
205.8484580024
 30
0.0
 10
566.7198108862
 20
205.7317238054
 30
0.0
 10
566.4740201128
 20
205.7181668471
 30
0.0
  0
SPLINE
  5
6BD
100
AcDbEntity
  8
0
100
AcDbSpline
 62
7
  6
CONTINUOUS
 70
0
 71
3
 72
9
 73
5
 74
0
 42
0.0000001
 43
0.0000001
 44
0.0000000001
 40
0.0
 40
0.0
 40
0.0
 40
0.0
 40
0.3274254258
 40
1.0
 40
1.0
 40
1.0
 40
1.0
 10
556.6395195787
 20
221.9070184382
 30
0.0
 10
556.6395140065
 20
221.803412394
 30
0.0
 10
557.0268290758
 20
221.6567723559
 30
0.0
 10
557.1934725788
 20
221.4218592225
 30
0.0
 10
557.3567252785
 20
221.2853269768
 30
0.0
  0
SPLINE
  5
6BE
100
AcDbEntity
  8
0
100
AcDbSpline
 62
7
  6
CONTINUOUS
 70
0
 71
3
 72
10
 73
6
 74
0
 42
0.0000001
 43
0.0000001
 44
0.0000000001
 40
0.0
 40
0.0
 40
0.0
 40
0.0
 40
0.6966248686
 40
0.8754969732
 40
1.0
 40
1.0
 40
1.0
 40
1.0
 10
557.1142178458
 20
226.0170528664
 30
0.0
 10
557.1082618894
 20
225.9028416835
 30
0.0
 10
557.1063846203
 20
225.8316441722
 30
0.0
 10
557.0977903485
 20
225.5422079485
 30
0.0
 10
557.1132190126
 20
225.6259402152
 30
0.0
 10
557.1155625079
 20
225.6462453512
 30
0.0
  0
SPLINE
  5
6BF
100
AcDbEntity
  8
0
100
AcDbSpline
 62
7
  6
CONTINUOUS
 70
0
 71
3
 72
9
 73
5
 74
0
 42
0.0000001
 43
0.0000001
 44
0.0000000001
 40
0.0
 40
0.0
 40
0.0
 40
0.0
 40
0.2608255239
 40
1.0
 40
1.0
 40
1.0
 40
1.0
 10
556.6395195787
 20
225.0175104957
 30
0.0
 10
556.639507442
 20
224.9932668013
 30
0.0
 10
556.7910468192
 20
225.0552082329
 30
0.0
 10
556.849591904
 20
225.0229575766
 30
0.0
 10
556.9182743288
 20
225.0247637069
 30
0.0
  0
SPLINE
  5
6C0
100
AcDbEntity
  8
0
100
AcDbSpline
 62
7
  6
CONTINUOUS
 70
0
 71
3
 72
8
 73
4
 74
0
 42
0.0000001
 43
0.0000001
 44
0.0000000001
 40
0.0
 40
0.0
 40
0.0
 40
0.0
 40
1.0
 40
1.0
 40
1.0
 40
1.0
 10
556.9182743288
 20
225.0247637069
 30
0.0
 10
557.1470557325
 20
225.0307799331
 30
0.0
 10
557.3758495894
 20
225.0363359136
 30
0.0
 10
557.604620082
 20
225.0427536533
 30
0.0
  0
SPLINE
  5
6C1
100
AcDbEntity
  8
0
100
AcDbSpline
 62
7
  6
CONTINUOUS
 70
0
 71
3
 72
8
 73
4
 74
0
 42
0.0000001
 43
0.0000001
 44
0.0000000001
 40
0.0
 40
0.0
 40
0.0
 40
0.0
 40
1.0
 40
1.0
 40
1.0
 40
1.0
 10
566.4744217249
 20
225.5076002601
 30
0.0
 10
566.720408299
 20
225.5208330107
 30
0.0
 10
566.9759922771
 20
225.6377383155
 30
0.0
 10
567.1460327011
 20
225.8159818414
 30
0.0
  0
SPLINE
  5
6C2
100
AcDbEntity
  8
0
100
AcDbSpline
 62
7
  6
CONTINUOUS
 70
0
 71
3
 72
8
 73
4
 74
0
 42
0.0000001
 43
0.0000001
 44
0.0000000001
 40
0.0
 40
0.0
 40
0.0
 40
0.0
 40
1.0
 40
1.0
 40
1.0
 40
1.0
 10
567.1460327011
 20
225.8159818414
 30
0.0
 10
567.3173490317
 20
225.9955628262
 30
0.0
 10
567.4224659221
 20
226.2589524196
 30
0.0
 10
567.4229520141
 20
226.5071426268
 30
0.0
  0
SPLINE
  5
6C3
100
AcDbEntity
  8
0
100
AcDbSpline
 62
7
  6
CONTINUOUS
 70
0
 71
3
 72
9
 73
5
 74
0
 42
0.0000001
 43
0.0000001
 44
0.0000000001
 40
0.0
 40
0.0
 40
0.0
 40
0.0
 40
0.2506558706
 40
1.0
 40
1.0
 40
1.0
 40
1.0
 10
557.1142178458
 20
229.467982335
 30
0.0
 10
557.0809748103
 20
229.4697245286
 30
0.0
 10
557.1315932015
 20
229.2515426403
 30
0.0
 10
557.106375907
 20
229.1697819032
 30
0.0
 10
557.1156472783
 20
229.0706971649
 30
0.0
  0
SPLINE
  5
6C4
100
AcDbEntity
  8
0
100
AcDbSpline
 62
7
  6
CONTINUOUS
 70
0
 71
3
 72
8
 73
4
 74
0
 42
0.0000001
 43
0.0000001
 44
0.0000000001
 40
0.0
 40
0.0
 40
0.0
 40
0.0
 40
1.0
 40
1.0
 40
1.0
 40
1.0
 10
557.604620082
 20
229.9429667806
 30
0.0
 10
557.3771748594
 20
229.9492701967
 30
0.0
 10
557.1497108554
 20
229.9548766755
 30
0.0
 10
556.922256862
 20
229.9608552382
 30
0.0
  0
SPLINE
  5
6C5
100
AcDbEntity
  8
0
100
AcDbSpline
 62
7
  6
CONTINUOUS
 70
0
 71
3
 72
9
 73
5
 74
0
 42
0.0000001
 43
0.0000001
 44
0.0000000001
 40
0.0
 40
0.0
 40
0.0
 40
0.0
 40
0.7387967452
 40
1.0
 40
1.0
 40
1.0
 40
1.0
 10
556.922256862
 20
229.9608552382
 30
0.0
 10
556.8526288053
 20
229.9626853917
 30
0.0
 10
556.7932140267
 20
229.9299019233
 30
0.0
 10
556.6395166195
 20
229.9928355937
 30
0.0
 10
556.6395195787
 20
229.9682099351
 30
0.0
  0
SPLINE
  5
6C6
100
AcDbEntity
  8
0
100
AcDbSpline
 62
7
  6
CONTINUOUS
 70
0
 71
3
 72
9
 73
5
 74
0
 42
0.0000001
 43
0.0000001
 44
0.0000000001
 40
0.0
 40
0.0
 40
0.0
 40
0.0
 40
0.7390009606
 40
1.0
 40
1.0
 40
1.0
 40
1.0
 10
556.9200427758
 20
233.0257258637
 30
0.0
 10
556.8509399173
 20
233.0238828979
 30
0.0
 10
556.7919989114
 20
233.0564330637
 30
0.0
 10
556.6395165179
 20
232.9937543579
 30
0.0
 10
556.6395195787
 20
233.01816866
 30
0.0
  0
SPLINE
  5
6C7
100
AcDbEntity
  8
0
100
AcDbSpline
 62
7
  6
CONTINUOUS
 70
0
 71
3
 72
8
 73
4
 74
0
 42
0.0000001
 43
0.0000001
 44
0.0000000001
 40
0.0
 40
0.0
 40
0.0
 40
0.0
 40
1.0
 40
1.0
 40
1.0
 40
1.0
 10
567.4220392413
 20
236.4781975675
 30
0.0
 10
567.4213566434
 20
236.7241215458
 30
0.0
 10
567.3183159532
 20
236.9847894323
 30
0.0
 10
567.1498085122
 20
237.1639103729
 30
0.0
  0
SPLINE
  5
6C8
100
AcDbEntity
  8
0
100
AcDbSpline
 62
7
  6
CONTINUOUS
 70
0
 71
3
 72
8
 73
4
 74
0
 42
0.0000001
 43
0.0000001
 44
0.0000000001
 40
0.0
 40
0.0
 40
0.0
 40
0.0
 40
1.0
 40
1.0
 40
1.0
 40
1.0
 10
567.1498085122
 20
237.1639103729
 30
0.0
 10
566.9801668113
 20
237.344237015
 30
0.0
 10
566.7235927619
 20
237.4637119092
 30
0.0
 10
566.4763809278
 20
237.477214266
 30
0.0
  0
SPLINE
  5
6C9
100
AcDbEntity
  8
0
100
AcDbSpline
 62
7
  6
CONTINUOUS
 70
0
 71
3
 72
10
 73
6
 74
0
 42
0.0000001
 43
0.0000001
 44
0.0000000001
 40
0.0
 40
0.0
 40
0.0
 40
0.0
 40
0.694795434
 40
0.872380215
 40
1.0
 40
1.0
 40
1.0
 40
1.0
 10
557.1134865407
 20
236.9687058937
 30
0.0
 10
557.107596611
 20
237.0823859285
 30
0.0
 10
557.1053077481
 20
237.1540373985
 30
0.0
 10
557.0962015396
 20
237.4411611197
 30
0.0
 10
557.1127537648
 20
237.3566109214
 30
0.0
 10
557.1153675556
 20
237.3358662221
 30
0.0
  0
SPLINE
  5
6CA
100
AcDbEntity
  8
0
100
AcDbSpline
 62
7
  6
CONTINUOUS
 70
0
 71
3
 72
9
 73
5
 74
0
 42
0.0000001
 43
0.0000001
 44
0.0000000001
 40
0.0
 40
0.0
 40
0.0
 40
0.0
 40
0.2540161251
 40
1.0
 40
1.0
 40
1.0
 40
1.0
 10
557.1133392743
 20
233.517692055
 30
0.0
 10
557.0792821619
 20
233.5159056876
 30
0.0
 10
557.1308666216
 20
233.7367503437
 30
0.0
 10
557.1054215062
 20
233.8195920978
 30
0.0
 10
557.1144531842
 20
233.9193390282
 30
0.0
  0
SPLINE
  5
6CB
100
AcDbEntity
  8
0
100
AcDbSpline
 62
7
  6
CONTINUOUS
 70
0
 71
3
 72
9
 73
5
 74
0
 42
0.0000001
 43
0.0000001
 44
0.0000000001
 40
0.0
 40
0.0
 40
0.0
 40
0.0
 40
0.7390722967
 40
1.0
 40
1.0
 40
1.0
 40
1.0
 10
556.9192841776
 20
237.9600146258
 30
0.0
 10
556.8503615398
 20
237.9618530169
 30
0.0
 10
556.7915873795
 20
237.9293884377
 30
0.0
 10
556.6395136282
 20
237.9918934011
 30
0.0
 10
556.6395195787
 20
237.9675517752
 30
0.0
  0
SPLINE
  5
6CC
100
AcDbEntity
  8
0
100
AcDbSpline
 62
7
  6
CONTINUOUS
 70
0
 71
3
 72
9
 73
5
 74
0
 42
0.0000001
 43
0.0000001
 44
0.0000000001
 40
0.0
 40
0.0
 40
0.0
 40
0.0
 40
0.739001102
 40
1.0
 40
1.0
 40
1.0
 40
1.0
 10
556.9200427743
 20
241.0257258637
 30
0.0
 10
556.8509399032
 20
241.0238828881
 30
0.0
 10
556.7920030221
 20
241.0564329966
 30
0.0
 10
556.6395136104
 20
240.9937543706
 30
0.0
 10
556.6395195787
 20
241.0181686588
 30
0.0
  0
SPLINE
  5
6CD
100
AcDbEntity
  8
0
100
AcDbSpline
 62
7
  6
CONTINUOUS
 70
0
 71
3
 72
8
 73
4
 74
0
 42
0.0000001
 43
0.0000001
 44
0.0000000001
 40
0.0
 40
0.0
 40
0.0
 40
0.0
 40
1.0
 40
1.0
 40
1.0
 40
1.0
 10
567.4220392413
 20
244.4781975675
 30
0.0
 10
567.4213566434
 20
244.7241215457
 30
0.0
 10
567.3183159532
 20
244.9847894322
 30
0.0
 10
567.1498085122
 20
245.1639103728
 30
0.0
  0
SPLINE
  5
6CE
100
AcDbEntity
  8
0
100
AcDbSpline
 62
7
  6
CONTINUOUS
 70
0
 71
3
 72
8
 73
4
 74
0
 42
0.0000001
 43
0.0000001
 44
0.0000000001
 40
0.0
 40
0.0
 40
0.0
 40
0.0
 40
1.0
 40
1.0
 40
1.0
 40
1.0
 10
567.1498085122
 20
245.1639103728
 30
0.0
 10
566.9801668113
 20
245.344237015
 30
0.0
 10
566.7235927619
 20
245.4637119092
 30
0.0
 10
566.4763809278
 20
245.4772142661
 30
0.0
  0
SPLINE
  5
6CF
100
AcDbEntity
  8
0
100
AcDbSpline
 62
7
  6
CONTINUOUS
 70
0
 71
3
 72
10
 73
6
 74
0
 42
0.0000001
 43
0.0000001
 44
0.0000000001
 40
0.0
 40
0.0
 40
0.0
 40
0.0
 40
0.6963385525
 40
0.8751469875
 40
1.0
 40
1.0
 40
1.0
 40
1.0
 10
557.1134866435
 20
242.0170145457
 30
0.0
 10
557.1075683242
 20
241.9027848773
 30
0.0
 10
557.1056011938
 20
241.8313528512
 30
0.0
 10
557.096000795
 20
241.5421841624
 30
0.0
 10
557.1127632634
 20
241.6258068337
 30
0.0
 10
557.1153403483
 20
241.6461530444
 30
0.0
  0
SPLINE
  5
6D0
100
AcDbEntity
  8
0
100
AcDbSpline
 62
7
  6
CONTINUOUS
 70
0
 71
3
 72
10
 73
6
 74
0
 42
0.0000001
 43
0.0000001
 44
0.0000000001
 40
0.0
 40
0.0
 40
0.0
 40
0.0
 40
0.694795434
 40
0.872380215
 40
1.0
 40
1.0
 40
1.0
 40
1.0
 10
557.1134865407
 20
244.9687058937
 30
0.0
 10
557.107596611
 20
245.0823859285
 30
0.0
 10
557.1053077481
 20
245.1540373985
 30
0.0
 10
557.0962015396
 20
245.4411611197
 30
0.0
 10
557.1127537648
 20
245.3566109214
 30
0.0
 10
557.1153675556
 20
245.3358662221
 30
0.0
  0
SPLINE
  5
6D1
100
AcDbEntity
  8
0
100
AcDbSpline
 62
7
  6
CONTINUOUS
 70
0
 71
3
 72
9
 73
5
 74
0
 42
0.0000001
 43
0.0000001
 44
0.0000000001
 40
0.0
 40
0.0
 40
0.0
 40
0.0
 40
0.7390721504
 40
1.0
 40
1.0
 40
1.0
 40
1.0
 10
556.9192841851
 20
245.9600146255
 30
0.0
 10
556.8503615589
 20
245.961853009
 30
0.0
 10
556.7915831606
 20
245.9293883744
 30
0.0
 10
556.6395166136
 20
245.9918934147
 30
0.0
 10
556.6395195787
 20
245.967551774
 30
0.0
  0
SPLINE
  5
6D2
100
AcDbEntity
  8
0
100
AcDbSpline
 62
7
  6
CONTINUOUS
 70
0
 71
3
 72
9
 73
5
 74
0
 42
0.0000001
 43
0.0000001
 44
0.0000000001
 40
0.0
 40
0.0
 40
0.0
 40
0.0
 40
0.7389932997
 40
1.0
 40
1.0
 40
1.0
 40
1.0
 10
556.9201266246
 20
249.0257212915
 30
0.0
 10
556.8510044811
 20
249.0239051685
 30
0.0
 10
556.792045247
 20
249.056516549
 30
0.0
 10
556.6395163048
 20
248.9939515022
 30
0.0
 10
556.6395195787
 20
249.018373332
 30
0.0
  0
SPLINE
  5
6D3
100
AcDbEntity
  8
0
100
AcDbSpline
 62
7
  6
CONTINUOUS
 70
0
 71
3
 72
10
 73
6
 74
0
 42
0.0000001
 43
0.0000001
 44
0.0000000001
 40
0.0
 40
0.0
 40
0.0
 40
0.0
 40
0.6968686086
 40
0.8758299064
 40
1.0
 40
1.0
 40
1.0
 40
1.0
 10
557.1134824113
 20
252.9687061101
 30
0.0
 10
557.1076980258
 20
253.0829935831
 30
0.0
 10
557.1058051498
 20
253.1540776258
 30
0.0
 10
557.0966915052
 20
253.4438372265
 30
0.0
 10
557.1117215253
 20
253.3601277495
 30
0.0
 10
557.1140220869
 20
253.3398678048
 30
0.0
  0
SPLINE
  5
6D4
100
AcDbEntity
  8
0
100
AcDbSpline
 62
7
  6
CONTINUOUS
 70
0
 71
3
 72
9
 73
5
 74
0
 42
0.0000001
 43
0.0000001
 44
0.0000000001
 40
0.0
 40
0.0
 40
0.0
 40
0.0
 40
0.738794275
 40
1.0
 40
1.0
 40
1.0
 40
1.0
 10
556.9222534099
 20
253.9599909862
 30
0.0
 10
556.8526262465
 20
253.9618173673
 30
0.0
 10
556.7932108363
 20
253.9289664297
 30
0.0
 10
556.6395162685
 20
253.9919895277
 30
0.0
 10
556.6395195787
 20
253.9673639047
 30
0.0
  0
SPLINE
  5
6D5
100
AcDbEntity
  8
0
100
AcDbSpline
 62
7
  6
CONTINUOUS
 70
0
 71
3
 72
8
 73
4
 74
0
 42
0.0000001
 43
0.0000001
 44
0.0000000001
 40
0.0
 40
0.0
 40
0.0
 40
0.0
 40
1.0
 40
1.0
 40
1.0
 40
1.0
 10
567.422244148
 20
252.4794352903
 30
0.0
 10
567.4226314889
 20
252.7338120384
 30
0.0
 10
567.3096503731
 20
253.0041045482
 30
0.0
 10
567.1303329421
 20
253.1845288784
 30
0.0
  0
SPLINE
  5
6D6
100
AcDbEntity
  8
0
100
AcDbSpline
 62
7
  6
CONTINUOUS
 70
0
 71
3
 72
8
 73
4
 74
0
 42
0.0000001
 43
0.0000001
 44
0.0000000001
 40
0.0
 40
0.0
 40
0.0
 40
0.0
 40
1.0
 40
1.0
 40
1.0
 40
1.0
 10
567.1303329421
 20
253.1845288784
 30
0.0
 10
566.9617813475
 20
253.3541209163
 30
0.0
 10
566.7142423181
 20
253.4647418913
 30
0.0
 10
566.4754651324
 20
253.4772540842
 30
0.0
  0
SPLINE
  5
6D7
100
AcDbEntity
  8
0
100
AcDbSpline
 62
7
  6
CONTINUOUS
 70
0
 71
3
 72
8
 73
4
 74
0
 42
0.0000001
 43
0.0000001
 44
0.0000000001
 40
0.0
 40
0.0
 40
0.0
 40
0.0
 40
1.0
 40
1.0
 40
1.0
 40
1.0
 10
566.475774701
 20
249.5084103708
 30
0.0
 10
566.7996209573
 20
249.5250627606
 30
0.0
 10
567.1428395763
 20
249.7429560169
 30
0.0
 10
567.2986192761
 20
250.0273613349
 30
0.0
  0
SPLINE
  5
6D8
100
AcDbEntity
  8
0
100
AcDbSpline
 62
7
  6
CONTINUOUS
 70
0
 71
3
 72
8
 73
4
 74
0
 42
0.0000001
 43
0.0000001
 44
0.0000000001
 40
0.0
 40
0.0
 40
0.0
 40
0.0
 40
1.0
 40
1.0
 40
1.0
 40
1.0
 10
567.2986192761
 20
250.0273613349
 30
0.0
 10
567.3777108164
 20
250.171757907
 30
0.0
 10
567.4220879882
 20
250.3409362114
 30
0.0
 10
567.4221690388
 20
250.50557471
 30
0.0
  0
SPLINE
  5
6D9
100
AcDbEntity
  8
0
100
AcDbSpline
 62
7
  6
CONTINUOUS
 70
0
 71
3
 72
10
 73
6
 74
0
 42
0.0000001
 43
0.0000001
 44
0.0000000001
 40
0.0
 40
0.0
 40
0.0
 40
0.0
 40
0.6968658239
 40
0.8758254978
 40
1.0
 40
1.0
 40
1.0
 40
1.0
 10
557.1135289835
 20
250.0170167646
 30
0.0
 10
557.1077417007
 20
249.9027277772
 30
0.0
 10
557.1058389527
 20
249.8316424346
 30
0.0
 10
557.0966597703
 20
249.5418812595
 30
0.0
 10
557.1117074655
 20
249.6255910044
 30
0.0
 10
557.1140129124
 20
249.6458515019
 30
0.0
  0
SPLINE
  5
6DA
100
AcDbEntity
  8
0
100
AcDbSpline
 62
7
  6
CONTINUOUS
 70
0
 71
3
 72
9
 73
5
 74
0
 42
0.0000001
 43
0.0000001
 44
0.0000000001
 40
0.0
 40
0.0
 40
0.0
 40
0.0
 40
0.7390009558
 40
1.0
 40
1.0
 40
1.0
 40
1.0
 10
556.9200427865
 20
257.025725864
 30
0.0
 10
556.8509399259
 20
257.0238828958
 30
0.0
 10
556.7919988066
 20
257.0564330603
 30
0.0
 10
556.6395165963
 20
256.9937543565
 30
0.0
 10
556.6395195787
 20
257.01816866
 30
0.0
  0
SPLINE
  5
6DB
100
AcDbEntity
  8
0
100
AcDbSpline
 62
7
  6
CONTINUOUS
 70
0
 71
3
 72
8
 73
4
 74
0
 42
0.0000001
 43
0.0000001
 44
0.0000000001
 40
0.0
 40
0.0
 40
0.0
 40
0.0
 40
1.0
 40
1.0
 40
1.0
 40
1.0
 10
567.4220392413
 20
260.4781975675
 30
0.0
 10
567.4213566434
 20
260.7241215457
 30
0.0
 10
567.3183159532
 20
260.9847894322
 30
0.0
 10
567.1498085122
 20
261.1639103728
 30
0.0
  0
SPLINE
  5
6DC
100
AcDbEntity
  8
0
100
AcDbSpline
 62
7
  6
CONTINUOUS
 70
0
 71
3
 72
8
 73
4
 74
0
 42
0.0000001
 43
0.0000001
 44
0.0000000001
 40
0.0
 40
0.0
 40
0.0
 40
0.0
 40
1.0
 40
1.0
 40
1.0
 40
1.0
 10
567.1498085122
 20
261.1639103728
 30
0.0
 10
566.9801668113
 20
261.344237015
 30
0.0
 10
566.7235927619
 20
261.4637119092
 30
0.0
 10
566.4763809278
 20
261.4772142661
 30
0.0
  0
SPLINE
  5
6DD
100
AcDbEntity
  8
0
100
AcDbSpline
 62
7
  6
CONTINUOUS
 70
0
 71
3
 72
10
 73
6
 74
0
 42
0.0000001
 43
0.0000001
 44
0.0000000001
 40
0.0
 40
0.0
 40
0.0
 40
0.0
 40
0.6963385525
 40
0.8751469875
 40
1.0
 40
1.0
 40
1.0
 40
1.0
 10
557.1134866435
 20
258.0170145457
 30
0.0
 10
557.1075683242
 20
257.9027848773
 30
0.0
 10
557.1056011938
 20
257.8313528512
 30
0.0
 10
557.096000795
 20
257.5421841624
 30
0.0
 10
557.1127632634
 20
257.6258068337
 30
0.0
 10
557.1153403483
 20
257.6461530444
 30
0.0
  0
SPLINE
  5
6DE
100
AcDbEntity
  8
0
100
AcDbSpline
 62
7
  6
CONTINUOUS
 70
0
 71
3
 72
10
 73
6
 74
0
 42
0.0000001
 43
0.0000001
 44
0.0000000001
 40
0.0
 40
0.0
 40
0.0
 40
0.0
 40
0.694795434
 40
0.872380215
 40
1.0
 40
1.0
 40
1.0
 40
1.0
 10
557.1134865407
 20
260.9687058937
 30
0.0
 10
557.107596611
 20
261.0823859285
 30
0.0
 10
557.1053077481
 20
261.1540373985
 30
0.0
 10
557.0962015396
 20
261.4411611197
 30
0.0
 10
557.1127537648
 20
261.3566109214
 30
0.0
 10
557.1153675556
 20
261.3358662221
 30
0.0
  0
SPLINE
  5
6DF
100
AcDbEntity
  8
0
100
AcDbSpline
 62
7
  6
CONTINUOUS
 70
0
 71
3
 72
9
 73
5
 74
0
 42
0.0000001
 43
0.0000001
 44
0.0000000001
 40
0.0
 40
0.0
 40
0.0
 40
0.0
 40
0.7390722967
 40
1.0
 40
1.0
 40
1.0
 40
1.0
 10
556.9192841776
 20
261.9600146258
 30
0.0
 10
556.8503615398
 20
261.9618530169
 30
0.0
 10
556.7915873795
 20
261.9293884377
 30
0.0
 10
556.6395136282
 20
261.9918934011
 30
0.0
 10
556.6395195787
 20
261.9675517752
 30
0.0
  0
SPLINE
  5
6E0
100
AcDbEntity
  8
0
100
AcDbSpline
 62
7
  6
CONTINUOUS
 70
0
 71
3
 72
9
 73
5
 74
0
 42
0.0000001
 43
0.0000001
 44
0.0000000001
 40
0.0
 40
0.0
 40
0.0
 40
0.0
 40
0.739001102
 40
1.0
 40
1.0
 40
1.0
 40
1.0
 10
556.9200427743
 20
265.0257258637
 30
0.0
 10
556.8509399031
 20
265.0238828881
 30
0.0
 10
556.7920030221
 20
265.0564329966
 30
0.0
 10
556.6395136104
 20
264.9937543706
 30
0.0
 10
556.6395195787
 20
265.0181686588
 30
0.0
  0
SPLINE
  5
6E1
100
AcDbEntity
  8
0
100
AcDbSpline
 62
7
  6
CONTINUOUS
 70
0
 71
3
 72
8
 73
4
 74
0
 42
0.0000001
 43
0.0000001
 44
0.0000000001
 40
0.0
 40
0.0
 40
0.0
 40
0.0
 40
1.0
 40
1.0
 40
1.0
 40
1.0
 10
567.4220392413
 20
268.4781975675
 30
0.0
 10
567.4213566434
 20
268.7241215458
 30
0.0
 10
567.3183159531
 20
268.9847894324
 30
0.0
 10
567.149808512
 20
269.1639103731
 30
0.0
  0
SPLINE
  5
6E2
100
AcDbEntity
  8
0
100
AcDbSpline
 62
7
  6
CONTINUOUS
 70
0
 71
3
 72
8
 73
4
 74
0
 42
0.0000001
 43
0.0000001
 44
0.0000000001
 40
0.0
 40
0.0
 40
0.0
 40
0.0
 40
1.0
 40
1.0
 40
1.0
 40
1.0
 10
567.149808512
 20
269.1639103731
 30
0.0
 10
566.9801668111
 20
269.3442370151
 30
0.0
 10
566.7235927618
 20
269.4637119092
 30
0.0
 10
566.4763809278
 20
269.4772142661
 30
0.0
  0
SPLINE
  5
6E3
100
AcDbEntity
  8
0
100
AcDbSpline
 62
7
  6
CONTINUOUS
 70
0
 71
3
 72
10
 73
6
 74
0
 42
0.0000001
 43
0.0000001
 44
0.0000000001
 40
0.0
 40
0.0
 40
0.0
 40
0.0
 40
0.6963385525
 40
0.8751469875
 40
1.0
 40
1.0
 40
1.0
 40
1.0
 10
557.1134866435
 20
266.0170145457
 30
0.0
 10
557.1075683242
 20
265.9027848773
 30
0.0
 10
557.1056011938
 20
265.8313528512
 30
0.0
 10
557.096000795
 20
265.5421841624
 30
0.0
 10
557.1127632634
 20
265.6258068337
 30
0.0
 10
557.1153403483
 20
265.6461530444
 30
0.0
  0
SPLINE
  5
6E4
100
AcDbEntity
  8
0
100
AcDbSpline
 62
7
  6
CONTINUOUS
 70
0
 71
3
 72
10
 73
6
 74
0
 42
0.0000001
 43
0.0000001
 44
0.0000000001
 40
0.0
 40
0.0
 40
0.0
 40
0.0
 40
0.694795434
 40
0.872380215
 40
1.0
 40
1.0
 40
1.0
 40
1.0
 10
557.1134865407
 20
268.9687058937
 30
0.0
 10
557.107596611
 20
269.0823859285
 30
0.0
 10
557.1053077481
 20
269.1540373985
 30
0.0
 10
557.0962015396
 20
269.4411611197
 30
0.0
 10
557.1127537648
 20
269.3566109214
 30
0.0
 10
557.1153675556
 20
269.3358662221
 30
0.0
  0
SPLINE
  5
6E5
100
AcDbEntity
  8
0
100
AcDbSpline
 62
7
  6
CONTINUOUS
 70
0
 71
3
 72
9
 73
5
 74
0
 42
0.0000001
 43
0.0000001
 44
0.0000000001
 40
0.0
 40
0.0
 40
0.0
 40
0.0
 40
0.7390721504
 40
1.0
 40
1.0
 40
1.0
 40
1.0
 10
556.9192841851
 20
269.9600146255
 30
0.0
 10
556.8503615589
 20
269.961853009
 30
0.0
 10
556.7915831606
 20
269.9293883744
 30
0.0
 10
556.6395166136
 20
269.9918934147
 30
0.0
 10
556.6395195787
 20
269.967551774
 30
0.0
  0
SPLINE
  5
6E6
100
AcDbEntity
  8
0
100
AcDbSpline
 62
7
  6
CONTINUOUS
 70
0
 71
3
 72
9
 73
5
 74
0
 42
0.0000001
 43
0.0000001
 44
0.0000000001
 40
0.0
 40
0.0
 40
0.0
 40
0.0
 40
0.7389932997
 40
1.0
 40
1.0
 40
1.0
 40
1.0
 10
556.9201266246
 20
273.0257212915
 30
0.0
 10
556.8510044811
 20
273.0239051685
 30
0.0
 10
556.792045247
 20
273.056516549
 30
0.0
 10
556.6395163048
 20
272.9939515022
 30
0.0
 10
556.6395195787
 20
273.018373332
 30
0.0
  0
SPLINE
  5
6E7
100
AcDbEntity
  8
0
100
AcDbSpline
 62
7
  6
CONTINUOUS
 70
0
 71
3
 72
10
 73
6
 74
0
 42
0.0000001
 43
0.0000001
 44
0.0000000001
 40
0.0
 40
0.0
 40
0.0
 40
0.0
 40
0.6968686086
 40
0.8758299064
 40
1.0
 40
1.0
 40
1.0
 40
1.0
 10
557.1134824113
 20
276.9687061101
 30
0.0
 10
557.1076980258
 20
277.0829935831
 30
0.0
 10
557.1058051498
 20
277.1540776258
 30
0.0
 10
557.0966915052
 20
277.4438372265
 30
0.0
 10
557.1117215253
 20
277.3601277495
 30
0.0
 10
557.1140220869
 20
277.3398678048
 30
0.0
  0
SPLINE
  5
6E8
100
AcDbEntity
  8
0
100
AcDbSpline
 62
7
  6
CONTINUOUS
 70
0
 71
3
 72
9
 73
5
 74
0
 42
0.0000001
 43
0.0000001
 44
0.0000000001
 40
0.0
 40
0.0
 40
0.0
 40
0.0
 40
0.738794275
 40
1.0
 40
1.0
 40
1.0
 40
1.0
 10
556.9222534094
 20
277.9599909862
 30
0.0
 10
556.8526262462
 20
277.9618173673
 30
0.0
 10
556.793210836
 20
277.9289664297
 30
0.0
 10
556.6395162685
 20
277.9919895277
 30
0.0
 10
556.6395195787
 20
277.9673639047
 30
0.0
  0
SPLINE
  5
6E9
100
AcDbEntity
  8
0
100
AcDbSpline
 62
7
  6
CONTINUOUS
 70
0
 71
3
 72
8
 73
4
 74
0
 42
0.0000001
 43
0.0000001
 44
0.0000000001
 40
0.0
 40
0.0
 40
0.0
 40
0.0
 40
1.0
 40
1.0
 40
1.0
 40
1.0
 10
567.422244148
 20
276.4794352903
 30
0.0
 10
567.4226314889
 20
276.7338120384
 30
0.0
 10
567.3096503731
 20
277.0041045482
 30
0.0
 10
567.1303329421
 20
277.1845288784
 30
0.0
  0
SPLINE
  5
6EA
100
AcDbEntity
  8
0
100
AcDbSpline
 62
7
  6
CONTINUOUS
 70
0
 71
3
 72
8
 73
4
 74
0
 42
0.0000001
 43
0.0000001
 44
0.0000000001
 40
0.0
 40
0.0
 40
0.0
 40
0.0
 40
1.0
 40
1.0
 40
1.0
 40
1.0
 10
567.1303329421
 20
277.1845288784
 30
0.0
 10
566.9617813475
 20
277.3541209163
 30
0.0
 10
566.7142423181
 20
277.4647418913
 30
0.0
 10
566.4754651324
 20
277.4772540842
 30
0.0
  0
SPLINE
  5
6EB
100
AcDbEntity
  8
0
100
AcDbSpline
 62
7
  6
CONTINUOUS
 70
0
 71
3
 72
8
 73
4
 74
0
 42
0.0000001
 43
0.0000001
 44
0.0000000001
 40
0.0
 40
0.0
 40
0.0
 40
0.0
 40
1.0
 40
1.0
 40
1.0
 40
1.0
 10
566.475774701
 20
273.5084103708
 30
0.0
 10
566.7996209573
 20
273.5250627606
 30
0.0
 10
567.1428395763
 20
273.7429560169
 30
0.0
 10
567.2986192761
 20
274.0273613349
 30
0.0
  0
SPLINE
  5
6EC
100
AcDbEntity
  8
0
100
AcDbSpline
 62
7
  6
CONTINUOUS
 70
0
 71
3
 72
8
 73
4
 74
0
 42
0.0000001
 43
0.0000001
 44
0.0000000001
 40
0.0
 40
0.0
 40
0.0
 40
0.0
 40
1.0
 40
1.0
 40
1.0
 40
1.0
 10
567.2986192761
 20
274.0273613349
 30
0.0
 10
567.3777108164
 20
274.171757907
 30
0.0
 10
567.4220879882
 20
274.3409362114
 30
0.0
 10
567.4221690388
 20
274.50557471
 30
0.0
  0
SPLINE
  5
6ED
100
AcDbEntity
  8
0
100
AcDbSpline
 62
7
  6
CONTINUOUS
 70
0
 71
3
 72
10
 73
6
 74
0
 42
0.0000001
 43
0.0000001
 44
0.0000000001
 40
0.0
 40
0.0
 40
0.0
 40
0.0
 40
0.6968658239
 40
0.8758254978
 40
1.0
 40
1.0
 40
1.0
 40
1.0
 10
557.1135289835
 20
274.0170167646
 30
0.0
 10
557.1077417007
 20
273.9027277772
 30
0.0
 10
557.1058389527
 20
273.8316424346
 30
0.0
 10
557.0966597703
 20
273.5418812595
 30
0.0
 10
557.1117074655
 20
273.6255910043
 30
0.0
 10
557.1140129124
 20
273.6458515019
 30
0.0
  0
SPLINE
  5
6EE
100
AcDbEntity
  8
0
100
AcDbSpline
 62
7
  6
CONTINUOUS
 70
0
 71
3
 72
9
 73
5
 74
0
 42
0.0000001
 43
0.0000001
 44
0.0000000001
 40
0.0
 40
0.0
 40
0.0
 40
0.0
 40
0.7390009558
 40
1.0
 40
1.0
 40
1.0
 40
1.0
 10
556.9200427865
 20
281.025725864
 30
0.0
 10
556.8509399258
 20
281.0238828958
 30
0.0
 10
556.7919988066
 20
281.0564330603
 30
0.0
 10
556.6395165963
 20
280.9937543565
 30
0.0
 10
556.6395195787
 20
281.01816866
 30
0.0
  0
SPLINE
  5
6EF
100
AcDbEntity
  8
0
100
AcDbSpline
 62
7
  6
CONTINUOUS
 70
0
 71
3
 72
8
 73
4
 74
0
 42
0.0000001
 43
0.0000001
 44
0.0000000001
 40
0.0
 40
0.0
 40
0.0
 40
0.0
 40
1.0
 40
1.0
 40
1.0
 40
1.0
 10
567.4220392413
 20
284.4781975675
 30
0.0
 10
567.4213566434
 20
284.7241215457
 30
0.0
 10
567.3183159532
 20
284.9847894323
 30
0.0
 10
567.1498085122
 20
285.1639103729
 30
0.0
  0
SPLINE
  5
6F0
100
AcDbEntity
  8
0
100
AcDbSpline
 62
7
  6
CONTINUOUS
 70
0
 71
3
 72
8
 73
4
 74
0
 42
0.0000001
 43
0.0000001
 44
0.0000000001
 40
0.0
 40
0.0
 40
0.0
 40
0.0
 40
1.0
 40
1.0
 40
1.0
 40
1.0
 10
567.1498085122
 20
285.1639103729
 30
0.0
 10
566.9801668113
 20
285.344237015
 30
0.0
 10
566.7235927619
 20
285.4637119092
 30
0.0
 10
566.4763809278
 20
285.477214266
 30
0.0
  0
SPLINE
  5
6F1
100
AcDbEntity
  8
0
100
AcDbSpline
 62
7
  6
CONTINUOUS
 70
0
 71
3
 72
10
 73
6
 74
0
 42
0.0000001
 43
0.0000001
 44
0.0000000001
 40
0.0
 40
0.0
 40
0.0
 40
0.0
 40
0.6963385525
 40
0.8751469875
 40
1.0
 40
1.0
 40
1.0
 40
1.0
 10
557.1134866435
 20
282.0170145457
 30
0.0
 10
557.1075683242
 20
281.9027848773
 30
0.0
 10
557.1056011938
 20
281.8313528512
 30
0.0
 10
557.096000795
 20
281.5421841624
 30
0.0
 10
557.1127632634
 20
281.6258068337
 30
0.0
 10
557.1153403483
 20
281.6461530444
 30
0.0
  0
SPLINE
  5
6F2
100
AcDbEntity
  8
0
100
AcDbSpline
 62
7
  6
CONTINUOUS
 70
0
 71
3
 72
10
 73
6
 74
0
 42
0.0000001
 43
0.0000001
 44
0.0000000001
 40
0.0
 40
0.0
 40
0.0
 40
0.0
 40
0.694795434
 40
0.872380215
 40
1.0
 40
1.0
 40
1.0
 40
1.0
 10
557.1134865407
 20
284.9687058937
 30
0.0
 10
557.107596611
 20
285.0823859285
 30
0.0
 10
557.1053077481
 20
285.1540373985
 30
0.0
 10
557.0962015396
 20
285.4411611197
 30
0.0
 10
557.1127537648
 20
285.3566109214
 30
0.0
 10
557.1153675556
 20
285.3358662221
 30
0.0
  0
SPLINE
  5
6F3
100
AcDbEntity
  8
0
100
AcDbSpline
 62
7
  6
CONTINUOUS
 70
0
 71
3
 72
9
 73
5
 74
0
 42
0.0000001
 43
0.0000001
 44
0.0000000001
 40
0.0
 40
0.0
 40
0.0
 40
0.0
 40
0.7390722967
 40
1.0
 40
1.0
 40
1.0
 40
1.0
 10
556.9192841776
 20
285.9600146258
 30
0.0
 10
556.8503615397
 20
285.9618530169
 30
0.0
 10
556.7915873795
 20
285.9293884377
 30
0.0
 10
556.6395136282
 20
285.9918934011
 30
0.0
 10
556.6395195787
 20
285.9675517752
 30
0.0
  0
SPLINE
  5
6F4
100
AcDbEntity
  8
0
100
AcDbSpline
 62
7
  6
CONTINUOUS
 70
0
 71
3
 72
9
 73
5
 74
0
 42
0.0000001
 43
0.0000001
 44
0.0000000001
 40
0.0
 40
0.0
 40
0.0
 40
0.0
 40
0.739001102
 40
1.0
 40
1.0
 40
1.0
 40
1.0
 10
556.9200427743
 20
289.0257258637
 30
0.0
 10
556.8509399032
 20
289.0238828881
 30
0.0
 10
556.7920030221
 20
289.0564329966
 30
0.0
 10
556.6395136104
 20
288.9937543706
 30
0.0
 10
556.6395195787
 20
289.0181686588
 30
0.0
  0
SPLINE
  5
6F5
100
AcDbEntity
  8
0
100
AcDbSpline
 62
7
  6
CONTINUOUS
 70
0
 71
3
 72
8
 73
4
 74
0
 42
0.0000001
 43
0.0000001
 44
0.0000000001
 40
0.0
 40
0.0
 40
0.0
 40
0.0
 40
1.0
 40
1.0
 40
1.0
 40
1.0
 10
567.4220392413
 20
292.4781975675
 30
0.0
 10
567.4213566434
 20
292.7241215457
 30
0.0
 10
567.3183159532
 20
292.9847894323
 30
0.0
 10
567.1498085122
 20
293.1639103729
 30
0.0
  0
SPLINE
  5
6F6
100
AcDbEntity
  8
0
100
AcDbSpline
 62
7
  6
CONTINUOUS
 70
0
 71
3
 72
8
 73
4
 74
0
 42
0.0000001
 43
0.0000001
 44
0.0000000001
 40
0.0
 40
0.0
 40
0.0
 40
0.0
 40
1.0
 40
1.0
 40
1.0
 40
1.0
 10
567.1498085122
 20
293.1639103729
 30
0.0
 10
566.9801668113
 20
293.344237015
 30
0.0
 10
566.7235927619
 20
293.4637119092
 30
0.0
 10
566.4763809278
 20
293.477214266
 30
0.0
  0
SPLINE
  5
6F7
100
AcDbEntity
  8
0
100
AcDbSpline
 62
7
  6
CONTINUOUS
 70
0
 71
3
 72
10
 73
6
 74
0
 42
0.0000001
 43
0.0000001
 44
0.0000000001
 40
0.0
 40
0.0
 40
0.0
 40
0.0
 40
0.6963385525
 40
0.8751469875
 40
1.0
 40
1.0
 40
1.0
 40
1.0
 10
557.1134866435
 20
290.0170145457
 30
0.0
 10
557.1075683242
 20
289.9027848773
 30
0.0
 10
557.1056011938
 20
289.8313528512
 30
0.0
 10
557.096000795
 20
289.5421841624
 30
0.0
 10
557.1127632635
 20
289.6258068337
 30
0.0
 10
557.1153403483
 20
289.6461530444
 30
0.0
  0
SPLINE
  5
6F8
100
AcDbEntity
  8
0
100
AcDbSpline
 62
7
  6
CONTINUOUS
 70
0
 71
3
 72
10
 73
6
 74
0
 42
0.0000001
 43
0.0000001
 44
0.0000000001
 40
0.0
 40
0.0
 40
0.0
 40
0.0
 40
0.694795434
 40
0.872380215
 40
1.0
 40
1.0
 40
1.0
 40
1.0
 10
557.1134865407
 20
292.9687058937
 30
0.0
 10
557.107596611
 20
293.0823859285
 30
0.0
 10
557.1053077481
 20
293.1540373985
 30
0.0
 10
557.0962015396
 20
293.4411611197
 30
0.0
 10
557.1127537648
 20
293.3566109214
 30
0.0
 10
557.1153675556
 20
293.3358662221
 30
0.0
  0
SPLINE
  5
6F9
100
AcDbEntity
  8
0
100
AcDbSpline
 62
7
  6
CONTINUOUS
 70
0
 71
3
 72
9
 73
5
 74
0
 42
0.0000001
 43
0.0000001
 44
0.0000000001
 40
0.0
 40
0.0
 40
0.0
 40
0.0
 40
0.2610247669
 40
1.0
 40
1.0
 40
1.0
 40
1.0
 10
556.6395195787
 20
293.967496695
 30
0.0
 10
556.6395189793
 20
293.9919374963
 30
0.0
 10
556.7921482862
 20
293.9292452073
 30
0.0
 10
556.8511522656
 20
293.9618270444
 30
0.0
 10
556.920321045
 20
293.9599877228
 30
0.0
  0
SPLINE
  5
6FA
100
AcDbEntity
  8
0
100
AcDbSpline
 62
7
  6
CONTINUOUS
 70
0
 71
3
 72
9
 73
5
 74
0
 42
0.0000001
 43
0.0000001
 44
0.0000000001
 40
0.0
 40
0.0
 40
0.0
 40
0.0
 40
0.2937322648
 40
1.0
 40
1.0
 40
1.0
 40
1.0
 10
556.6395195787
 20
304.8287113538
 30
0.0
 10
556.6395071488
 20
304.8636937937
 30
0.0
 10
556.7788723154
 20
304.9247582333
 30
0.0
 10
556.8407237917
 20
305.0133816838
 30
0.0
 10
556.9044885192
 20
305.0682379497
 30
0.0
  0
SPLINE
  5
6FB
100
AcDbEntity
  8
0
100
AcDbSpline
 62
7
  6
CONTINUOUS
 70
0
 71
3
 72
8
 73
4
 74
0
 42
0.0000001
 43
0.0000001
 44
0.0000000001
 40
0.0
 40
0.0
 40
0.0
 40
0.0
 40
1.0
 40
1.0
 40
1.0
 40
1.0
 10
556.9044885192
 20
305.0682379497
 30
0.0
 10
557.1356583805
 20
305.2671114629
 30
0.0
 10
557.3703069285
 20
305.4619133305
 30
0.0
 10
557.604620082
 20
305.6570735855
 30
0.0
  0
SPLINE
  5
6FC
100
AcDbEntity
  8
0
100
AcDbSpline
 62
7
  6
CONTINUOUS
 70
0
 71
3
 72
8
 73
4
 74
0
 42
0.0000001
 43
0.0000001
 44
0.0000000001
 40
0.0
 40
0.0
 40
0.0
 40
0.0
 40
1.0
 40
1.0
 40
1.0
 40
1.0
 10
549.1395241357
 20
136.5577565276
 30
0.0
 10
549.1332790883
 20
136.3206199587
 30
0.0
 10
549.1644669652
 20
136.0722397053
 30
0.0
 10
549.2645548629
 20
135.8571695641
 30
0.0
  0
SPLINE
  5
6FD
100
AcDbEntity
  8
0
100
AcDbSpline
 62
7
  6
CONTINUOUS
 70
0
 71
3
 72
9
 73
5
 74
0
 42
0.0000001
 43
0.0000001
 44
0.0000000001
 40
0.0
 40
0.0
 40
0.0
 40
0.0
 40
0.569351789
 40
1.0
 40
1.0
 40
1.0
 40
1.0
 10
549.2645548629
 20
135.8571695641
 30
0.0
 10
549.3021136748
 20
135.7764627136
 30
0.0
 10
549.3864343172
 20
135.6403770716
 30
0.0
 10
549.5372528831
 20
135.5607177294
 30
0.0
 10
549.6045438583
 20
135.5583685215
 30
0.0
  0
SPLINE
  5
6FE
100
AcDbEntity
  8
0
100
AcDbSpline
 62
7
  6
CONTINUOUS
 70
0
 71
3
 72
8
 73
4
 74
0
 42
0.0000001
 43
0.0000001
 44
0.0000000001
 40
0.0
 40
0.0
 40
0.0
 40
0.0
 40
1.0
 40
1.0
 40
1.0
 40
1.0
 10
543.6093018714
 20
205.9928481883
 30
0.0
 10
543.7815184001
 20
205.9254296609
 30
0.0
 10
543.9424374501
 20
205.8317454494
 30
0.0
 10
544.104620082
 20
205.742860217
 30
0.0
  0
SPLINE
  5
6FF
100
AcDbEntity
  8
0
100
AcDbSpline
 62
7
  6
CONTINUOUS
 70
0
 71
3
 72
8
 73
4
 74
0
 42
0.0000001
 43
0.0000001
 44
0.0000000001
 40
0.0
 40
0.0
 40
0.0
 40
0.0
 40
1.0
 40
1.0
 40
1.0
 40
1.0
 10
544.104620082
 20
205.242860217
 30
0.0
 10
543.9424374501
 20
205.1539749846
 30
0.0
 10
543.7815184001
 20
205.0602907731
 30
0.0
 10
543.6093018714
 20
204.9928722456
 30
0.0
  0
SPLINE
  5
700
100
AcDbEntity
  8
0
100
AcDbSpline
 62
7
  6
CONTINUOUS
 70
0
 71
3
 72
9
 73
5
 74
0
 42
0.0000001
 43
0.0000001
 44
0.0000000001
 40
0.0
 40
0.0
 40
0.0
 40
0.0
 40
0.2673562807
 40
1.0
 40
1.0
 40
1.0
 40
1.0
 10
543.6395195787
 20
199.809587932
 30
0.0
 10
543.6025708238
 20
199.8309203055
 30
0.0
 10
543.7908070187
 20
200.0209993298
 30
0.0
 10
543.7994995293
 20
200.1338699574
 30
0.0
 10
543.8560937719
 20
200.2361748738
 30
0.0
  0
SPLINE
  5
701
100
AcDbEntity
  8
0
100
AcDbSpline
 62
7
  6
CONTINUOUS
 70
0
 71
3
 72
9
 73
5
 74
0
 42
0.0000001
 43
0.0000001
 44
0.0000000001
 40
0.0
 40
0.0
 40
0.0
 40
0.0
 40
0.6947738997
 40
1.0
 40
1.0
 40
1.0
 40
1.0
 10
549.1395195787
 20
189.892860217
 30
0.0
 10
549.1395195787
 20
190.0083321281
 30
0.0
 10
549.0611249698
 20
190.2046844113
 30
0.0
 10
549.311657526
 20
190.3067739109
 30
0.0
 10
549.3388940964
 20
190.2639769526
 30
0.0
  0
SPLINE
  5
702
100
AcDbEntity
  8
0
100
AcDbSpline
 62
7
  6
CONTINUOUS
 70
0
 71
3
 72
9
 73
5
 74
0
 42
0.0000001
 43
0.0000001
 44
0.0000000001
 40
0.0
 40
0.0
 40
0.0
 40
0.0
 40
0.543323075
 40
1.0
 40
1.0
 40
1.0
 40
1.0
 10
543.2395195787
 20
260.992860217
 30
0.0
 10
543.2395195787
 20
261.111706472
 30
0.0
 10
543.2495529293
 20
261.3759367085
 30
0.0
 10
543.5585951623
 20
261.4250524698
 30
0.0
 10
543.6370671181
 20
261.3632396374
 30
0.0
  0
SPLINE
  5
703
100
AcDbEntity
  8
0
100
AcDbSpline
 62
7
  6
CONTINUOUS
 70
0
 71
3
 72
9
 73
5
 74
0
 42
0.0000001
 43
0.0000001
 44
0.0000000001
 40
0.0
 40
0.0
 40
0.0
 40
0.0
 40
0.5427870407
 40
1.0
 40
1.0
 40
1.0
 40
1.0
 10
543.7389289541
 20
257.492860217
 30
0.0
 10
543.6202013273
 20
257.492860217
 30
0.0
 10
543.3560284974
 20
257.5033194885
 30
0.0
 10
543.3071926656
 20
257.8122437227
 30
0.0
 10
543.368987044
 20
257.8908779145
 30
0.0
  0
SPLINE
  5
704
100
AcDbEntity
  8
0
100
AcDbSpline
 62
7
  6
CONTINUOUS
 70
0
 71
3
 72
9
 73
5
 74
0
 42
0.0000001
 43
0.0000001
 44
0.0000000001
 40
0.0
 40
0.0
 40
0.0
 40
0.0
 40
0.543323075
 40
1.0
 40
1.0
 40
1.0
 40
1.0
 10
543.2395195787
 20
252.992860217
 30
0.0
 10
543.2395195787
 20
253.111706472
 30
0.0
 10
543.2495529293
 20
253.3759367085
 30
0.0
 10
543.5585951623
 20
253.4250524698
 30
0.0
 10
543.6370671181
 20
253.3632396374
 30
0.0
  0
SPLINE
  5
705
100
AcDbEntity
  8
0
100
AcDbSpline
 62
7
  6
CONTINUOUS
 70
0
 71
3
 72
9
 73
5
 74
0
 42
0.0000001
 43
0.0000001
 44
0.0000000001
 40
0.0
 40
0.0
 40
0.0
 40
0.0
 40
0.5427870407
 40
1.0
 40
1.0
 40
1.0
 40
1.0
 10
543.7389289541
 20
249.492860217
 30
0.0
 10
543.6202013273
 20
249.492860217
 30
0.0
 10
543.3560284974
 20
249.5033194885
 30
0.0
 10
543.3071926656
 20
249.8122437227
 30
0.0
 10
543.368987044
 20
249.8908779145
 30
0.0
  0
SPLINE
  5
706
100
AcDbEntity
  8
0
100
AcDbSpline
 62
7
  6
CONTINUOUS
 70
0
 71
3
 72
9
 73
5
 74
0
 42
0.0000001
 43
0.0000001
 44
0.0000000001
 40
0.0
 40
0.0
 40
0.0
 40
0.0
 40
0.543323075
 40
1.0
 40
1.0
 40
1.0
 40
1.0
 10
543.2395195787
 20
244.992860217
 30
0.0
 10
543.2395195787
 20
245.111706472
 30
0.0
 10
543.2495529293
 20
245.3759367085
 30
0.0
 10
543.5585951623
 20
245.4250524698
 30
0.0
 10
543.6370671181
 20
245.3632396374
 30
0.0
  0
SPLINE
  5
707
100
AcDbEntity
  8
0
100
AcDbSpline
 62
7
  6
CONTINUOUS
 70
0
 71
3
 72
9
 73
5
 74
0
 42
0.0000001
 43
0.0000001
 44
0.0000000001
 40
0.0
 40
0.0
 40
0.0
 40
0.0
 40
0.5427870407
 40
1.0
 40
1.0
 40
1.0
 40
1.0
 10
543.7389289541
 20
241.492860217
 30
0.0
 10
543.6202013273
 20
241.492860217
 30
0.0
 10
543.3560284974
 20
241.5033194885
 30
0.0
 10
543.3071926656
 20
241.8122437227
 30
0.0
 10
543.368987044
 20
241.8908779145
 30
0.0
  0
SPLINE
  5
708
100
AcDbEntity
  8
0
100
AcDbSpline
 62
7
  6
CONTINUOUS
 70
0
 71
3
 72
9
 73
5
 74
0
 42
0.0000001
 43
0.0000001
 44
0.0000000001
 40
0.0
 40
0.0
 40
0.0
 40
0.0
 40
0.543323075
 40
1.0
 40
1.0
 40
1.0
 40
1.0
 10
543.2395195787
 20
236.992860217
 30
0.0
 10
543.2395195787
 20
237.111706472
 30
0.0
 10
543.2495529293
 20
237.3759367085
 30
0.0
 10
543.5585951623
 20
237.4250524698
 30
0.0
 10
543.6370671181
 20
237.3632396374
 30
0.0
  0
SPLINE
  5
709
100
AcDbEntity
  8
0
100
AcDbSpline
 62
7
  6
CONTINUOUS
 70
0
 71
3
 72
9
 73
5
 74
0
 42
0.0000001
 43
0.0000001
 44
0.0000000001
 40
0.0
 40
0.0
 40
0.0
 40
0.0
 40
0.5427870407
 40
1.0
 40
1.0
 40
1.0
 40
1.0
 10
543.7389289541
 20
233.492860217
 30
0.0
 10
543.6202013273
 20
233.492860217
 30
0.0
 10
543.3560284974
 20
233.5033194885
 30
0.0
 10
543.3071926656
 20
233.8122437227
 30
0.0
 10
543.368987044
 20
233.8908779145
 30
0.0
  0
SPLINE
  5
70A
100
AcDbEntity
  8
0
100
AcDbSpline
 62
7
  6
CONTINUOUS
 70
0
 71
3
 72
8
 73
4
 74
0
 42
0.0000001
 43
0.0000001
 44
0.0000000001
 40
0.0
 40
0.0
 40
0.0
 40
0.0
 40
1.0
 40
1.0
 40
1.0
 40
1.0
 10
568.8994840886
 20
393.6906410624
 30
0.0
 10
568.990392237
 20
393.8880798347
 30
0.0
 10
569.0395195694
 20
394.1101518508
 30
0.0
 10
569.0395195787
 20
394.3275141297
 30
0.0
  0
SPLINE
  5
70B
100
AcDbEntity
  8
0
100
AcDbSpline
 62
7
  6
CONTINUOUS
 70
0
 71
3
 72
9
 73
5
 74
0
 42
0.0000001
 43
0.0000001
 44
0.0000000001
 40
0.0
 40
0.0
 40
0.0
 40
0.0
 40
0.543323075
 40
1.0
 40
1.0
 40
1.0
 40
1.0
 10
543.2395195787
 20
292.992860217
 30
0.0
 10
543.2395195787
 20
293.111706472
 30
0.0
 10
543.2495529293
 20
293.3759367085
 30
0.0
 10
543.5585951623
 20
293.4250524698
 30
0.0
 10
543.6370671181
 20
293.3632396374
 30
0.0
  0
SPLINE
  5
70C
100
AcDbEntity
  8
0
100
AcDbSpline
 62
7
  6
CONTINUOUS
 70
0
 71
3
 72
9
 73
5
 74
0
 42
0.0000001
 43
0.0000001
 44
0.0000000001
 40
0.0
 40
0.0
 40
0.0
 40
0.0
 40
0.5427870407
 40
1.0
 40
1.0
 40
1.0
 40
1.0
 10
543.7389289541
 20
289.492860217
 30
0.0
 10
543.6202013273
 20
289.492860217
 30
0.0
 10
543.3560284974
 20
289.5033194885
 30
0.0
 10
543.3071926656
 20
289.8122437227
 30
0.0
 10
543.368987044
 20
289.8908779145
 30
0.0
  0
SPLINE
  5
70D
100
AcDbEntity
  8
0
100
AcDbSpline
 62
7
  6
CONTINUOUS
 70
0
 71
3
 72
9
 73
5
 74
0
 42
0.0000001
 43
0.0000001
 44
0.0000000001
 40
0.0
 40
0.0
 40
0.0
 40
0.0
 40
0.543323075
 40
1.0
 40
1.0
 40
1.0
 40
1.0
 10
543.2395195787
 20
284.992860217
 30
0.0
 10
543.2395195787
 20
285.111706472
 30
0.0
 10
543.2495529293
 20
285.3759367085
 30
0.0
 10
543.5585951623
 20
285.4250524698
 30
0.0
 10
543.6370671181
 20
285.3632396374
 30
0.0
  0
SPLINE
  5
70E
100
AcDbEntity
  8
0
100
AcDbSpline
 62
7
  6
CONTINUOUS
 70
0
 71
3
 72
9
 73
5
 74
0
 42
0.0000001
 43
0.0000001
 44
0.0000000001
 40
0.0
 40
0.0
 40
0.0
 40
0.0
 40
0.5427870407
 40
1.0
 40
1.0
 40
1.0
 40
1.0
 10
543.7389289541
 20
281.492860217
 30
0.0
 10
543.6202013273
 20
281.492860217
 30
0.0
 10
543.3560284973
 20
281.5033194885
 30
0.0
 10
543.3071926656
 20
281.8122437227
 30
0.0
 10
543.368987044
 20
281.8908779145
 30
0.0
  0
SPLINE
  5
70F
100
AcDbEntity
  8
0
100
AcDbSpline
 62
7
  6
CONTINUOUS
 70
0
 71
3
 72
9
 73
5
 74
0
 42
0.0000001
 43
0.0000001
 44
0.0000000001
 40
0.0
 40
0.0
 40
0.0
 40
0.0
 40
0.543323075
 40
1.0
 40
1.0
 40
1.0
 40
1.0
 10
543.2395195787
 20
276.992860217
 30
0.0
 10
543.2395195787
 20
277.111706472
 30
0.0
 10
543.2495529293
 20
277.3759367085
 30
0.0
 10
543.5585951623
 20
277.4250524698
 30
0.0
 10
543.6370671181
 20
277.3632396374
 30
0.0
  0
SPLINE
  5
710
100
AcDbEntity
  8
0
100
AcDbSpline
 62
7
  6
CONTINUOUS
 70
0
 71
3
 72
9
 73
5
 74
0
 42
0.0000001
 43
0.0000001
 44
0.0000000001
 40
0.0
 40
0.0
 40
0.0
 40
0.0
 40
0.5427870407
 40
1.0
 40
1.0
 40
1.0
 40
1.0
 10
543.7389289541
 20
273.492860217
 30
0.0
 10
543.6202013273
 20
273.492860217
 30
0.0
 10
543.3560284973
 20
273.5033194885
 30
0.0
 10
543.3071926656
 20
273.8122437227
 30
0.0
 10
543.368987044
 20
273.8908779145
 30
0.0
  0
SPLINE
  5
711
100
AcDbEntity
  8
0
100
AcDbSpline
 62
7
  6
CONTINUOUS
 70
0
 71
3
 72
9
 73
5
 74
0
 42
0.0000001
 43
0.0000001
 44
0.0000000001
 40
0.0
 40
0.0
 40
0.0
 40
0.0
 40
0.543323075
 40
1.0
 40
1.0
 40
1.0
 40
1.0
 10
543.2395195787
 20
268.992860217
 30
0.0
 10
543.2395195787
 20
269.111706472
 30
0.0
 10
543.2495529293
 20
269.3759367085
 30
0.0
 10
543.5585951623
 20
269.4250524698
 30
0.0
 10
543.6370671181
 20
269.3632396374
 30
0.0
  0
SPLINE
  5
712
100
AcDbEntity
  8
0
100
AcDbSpline
 62
7
  6
CONTINUOUS
 70
0
 71
3
 72
9
 73
5
 74
0
 42
0.0000001
 43
0.0000001
 44
0.0000000001
 40
0.0
 40
0.0
 40
0.0
 40
0.0
 40
0.5427870407
 40
1.0
 40
1.0
 40
1.0
 40
1.0
 10
543.7389289541
 20
265.492860217
 30
0.0
 10
543.6202013273
 20
265.492860217
 30
0.0
 10
543.3560284973
 20
265.5033194885
 30
0.0
 10
543.3071926656
 20
265.8122437227
 30
0.0
 10
543.368987044
 20
265.8908779145
 30
0.0
  0
SPLINE
  5
713
100
AcDbEntity
  8
0
100
AcDbSpline
 62
7
  6
CONTINUOUS
 70
0
 71
3
 72
9
 73
5
 74
0
 42
0.0000001
 43
0.0000001
 44
0.0000000001
 40
0.0
 40
0.0
 40
0.0
 40
0.0
 40
0.543323075
 40
1.0
 40
1.0
 40
1.0
 40
1.0
 10
543.2395195787
 20
228.992860217
 30
0.0
 10
543.2395195787
 20
229.111706472
 30
0.0
 10
543.2495529293
 20
229.3759367085
 30
0.0
 10
543.5585951623
 20
229.4250524698
 30
0.0
 10
543.6370671181
 20
229.3632396374
 30
0.0
  0
SPLINE
  5
714
100
AcDbEntity
  8
0
100
AcDbSpline
 62
7
  6
CONTINUOUS
 70
0
 71
3
 72
9
 73
5
 74
0
 42
0.0000001
 43
0.0000001
 44
0.0000000001
 40
0.0
 40
0.0
 40
0.0
 40
0.0
 40
0.5427870407
 40
1.0
 40
1.0
 40
1.0
 40
1.0
 10
543.7389289541
 20
225.492860217
 30
0.0
 10
543.6202013273
 20
225.492860217
 30
0.0
 10
543.3560284974
 20
225.5033194885
 30
0.0
 10
543.3071926656
 20
225.8122437227
 30
0.0
 10
543.368987044
 20
225.8908779145
 30
0.0
  0
SPLINE
  5
715
100
AcDbEntity
  8
0
100
AcDbSpline
 62
7
  6
CONTINUOUS
 70
0
 71
3
 72
9
 73
5
 74
0
 42
0.0000001
 43
0.0000001
 44
0.0000000001
 40
0.0
 40
0.0
 40
0.0
 40
0.0
 40
0.543323075
 40
1.0
 40
1.0
 40
1.0
 40
1.0
 10
543.2395195787
 20
220.992860217
 30
0.0
 10
543.2395195787
 20
221.111706472
 30
0.0
 10
543.2495529293
 20
221.3759367085
 30
0.0
 10
543.5585951623
 20
221.4250524698
 30
0.0
 10
543.6370671181
 20
221.3632396374
 30
0.0
  0
SPLINE
  5
716
100
AcDbEntity
  8
0
100
AcDbSpline
 62
7
  6
CONTINUOUS
 70
0
 71
3
 72
9
 73
5
 74
0
 42
0.0000001
 43
0.0000001
 44
0.0000000001
 40
0.0
 40
0.0
 40
0.0
 40
0.0
 40
0.5427870407
 40
1.0
 40
1.0
 40
1.0
 40
1.0
 10
543.7389289541
 20
217.492860217
 30
0.0
 10
543.6202013273
 20
217.492860217
 30
0.0
 10
543.3560284974
 20
217.5033194885
 30
0.0
 10
543.3071926656
 20
217.8122437227
 30
0.0
 10
543.368987044
 20
217.8908779145
 30
0.0
  0
SPLINE
  5
717
100
AcDbEntity
  8
0
100
AcDbSpline
 62
7
  6
CONTINUOUS
 70
0
 71
3
 72
9
 73
5
 74
0
 42
0.0000001
 43
0.0000001
 44
0.0000000001
 40
0.0
 40
0.0
 40
0.0
 40
0.0
 40
0.261555699
 40
1.0
 40
1.0
 40
1.0
 40
1.0
 10
553.843974177
 20
161.1091536606
 30
0.0
 10
553.8183303519
 20
161.1087130456
 30
0.0
 10
553.8856103981
 20
160.9497859088
 30
0.0
 10
553.8709275482
 20
160.889315003
 30
0.0
 10
553.884251067
 20
160.818141004
 30
0.0
  0
SPLINE
  5
718
100
AcDbEntity
  8
0
100
AcDbSpline
 62
7
  6
CONTINUOUS
 70
0
 71
3
 72
9
 73
5
 74
0
 42
0.0000001
 43
0.0000001
 44
0.0000000001
 40
0.0
 40
0.0
 40
0.0
 40
0.0
 40
0.4681714542
 40
1.0
 40
1.0
 40
1.0
 40
1.0
 10
553.884251067
 20
160.818141004
 30
0.0
 10
553.8933817921
 20
160.7693648342
 30
0.0
 10
553.9136170041
 20
160.6653175478
 30
0.0
 10
553.9347672626
 20
160.5614540127
 30
0.0
 10
553.9462095291
 20
160.5062568078
 30
0.0
  0
SPLINE
  5
719
100
AcDbEntity
  8
0
100
AcDbSpline
 62
7
  6
CONTINUOUS
 70
0
 71
3
 72
9
 73
5
 74
0
 42
0.0000001
 43
0.0000001
 44
0.0000000001
 40
0.0
 40
0.0
 40
0.0
 40
0.0
 40
0.2614867109
 40
1.0
 40
1.0
 40
1.0
 40
1.0
 10
552.7829019707
 20
160.2340368096
 30
0.0
 10
552.7653401216
 20
160.2161956293
 30
0.0
 10
552.9292799354
 20
160.1611987184
 30
0.0
 10
552.9578521308
 20
160.1066262751
 30
0.0
 10
553.016428265
 20
160.0670285958
 30
0.0
  0
SPLINE
  5
71A
100
AcDbEntity
  8
0
100
AcDbSpline
 62
7
  6
CONTINUOUS
 70
0
 71
3
 72
8
 73
4
 74
0
 42
0.0000001
 43
0.0000001
 44
0.0000000001
 40
0.0
 40
0.0
 40
0.0
 40
0.0
 40
1.0
 40
1.0
 40
1.0
 40
1.0
 10
554.0309686754
 20
160.1128745067
 30
0.0
 10
553.8988676299
 20
160.3097603345
 30
0.0
 10
553.7677002512
 20
160.5073314782
 30
0.0
 10
553.6410963267
 20
160.7077963423
 30
0.0
  0
SPLINE
  5
71B
100
AcDbEntity
  8
0
100
AcDbSpline
 62
7
  6
CONTINUOUS
 70
0
 71
3
 72
9
 73
5
 74
0
 42
0.0000001
 43
0.0000001
 44
0.0000000001
 40
0.0
 40
0.0
 40
0.0
 40
0.0
 40
0.7314697767
 40
1.0
 40
1.0
 40
1.0
 40
1.0
 10
553.6410963267
 20
160.7077963423
 30
0.0
 10
553.6032181071
 20
160.767772778
 30
0.0
 10
553.5882288899
 20
160.8413642372
 30
0.0
 10
553.4776873942
 20
160.9410692407
 30
0.0
 10
553.4959468682
 20
160.9596365688
 30
0.0
  0
SPLINE
  5
71C
100
AcDbEntity
  8
0
100
AcDbSpline
 62
7
  6
CONTINUOUS
 70
0
 71
3
 72
9
 73
5
 74
0
 42
0.0000001
 43
0.0000001
 44
0.0000000001
 40
0.0
 40
0.0
 40
0.0
 40
0.0
 40
0.2615617257
 40
1.0
 40
1.0
 40
1.0
 40
1.0
 10
553.8440110042
 20
167.8765661305
 30
0.0
 10
553.8182593094
 20
167.8770162396
 30
0.0
 10
553.8860528238
 20
168.036582468
 30
0.0
 10
553.8713361664
 20
168.0972923494
 30
0.0
 10
553.8845626562
 20
168.1687922969
 30
0.0
  0
SPLINE
  5
71D
100
AcDbEntity
  8
0
100
AcDbSpline
 62
7
  6
CONTINUOUS
 70
0
 71
3
 72
8
 73
4
 74
0
 42
0.0000001
 43
0.0000001
 44
0.0000000001
 40
0.0
 40
0.0
 40
0.0
 40
0.0
 40
1.0
 40
1.0
 40
1.0
 40
1.0
 10
554.032273488
 20
168.8715181404
 30
0.0
 10
553.9006395483
 20
168.6750873207
 30
0.0
 10
553.7687061928
 20
168.4787977854
 30
0.0
 10
553.6418937857
 20
168.2792202957
 30
0.0
  0
SPLINE
  5
71E
100
AcDbEntity
  8
0
100
AcDbSpline
 62
7
  6
CONTINUOUS
 70
0
 71
3
 72
9
 73
5
 74
0
 42
0.0000001
 43
0.0000001
 44
0.0000000001
 40
0.0
 40
0.0
 40
0.0
 40
0.0
 40
0.7312541218
 40
1.0
 40
1.0
 40
1.0
 40
1.0
 10
553.6418937857
 20
168.2792202957
 30
0.0
 10
553.6036607471
 20
168.2190491023
 30
0.0
 10
553.5883554321
 20
168.1451599027
 30
0.0
 10
553.4775828067
 20
168.0447709683
 30
0.0
 10
553.4959469474
 20
168.0260837845
 30
0.0
  0
SPLINE
  5
71F
100
AcDbEntity
  8
0
100
AcDbSpline
 62
7
  6
CONTINUOUS
 70
0
 71
3
 72
8
 73
4
 74
0
 42
0.0000001
 43
0.0000001
 44
0.0000000001
 40
0.0
 40
0.0
 40
0.0
 40
0.0
 40
1.0
 40
1.0
 40
1.0
 40
1.0
 10
567.4229520141
 20
228.4785778072
 30
0.0
 10
567.4229662419
 20
228.7252170099
 30
0.0
 10
567.319018896
 20
228.9868971728
 30
0.0
 10
567.1496191608
 20
229.1661585077
 30
0.0
  0
SPLINE
  5
720
100
AcDbEntity
  8
0
100
AcDbSpline
 62
7
  6
CONTINUOUS
 70
0
 71
3
 72
8
 73
4
 74
0
 42
0.0000001
 43
0.0000001
 44
0.0000000001
 40
0.0
 40
0.0
 40
0.0
 40
0.0
 40
1.0
 40
1.0
 40
1.0
 40
1.0
 10
567.1496191608
 20
229.1661585077
 30
0.0
 10
566.9793346972
 20
229.3463560757
 30
0.0
 10
566.7220174531
 20
229.4653015366
 30
0.0
 10
566.474421725
 20
229.4781201739
 30
0.0
  0
SPLINE
  5
721
100
AcDbEntity
  8
0
100
AcDbSpline
 62
7
  6
CONTINUOUS
 70
0
 71
3
 72
8
 73
4
 74
0
 42
0.0000001
 43
0.0000001
 44
0.0000000001
 40
0.0
 40
0.0
 40
0.0
 40
0.0
 40
1.0
 40
1.0
 40
1.0
 40
1.0
 10
567.4220392413
 20
200.2685664503
 30
0.0
 10
567.4213566434
 20
200.5144904287
 30
0.0
 10
567.3183159531
 20
200.7751583154
 30
0.0
 10
567.1498085119
 20
200.954279256
 30
0.0
  0
SPLINE
  5
722
100
AcDbEntity
  8
0
100
AcDbSpline
 62
7
  6
CONTINUOUS
 70
0
 71
3
 72
8
 73
4
 74
0
 42
0.0000001
 43
0.0000001
 44
0.0000000001
 40
0.0
 40
0.0
 40
0.0
 40
0.0
 40
1.0
 40
1.0
 40
1.0
 40
1.0
 10
567.1498085119
 20
200.954279256
 30
0.0
 10
566.9801668111
 20
201.134605898
 30
0.0
 10
566.7235927617
 20
201.2540807921
 30
0.0
 10
566.4763809278
 20
201.2675831489
 30
0.0
  0
SPLINE
  5
723
100
AcDbEntity
  8
0
100
AcDbSpline
 62
7
  6
CONTINUOUS
 70
0
 71
3
 72
8
 73
4
 74
0
 42
0.0000001
 43
0.0000001
 44
0.0000000001
 40
0.0
 40
0.0
 40
0.0
 40
0.0
 40
1.0
 40
1.0
 40
1.0
 40
1.0
 10
567.4220392413
 20
208.2685664503
 30
0.0
 10
567.4213566434
 20
208.5144904287
 30
0.0
 10
567.3183159531
 20
208.7751583154
 30
0.0
 10
567.1498085119
 20
208.954279256
 30
0.0
  0
SPLINE
  5
724
100
AcDbEntity
  8
0
100
AcDbSpline
 62
7
  6
CONTINUOUS
 70
0
 71
3
 72
8
 73
4
 74
0
 42
0.0000001
 43
0.0000001
 44
0.0000000001
 40
0.0
 40
0.0
 40
0.0
 40
0.0
 40
1.0
 40
1.0
 40
1.0
 40
1.0
 10
567.1498085119
 20
208.954279256
 30
0.0
 10
566.980166811
 20
209.134605898
 30
0.0
 10
566.7235927617
 20
209.2540807921
 30
0.0
 10
566.4763809278
 20
209.2675831489
 30
0.0
  0
SPLINE
  5
725
100
AcDbEntity
  8
0
100
AcDbSpline
 62
7
  6
CONTINUOUS
 70
0
 71
3
 72
9
 73
5
 74
0
 42
0.0000001
 43
0.0000001
 44
0.0000000001
 40
0.0
 40
0.0
 40
0.0
 40
0.0
 40
0.2828526795
 40
1.0
 40
1.0
 40
1.0
 40
1.0
 10
556.346672113
 20
221.2000127513
 30
0.0
 10
556.3234794952
 20
221.1769408465
 30
0.0
 10
556.564867848
 20
221.209321902
 30
0.0
 10
556.6093862904
 20
221.1737068654
 30
0.0
 10
556.6919426465
 20
221.1657017764
 30
0.0
  0
SPLINE
  5
726
100
AcDbEntity
  8
0
100
AcDbSpline
 62
7
  6
CONTINUOUS
 70
0
 71
3
 72
8
 73
4
 74
0
 42
0.0000001
 43
0.0000001
 44
0.0000000001
 40
0.0
 40
0.0
 40
0.0
 40
0.0
 40
1.0
 40
1.0
 40
1.0
 40
1.0
 10
553.604620082
 20
217.0786466546
 30
0.0
 10
553.4475500193
 20
217.235908258
 30
0.0
 10
553.2913788364
 20
217.3941077041
 30
0.0
 10
553.1379869661
 20
217.554959035
 30
0.0
  0
SPLINE
  5
727
100
AcDbEntity
  8
0
100
AcDbSpline
 62
7
  6
CONTINUOUS
 70
0
 71
3
 72
9
 73
5
 74
0
 42
0.0000001
 43
0.0000001
 44
0.0000000001
 40
0.0
 40
0.0
 40
0.0
 40
0.0
 40
0.7353610405
 40
1.0
 40
1.0
 40
1.0
 40
1.0
 10
553.1379869661
 20
217.554959035
 30
0.0
 10
553.0856688979
 20
217.6098213356
 30
0.0
 10
553.0618509111
 20
217.6790903753
 30
0.0
 10
552.913121531
 20
217.7664621693
 30
0.0
 10
552.9324127975
 20
217.7857534358
 30
0.0
  0
SPLINE
  5
728
100
AcDbEntity
  8
0
100
AcDbSpline
 62
7
  6
CONTINUOUS
 70
0
 71
3
 72
9
 73
5
 74
0
 42
0.0000001
 43
0.0000001
 44
0.0000000001
 40
0.0
 40
0.0
 40
0.0
 40
0.0
 40
0.2610250932
 40
1.0
 40
1.0
 40
1.0
 40
1.0
 10
552.6395195787
 20
209.9674966952
 30
0.0
 10
552.6395185579
 20
209.9919378758
 30
0.0
 10
552.7921514223
 20
209.9292588057
 30
0.0
 10
552.8511554676
 20
209.9618333136
 30
0.0
 10
552.9203250502
 20
209.9599882141
 30
0.0
  0
SPLINE
  5
729
100
AcDbEntity
  8
0
100
AcDbSpline
 62
7
  6
CONTINUOUS
 70
0
 71
3
 72
10
 73
6
 74
0
 42
0.0000001
 43
0.0000001
 44
0.0000000001
 40
0.0
 40
0.0
 40
0.0
 40
0.0
 40
0.6947954339
 40
0.8723802149
 40
1.0
 40
1.0
 40
1.0
 40
1.0
 10
553.1134865407
 20
208.9687058937
 30
0.0
 10
553.1075966109
 20
209.0823859285
 30
0.0
 10
553.1053077481
 20
209.1540373985
 30
0.0
 10
553.0962015396
 20
209.4411611197
 30
0.0
 10
553.1127537648
 20
209.3566109213
 30
0.0
 10
553.1153675556
 20
209.335866222
 30
0.0
  0
SPLINE
  5
72A
100
AcDbEntity
  8
0
100
AcDbSpline
 62
7
  6
CONTINUOUS
 70
0
 71
3
 72
9
 73
5
 74
0
 42
0.0000001
 43
0.0000001
 44
0.0000000001
 40
0.0
 40
0.0
 40
0.0
 40
0.0
 40
0.3204292559
 40
1.0
 40
1.0
 40
1.0
 40
1.0
 10
556.3466655695
 20
305.5357142261
 30
0.0
 10
556.2757433826
 20
305.6066199756
 30
0.0
 10
556.9388302526
 20
305.5129795467
 30
0.0
 10
557.0694376824
 20
305.6066341725
 30
0.0
 10
557.2811733655
 20
305.6267712348
 30
0.0
  0
SPLINE
  5
72B
100
AcDbEntity
  8
0
100
AcDbSpline
 62
7
  6
CONTINUOUS
 70
0
 71
3
 72
10
 73
6
 74
0
 42
0.0000001
 43
0.0000001
 44
0.0000000001
 40
0.0
 40
0.0
 40
0.0
 40
0.0
 40
0.6963385525
 40
0.8751469874
 40
1.0
 40
1.0
 40
1.0
 40
1.0
 10
553.1134866435
 20
206.0170145457
 30
0.0
 10
553.1075683242
 20
205.9027848773
 30
0.0
 10
553.1056011938
 20
205.8313528512
 30
0.0
 10
553.096000795
 20
205.5421841624
 30
0.0
 10
553.1127632634
 20
205.6258068338
 30
0.0
 10
553.1153403483
 20
205.6461530445
 30
0.0
  0
SPLINE
  5
72C
100
AcDbEntity
  8
0
100
AcDbSpline
 62
7
  6
CONTINUOUS
 70
0
 71
3
 72
9
 73
5
 74
0
 42
0.0000001
 43
0.0000001
 44
0.0000000001
 40
0.0
 40
0.0
 40
0.0
 40
0.0
 40
0.265444671
 40
1.0
 40
1.0
 40
1.0
 40
1.0
 10
552.6395195787
 20
205.0181686596
 30
0.0
 10
552.639512989
 20
204.9779781327
 30
0.0
 10
552.8866534183
 20
205.0801836025
 30
0.0
 10
552.9824025618
 20
205.0273978951
 30
0.0
 10
553.0935834587
 20
205.0302618081
 30
0.0
  0
LINE
  5
72D
100
AcDbEntity
  8
0
100
AcDbLine
 62
7
  6
CONTINUOUS
 10
553.0935834587
 20
205.0302618081
 11
553.604620082
 21
205.0434920842
  0
SPLINE
  5
72E
100
AcDbEntity
  8
0
100
AcDbSpline
 62
7
  6
CONTINUOUS
 70
0
 71
3
 72
9
 73
5
 74
0
 42
0.0000001
 43
0.0000001
 44
0.0000000001
 40
0.0
 40
0.0
 40
0.0
 40
0.0
 40
0.2610249349
 40
1.0
 40
1.0
 40
1.0
 40
1.0
 10
552.6395195787
 20
201.9674966964
 30
0.0
 10
552.6395155719
 20
201.9919378493
 30
0.0
 10
552.792155565
 20
201.9292588949
 30
0.0
 10
552.8511553441
 20
201.9618333276
 30
0.0
 10
552.9203249057
 20
201.9599882179
 30
0.0
  0
SPLINE
  5
72F
100
AcDbEntity
  8
0
100
AcDbSpline
 62
7
  6
CONTINUOUS
 70
0
 71
3
 72
8
 73
4
 74
0
 42
0.0000001
 43
0.0000001
 44
0.0000000001
 40
0.0
 40
0.0
 40
0.0
 40
0.0
 40
1.0
 40
1.0
 40
1.0
 40
1.0
 10
567.4220392413
 20
320.2685664503
 30
0.0
 10
567.4213566434
 20
320.5144904287
 30
0.0
 10
567.3183159531
 20
320.7751583154
 30
0.0
 10
567.1498085119
 20
320.954279256
 30
0.0
  0
SPLINE
  5
730
100
AcDbEntity
  8
0
100
AcDbSpline
 62
7
  6
CONTINUOUS
 70
0
 71
3
 72
8
 73
4
 74
0
 42
0.0000001
 43
0.0000001
 44
0.0000000001
 40
0.0
 40
0.0
 40
0.0
 40
0.0
 40
1.0
 40
1.0
 40
1.0
 40
1.0
 10
567.1498085119
 20
320.954279256
 30
0.0
 10
566.980166811
 20
321.134605898
 30
0.0
 10
566.7235927617
 20
321.2540807921
 30
0.0
 10
566.4763809278
 20
321.2675831489
 30
0.0
  0
SPLINE
  5
731
100
AcDbEntity
  8
0
100
AcDbSpline
 62
7
  6
CONTINUOUS
 70
0
 71
3
 72
10
 73
6
 74
0
 42
0.0000001
 43
0.0000001
 44
0.0000000001
 40
0.0
 40
0.0
 40
0.0
 40
0.0
 40
0.6947954339
 40
0.8723802149
 40
1.0
 40
1.0
 40
1.0
 40
1.0
 10
553.1134865407
 20
200.9687058937
 30
0.0
 10
553.1075966109
 20
201.0823859285
 30
0.0
 10
553.1053077481
 20
201.1540373985
 30
0.0
 10
553.0962015396
 20
201.4411611197
 30
0.0
 10
553.1127537648
 20
201.3566109213
 30
0.0
 10
553.1153675556
 20
201.335866222
 30
0.0
  0
SPLINE
  5
732
100
AcDbEntity
  8
0
100
AcDbSpline
 62
7
  6
CONTINUOUS
 70
0
 71
3
 72
10
 73
6
 74
0
 42
0.0000001
 43
0.0000001
 44
0.0000000001
 40
0.0
 40
0.0
 40
0.0
 40
0.0
 40
0.6963385525
 40
0.8751469874
 40
1.0
 40
1.0
 40
1.0
 40
1.0
 10
553.1134866435
 20
198.0170145457
 30
0.0
 10
553.1075683242
 20
197.9027848773
 30
0.0
 10
553.1056011938
 20
197.8313528512
 30
0.0
 10
553.096000795
 20
197.5421841624
 30
0.0
 10
553.1127632634
 20
197.6258068338
 30
0.0
 10
553.1153403483
 20
197.6461530445
 30
0.0
  0
SPLINE
  5
733
100
AcDbEntity
  8
0
100
AcDbSpline
 62
7
  6
CONTINUOUS
 70
0
 71
3
 72
9
 73
5
 74
0
 42
0.0000001
 43
0.0000001
 44
0.0000000001
 40
0.0
 40
0.0
 40
0.0
 40
0.0
 40
0.2654447036
 40
1.0
 40
1.0
 40
1.0
 40
1.0
 10
552.6395195787
 20
197.01816866
 30
0.0
 10
552.6395146683
 20
196.9779781296
 30
0.0
 10
552.8866510858
 20
197.0801836291
 30
0.0
 10
552.9824025522
 20
197.0273978878
 30
0.0
 10
553.0935834397
 20
197.0302617895
 30
0.0
  0
LINE
  5
734
100
AcDbEntity
  8
0
100
AcDbLine
 62
7
  6
CONTINUOUS
 10
553.0935834397
 20
197.0302617895
 11
553.604620082
 21
197.0434920741
  0
SPLINE
  5
735
100
AcDbEntity
  8
0
100
AcDbSpline
 62
7
  6
CONTINUOUS
 70
0
 71
3
 72
9
 73
5
 74
0
 42
0.0000001
 43
0.0000001
 44
0.0000000001
 40
0.0
 40
0.0
 40
0.0
 40
0.0
 40
0.2710728246
 40
1.0
 40
1.0
 40
1.0
 40
1.0
 10
552.6395195787
 20
169.1021586243
 30
0.0
 10
552.6395186084
 20
169.1492366216
 30
0.0
 10
552.9157976457
 20
169.1049236407
 30
0.0
 10
553.0248712171
 20
169.1861364418
 30
0.0
 10
553.1488755042
 20
169.2116158521
 30
0.0
  0
SPLINE
  5
736
100
AcDbEntity
  8
0
100
AcDbSpline
 62
7
  6
CONTINUOUS
 70
0
 71
3
 72
9
 73
5
 74
0
 42
0.0000001
 43
0.0000001
 44
0.0000000001
 40
0.0
 40
0.0
 40
0.0
 40
0.0
 40
0.2611648169
 40
1.0
 40
1.0
 40
1.0
 40
1.0
 10
552.782906901
 20
168.7516786073
 30
0.0
 10
552.7655333224
 20
168.7693576715
 30
0.0
 10
552.9280606026
 20
168.8237617224
 30
0.0
 10
552.9563879156
 20
168.877865021
 30
0.0
 10
553.0143880391
 20
168.9172744127
 30
0.0
  0
SPLINE
  5
737
100
AcDbEntity
  8
0
100
AcDbSpline
 62
7
  6
CONTINUOUS
 70
0
 71
3
 72
8
 73
4
 74
0
 42
0.0000001
 43
0.0000001
 44
0.0000000001
 40
0.0
 40
0.0
 40
0.0
 40
0.0
 40
1.0
 40
1.0
 40
1.0
 40
1.0
 10
567.4220392413
 20
328.2685664503
 30
0.0
 10
567.4213566434
 20
328.5144904287
 30
0.0
 10
567.3183159531
 20
328.7751583154
 30
0.0
 10
567.1498085119
 20
328.954279256
 30
0.0
  0
SPLINE
  5
738
100
AcDbEntity
  8
0
100
AcDbSpline
 62
7
  6
CONTINUOUS
 70
0
 71
3
 72
8
 73
4
 74
0
 42
0.0000001
 43
0.0000001
 44
0.0000000001
 40
0.0
 40
0.0
 40
0.0
 40
0.0
 40
1.0
 40
1.0
 40
1.0
 40
1.0
 10
567.1498085119
 20
328.954279256
 30
0.0
 10
566.9801668111
 20
329.134605898
 30
0.0
 10
566.7235927617
 20
329.2540807921
 30
0.0
 10
566.4763809278
 20
329.2675831489
 30
0.0
  0
SPLINE
  5
739
100
AcDbEntity
  8
0
100
AcDbSpline
 62
7
  6
CONTINUOUS
 70
0
 71
3
 72
9
 73
5
 74
0
 42
0.0000001
 43
0.0000001
 44
0.0000000001
 40
0.0
 40
0.0
 40
0.0
 40
0.0
 40
0.7361062257
 40
1.0
 40
1.0
 40
1.0
 40
1.0
 10
552.9167165997
 20
159.8219012797
 30
0.0
 10
552.8485464542
 20
159.8363368392
 30
0.0
 10
552.7896087615
 20
159.8816460367
 30
0.0
 10
552.6394953508
 20
159.8585803321
 30
0.0
 10
552.6395195788
 20
159.8835612188
 30
0.0
  0
SPLINE
  5
73A
100
AcDbEntity
  8
0
100
AcDbSpline
 62
7
  6
CONTINUOUS
 70
0
 71
3
 72
9
 73
5
 74
0
 42
0.0000001
 43
0.0000001
 44
0.0000000001
 40
0.0
 40
0.0
 40
0.0
 40
0.0
 40
0.3325847884
 40
1.0
 40
1.0
 40
1.0
 40
1.0
 10
553.5901864857
 20
136.4641203053
 30
0.0
 10
553.5901698826
 20
136.3617402077
 30
0.0
 10
553.5907948169
 20
136.0539197501
 30
0.0
 10
553.5912236925
 20
135.7460345281
 30
0.0
 10
553.5967184291
 20
135.5406565437
 30
0.0
  0
SPLINE
  5
73B
100
AcDbEntity
  8
0
100
AcDbSpline
 62
7
  6
CONTINUOUS
 70
0
 71
3
 72
9
 73
5
 74
0
 42
0.0000001
 43
0.0000001
 44
0.0000000001
 40
0.0
 40
0.0
 40
0.0
 40
0.0
 40
0.7462621064
 40
1.0
 40
1.0
 40
1.0
 40
1.0
 10
553.5967184291
 20
135.5406565437
 30
0.0
 10
553.5975323652
 20
135.5102338735
 30
0.0
 10
553.6096876502
 20
135.4839982693
 30
0.0
 10
553.5942744295
 20
135.4188879461
 30
0.0
 10
553.6046201625
 20
135.4186827789
 30
0.0
  0
SPLINE
  5
73C
100
AcDbEntity
  8
0
100
AcDbSpline
 62
7
  6
CONTINUOUS
 70
0
 71
3
 72
8
 73
4
 74
0
 42
0.0000001
 43
0.0000001
 44
0.0000000001
 40
0.0
 40
0.0
 40
0.0
 40
0.0
 40
1.0
 40
1.0
 40
1.0
 40
1.0
 10
567.4220392413
 20
344.2685664503
 30
0.0
 10
567.4213566434
 20
344.5144904287
 30
0.0
 10
567.3183159531
 20
344.7751583154
 30
0.0
 10
567.1498085119
 20
344.954279256
 30
0.0
  0
SPLINE
  5
73D
100
AcDbEntity
  8
0
100
AcDbSpline
 62
7
  6
CONTINUOUS
 70
0
 71
3
 72
8
 73
4
 74
0
 42
0.0000001
 43
0.0000001
 44
0.0000000001
 40
0.0
 40
0.0
 40
0.0
 40
0.0
 40
1.0
 40
1.0
 40
1.0
 40
1.0
 10
567.1498085119
 20
344.954279256
 30
0.0
 10
566.980166811
 20
345.134605898
 30
0.0
 10
566.7235927617
 20
345.2540807921
 30
0.0
 10
566.4763809278
 20
345.2675831489
 30
0.0
  0
SPLINE
  5
73E
100
AcDbEntity
  8
0
100
AcDbSpline
 62
7
  6
CONTINUOUS
 70
0
 71
3
 72
9
 73
5
 74
0
 42
0.0000001
 43
0.0000001
 44
0.0000000001
 40
0.0
 40
0.0
 40
0.0
 40
0.0
 40
0.7361112256
 40
1.0
 40
1.0
 40
1.0
 40
1.0
 10
552.9167164948
 20
375.8219013002
 30
0.0
 10
552.8485458723
 20
375.8363369286
 30
0.0
 10
552.7896396364
 20
375.8816454672
 30
0.0
 10
552.6394728187
 20
375.85858142
 30
0.0
 10
552.6395195787
 20
375.8835618041
 30
0.0
  0
SPLINE
  5
73F
100
AcDbEntity
  8
0
100
AcDbSpline
 62
7
  6
CONTINUOUS
 70
0
 71
3
 72
9
 73
5
 74
0
 42
0.0000001
 43
0.0000001
 44
0.0000000001
 40
0.0
 40
0.0
 40
0.0
 40
0.0
 40
0.7390657376
 40
1.0
 40
1.0
 40
1.0
 40
1.0
 10
552.9193566912
 20
345.9600137151
 30
0.0
 10
552.8504171712
 20
345.9618529225
 30
0.0
 10
552.7916198849
 20
345.9293875401
 30
0.0
 10
552.6395192543
 20
345.9918451155
 30
0.0
 10
552.6395195787
 20
345.967496695
 30
0.0
  0
SPLINE
  5
740
100
AcDbEntity
  8
0
100
AcDbSpline
 62
7
  6
CONTINUOUS
 70
0
 71
3
 72
10
 73
6
 74
0
 42
0.0000001
 43
0.0000001
 44
0.0000000001
 40
0.0
 40
0.0
 40
0.0
 40
0.0
 40
0.6947954339
 40
0.8723802149
 40
1.0
 40
1.0
 40
1.0
 40
1.0
 10
553.1134865407
 20
344.9687058937
 30
0.0
 10
553.1075966109
 20
345.0823859285
 30
0.0
 10
553.1053077481
 20
345.1540373985
 30
0.0
 10
553.0962015396
 20
345.4411611197
 30
0.0
 10
553.1127537648
 20
345.3566109213
 30
0.0
 10
553.1153675556
 20
345.335866222
 30
0.0
  0
SPLINE
  5
741
100
AcDbEntity
  8
0
100
AcDbSpline
 62
7
  6
CONTINUOUS
 70
0
 71
3
 72
10
 73
6
 74
0
 42
0.0000001
 43
0.0000001
 44
0.0000000001
 40
0.0
 40
0.0
 40
0.0
 40
0.0
 40
0.6963385525
 40
0.8751469874
 40
1.0
 40
1.0
 40
1.0
 40
1.0
 10
553.1134866435
 20
342.0170145457
 30
0.0
 10
553.1075683242
 20
341.9027848773
 30
0.0
 10
553.1056011938
 20
341.8313528512
 30
0.0
 10
553.096000795
 20
341.5421841624
 30
0.0
 10
553.1127632634
 20
341.6258068338
 30
0.0
 10
553.1153403483
 20
341.6461530445
 30
0.0
  0
SPLINE
  5
742
100
AcDbEntity
  8
0
100
AcDbSpline
 62
7
  6
CONTINUOUS
 70
0
 71
3
 72
9
 73
5
 74
0
 42
0.0000001
 43
0.0000001
 44
0.0000000001
 40
0.0
 40
0.0
 40
0.0
 40
0.0
 40
0.7390004908
 40
1.0
 40
1.0
 40
1.0
 40
1.0
 10
552.9200486342
 20
341.0257254259
 30
0.0
 10
552.8509445298
 20
341.0238766751
 30
0.0
 10
552.7920038025
 20
341.056419726
 30
0.0
 10
552.6395155756
 20
340.9937538038
 30
0.0
 10
552.6395195787
 20
341.0181686596
 30
0.0
  0
SPLINE
  5
743
100
AcDbEntity
  8
0
100
AcDbSpline
 62
7
  6
CONTINUOUS
 70
0
 71
3
 72
9
 73
5
 74
0
 42
0.0000001
 43
0.0000001
 44
0.0000000001
 40
0.0
 40
0.0
 40
0.0
 40
0.0
 40
0.7390659171
 40
1.0
 40
1.0
 40
1.0
 40
1.0
 10
552.9193566815
 20
337.9600137157
 30
0.0
 10
552.8504171474
 20
337.9618529349
 30
0.0
 10
552.7916250667
 20
337.9293876186
 30
0.0
 10
552.6395155871
 20
337.991845099
 30
0.0
 10
552.6395195787
 20
337.9674966964
 30
0.0
  0
SPLINE
  5
744
100
AcDbEntity
  8
0
100
AcDbSpline
 62
7
  6
CONTINUOUS
 70
0
 71
3
 72
10
 73
6
 74
0
 42
0.0000001
 43
0.0000001
 44
0.0000000001
 40
0.0
 40
0.0
 40
0.0
 40
0.0
 40
0.6947954339
 40
0.8723802149
 40
1.0
 40
1.0
 40
1.0
 40
1.0
 10
553.1134865407
 20
336.9687058937
 30
0.0
 10
553.1075966109
 20
337.0823859285
 30
0.0
 10
553.1053077481
 20
337.1540373985
 30
0.0
 10
553.0962015396
 20
337.4411611197
 30
0.0
 10
553.1127537648
 20
337.3566109213
 30
0.0
 10
553.1153675556
 20
337.335866222
 30
0.0
  0
SPLINE
  5
745
100
AcDbEntity
  8
0
100
AcDbSpline
 62
7
  6
CONTINUOUS
 70
0
 71
3
 72
10
 73
6
 74
0
 42
0.0000001
 43
0.0000001
 44
0.0000000001
 40
0.0
 40
0.0
 40
0.0
 40
0.0
 40
0.6963385525
 40
0.8751469874
 40
1.0
 40
1.0
 40
1.0
 40
1.0
 10
553.1134866435
 20
334.0170145457
 30
0.0
 10
553.1075683242
 20
333.9027848773
 30
0.0
 10
553.1056011938
 20
333.8313528512
 30
0.0
 10
553.096000795
 20
333.5421841624
 30
0.0
 10
553.1127632634
 20
333.6258068338
 30
0.0
 10
553.1153403483
 20
333.6461530445
 30
0.0
  0
SPLINE
  5
746
100
AcDbEntity
  8
0
100
AcDbSpline
 62
7
  6
CONTINUOUS
 70
0
 71
3
 72
11
 73
7
 74
0
 42
0.0000001
 43
0.0000001
 44
0.0000000001
 40
0.0
 40
0.0
 40
0.0
 40
0.0
 40
0.070650694
 40
0.2726062241
 40
0.5899438214
 40
1.0
 40
1.0
 40
1.0
 40
1.0
 10
522.1601900228
 20
170.7084940522
 30
0.0
 10
522.1165889991
 20
170.7324165077
 30
0.0
 10
522.2250459161
 20
170.9853944883
 30
0.0
 10
522.1630759293
 20
171.3430612172
 30
0.0
 10
522.2627231804
 20
172.0258899218
 30
0.0
 10
522.2890800967
 20
172.5268414368
 30
0.0
 10
522.3125234684
 20
172.814535641
 30
0.0
  0
SPLINE
  5
747
100
AcDbEntity
  8
0
100
AcDbSpline
 62
7
  6
CONTINUOUS
 70
0
 71
3
 72
8
 73
4
 74
0
 42
0.0000001
 43
0.0000001
 44
0.0000000001
 40
0.0
 40
0.0
 40
0.0
 40
0.0
 40
1.0
 40
1.0
 40
1.0
 40
1.0
 10
547.6394804906
 20
191.9915143907
 30
0.0
 10
547.6394480856
 20
191.7049489845
 30
0.0
 10
547.4034500891
 20
191.4142564378
 30
0.0
 10
547.1466339237
 20
191.2871140364
 30
0.0
  0
SPLINE
  5
748
100
AcDbEntity
  8
0
100
AcDbSpline
 62
7
  6
CONTINUOUS
 70
0
 71
3
 72
9
 73
5
 74
0
 42
0.0000001
 43
0.0000001
 44
0.0000000001
 40
0.0
 40
0.0
 40
0.0
 40
0.0
 40
0.4995020636
 40
1.0
 40
1.0
 40
1.0
 40
1.0
 10
547.1466339237
 20
191.2871140364
 30
0.0
 10
547.087277208
 20
191.2577282095
 30
0.0
 10
546.9619819673
 20
191.2082035389
 30
0.0
 10
546.8263891706
 20
191.2066181189
 30
0.0
 10
546.7605198487
 20
191.214710607
 30
0.0
  0
SPLINE
  5
749
100
AcDbEntity
  8
0
100
AcDbSpline
 62
7
  6
CONTINUOUS
 70
0
 71
3
 72
8
 73
4
 74
0
 42
0.0000001
 43
0.0000001
 44
0.0000000001
 40
0.0
 40
0.0
 40
0.0
 40
0.0
 40
1.0
 40
1.0
 40
1.0
 40
1.0
 10
567.4220392413
 20
336.2685664503
 30
0.0
 10
567.4213566434
 20
336.5144904287
 30
0.0
 10
567.3183159531
 20
336.7751583154
 30
0.0
 10
567.1498085119
 20
336.954279256
 30
0.0
  0
SPLINE
  5
74A
100
AcDbEntity
  8
0
100
AcDbSpline
 62
7
  6
CONTINUOUS
 70
0
 71
3
 72
8
 73
4
 74
0
 42
0.0000001
 43
0.0000001
 44
0.0000000001
 40
0.0
 40
0.0
 40
0.0
 40
0.0
 40
1.0
 40
1.0
 40
1.0
 40
1.0
 10
567.1498085119
 20
336.954279256
 30
0.0
 10
566.980166811
 20
337.134605898
 30
0.0
 10
566.7235927617
 20
337.2540807921
 30
0.0
 10
566.4763809278
 20
337.2675831489
 30
0.0
  0
SPLINE
  5
74B
100
AcDbEntity
  8
0
100
AcDbSpline
 62
7
  6
CONTINUOUS
 70
0
 71
3
 72
9
 73
5
 74
0
 42
0.0000001
 43
0.0000001
 44
0.0000000001
 40
0.0
 40
0.0
 40
0.0
 40
0.0
 40
0.2550125953
 40
1.0
 40
1.0
 40
1.0
 40
1.0
 10
546.7605164669
 20
191.2147110452
 30
0.0
 10
546.8407063026
 20
191.2043913926
 30
0.0
 10
546.6703047201
 20
191.7451775269
 30
0.0
 10
546.7708777659
 20
191.9294180424
 30
0.0
 10
546.7685184093
 20
192.1656027188
 30
0.0
  0
SPLINE
  5
74C
100
AcDbEntity
  8
0
100
AcDbSpline
 62
7
  6
CONTINUOUS
 70
0
 71
3
 72
9
 73
5
 74
0
 42
0.0000001
 43
0.0000001
 44
0.0000000001
 40
0.0
 40
0.0
 40
0.0
 40
0.0
 40
0.2278703848
 40
1.0
 40
1.0
 40
1.0
 40
1.0
 10
546.7531110337
 20
193.2743097404
 30
0.0
 10
546.7493024879
 20
193.4987213002
 30
0.0
 10
546.7307201842
 20
194.4835060462
 30
0.0
 10
546.7131206015
 20
195.4683389073
 30
0.0
 10
546.6918545318
 20
196.2285605484
 30
0.0
  0
SPLINE
  5
74D
100
AcDbEntity
  8
0
100
AcDbSpline
 62
7
  6
CONTINUOUS
 70
0
 71
3
 72
9
 73
5
 74
0
 42
0.0000001
 43
0.0000001
 44
0.0000000001
 40
0.0
 40
0.0
 40
0.0
 40
0.0
 40
0.2883134065
 40
1.0
 40
1.0
 40
1.0
 40
1.0
 10
522.5871836223
 20
199.1882419818
 30
0.0
 10
522.5788314951
 20
198.7993388419
 30
0.0
 10
522.5466427696
 20
197.450527447
 30
0.0
 10
522.5201549219
 20
196.1015362253
 30
0.0
 10
522.5104479059
 20
195.1413768339
 30
0.0
  0
SPLINE
  5
74E
100
AcDbEntity
  8
0
100
AcDbSpline
 62
7
  6
CONTINUOUS
 70
0
 71
3
 72
9
 73
5
 74
0
 42
0.0000001
 43
0.0000001
 44
0.0000000001
 40
0.0
 40
0.0
 40
0.0
 40
0.0
 40
0.7427505338
 40
1.0
 40
1.0
 40
1.0
 40
1.0
 10
522.5104479059
 20
195.1413768339
 30
0.0
 10
522.5080695949
 20
194.9061286808
 30
0.0
 10
522.6101132198
 20
194.6932254926
 30
0.0
 10
522.4367154068
 20
194.2007044636
 30
0.0
 10
522.5176594381
 20
194.1913596005
 30
0.0
  0
SPLINE
  5
74F
100
AcDbEntity
  8
0
100
AcDbSpline
 62
7
  6
CONTINUOUS
 70
0
 71
3
 72
9
 73
5
 74
0
 42
0.0000001
 43
0.0000001
 44
0.0000000001
 40
0.0
 40
0.0
 40
0.0
 40
0.0
 40
0.2642200762
 40
1.0
 40
1.0
 40
1.0
 40
1.0
 10
547.1186726146
 20
157.0775211454
 30
0.0
 10
547.1930655473
 20
157.0344850246
 30
0.0
 10
546.9975065572
 20
157.6680726201
 30
0.0
 10
547.0781755626
 20
157.8128433893
 30
0.0
 10
547.0613812013
 20
158.0515844419
 30
0.0
  0
SPLINE
  5
750
100
AcDbEntity
  8
0
100
AcDbSpline
 62
7
  6
CONTINUOUS
 70
0
 71
3
 72
8
 73
4
 74
0
 42
0.0000001
 43
0.0000001
 44
0.0000000001
 40
0.0
 40
0.0
 40
0.0
 40
0.0
 40
1.0
 40
1.0
 40
1.0
 40
1.0
 10
546.6919181193
 20
162.8644461419
 30
0.0
 10
547.0336302029
 20
162.3053709335
 30
0.0
 10
547.3559559241
 20
161.7336143411
 30
0.0
 10
547.6505144514
 20
161.1483216701
 30
0.0
  0
SPLINE
  5
751
100
AcDbEntity
  8
0
100
AcDbSpline
 62
7
  6
CONTINUOUS
 70
0
 71
3
 72
9
 73
5
 74
0
 42
0.0000001
 43
0.0000001
 44
0.0000000001
 40
0.0
 40
0.0
 40
0.0
 40
0.0
 40
0.7390010064
 40
1.0
 40
1.0
 40
1.0
 40
1.0
 10
552.9200427744
 20
333.0257258637
 30
0.0
 10
552.8509399121
 20
333.0238828921
 30
0.0
 10
552.7920002431
 20
333.056433039
 30
0.0
 10
552.6395155757
 20
332.9937543621
 30
0.0
 10
552.6395195787
 20
333.0181686596
 30
0.0
  0
SPLINE
  5
752
100
AcDbEntity
  8
0
100
AcDbSpline
 62
7
  6
CONTINUOUS
 70
0
 71
3
 72
9
 73
5
 74
0
 42
0.0000001
 43
0.0000001
 44
0.0000000001
 40
0.0
 40
0.0
 40
0.0
 40
0.0
 40
0.7390659171
 40
1.0
 40
1.0
 40
1.0
 40
1.0
 10
552.9193566815
 20
329.9600137157
 30
0.0
 10
552.8504171474
 20
329.9618529349
 30
0.0
 10
552.7916250667
 20
329.9293876186
 30
0.0
 10
552.6395155871
 20
329.991845099
 30
0.0
 10
552.6395195787
 20
329.9674966964
 30
0.0
  0
SPLINE
  5
753
100
AcDbEntity
  8
0
100
AcDbSpline
 62
7
  6
CONTINUOUS
 70
0
 71
3
 72
9
 73
5
 74
0
 42
0.0000001
 43
0.0000001
 44
0.0000000001
 40
0.0
 40
0.0
 40
0.0
 40
0.0
 40
0.2146270672
 40
1.0
 40
1.0
 40
1.0
 40
1.0
 10
522.5166742361
 20
193.6088962348
 30
0.0
 10
522.5202376718
 20
193.506652941
 30
0.0
 10
522.5404332981
 20
193.0304167136
 30
0.0
 10
522.5624472813
 20
192.5541971082
 30
0.0
 10
522.5871838117
 20
192.1806548778
 30
0.0
  0
SPLINE
  5
754
100
AcDbEntity
  8
0
100
AcDbSpline
 62
7
  6
CONTINUOUS
 70
0
 71
3
 72
10
 73
6
 74
0
 42
0.0000001
 43
0.0000001
 44
0.0000000001
 40
0.0
 40
0.0
 40
0.0
 40
0.0
 40
0.6947954339
 40
0.8723802149
 40
1.0
 40
1.0
 40
1.0
 40
1.0
 10
553.1134865407
 20
328.9687058937
 30
0.0
 10
553.1075966109
 20
329.0823859285
 30
0.0
 10
553.1053077481
 20
329.1540373985
 30
0.0
 10
553.0962015396
 20
329.4411611197
 30
0.0
 10
553.1127537648
 20
329.3566109213
 30
0.0
 10
553.1153675556
 20
329.335866222
 30
0.0
  0
SPLINE
  5
755
100
AcDbEntity
  8
0
100
AcDbSpline
 62
7
  6
CONTINUOUS
 70
0
 71
3
 72
10
 73
6
 74
0
 42
0.0000001
 43
0.0000001
 44
0.0000000001
 40
0.0
 40
0.0
 40
0.0
 40
0.0
 40
0.6963385525
 40
0.8751469874
 40
1.0
 40
1.0
 40
1.0
 40
1.0
 10
553.1134866435
 20
326.0170145457
 30
0.0
 10
553.1075683242
 20
325.9027848773
 30
0.0
 10
553.1056011938
 20
325.8313528512
 30
0.0
 10
553.096000795
 20
325.5421841624
 30
0.0
 10
553.1127632634
 20
325.6258068338
 30
0.0
 10
553.1153403483
 20
325.6461530445
 30
0.0
  0
SPLINE
  5
756
100
AcDbEntity
  8
0
100
AcDbSpline
 62
7
  6
CONTINUOUS
 70
0
 71
3
 72
9
 73
5
 74
0
 42
0.0000001
 43
0.0000001
 44
0.0000000001
 40
0.0
 40
0.0
 40
0.0
 40
0.0
 40
0.7390004908
 40
1.0
 40
1.0
 40
1.0
 40
1.0
 10
552.9200486342
 20
325.0257254259
 30
0.0
 10
552.8509445298
 20
325.0238766751
 30
0.0
 10
552.7920038025
 20
325.056419726
 30
0.0
 10
552.6395155756
 20
324.9937538038
 30
0.0
 10
552.6395195787
 20
325.0181686596
 30
0.0
  0
SPLINE
  5
757
100
AcDbEntity
  8
0
100
AcDbSpline
 62
7
  6
CONTINUOUS
 70
0
 71
3
 72
9
 73
5
 74
0
 42
0.0000001
 43
0.0000001
 44
0.0000000001
 40
0.0
 40
0.0
 40
0.0
 40
0.0
 40
0.7390659171
 40
1.0
 40
1.0
 40
1.0
 40
1.0
 10
552.9193566815
 20
321.9600137157
 30
0.0
 10
552.8504171474
 20
321.9618529349
 30
0.0
 10
552.7916250667
 20
321.9293876186
 30
0.0
 10
552.6395155871
 20
321.991845099
 30
0.0
 10
552.6395195787
 20
321.9674966964
 30
0.0
  0
SPLINE
  5
758
100
AcDbEntity
  8
0
100
AcDbSpline
 62
7
  6
CONTINUOUS
 70
0
 71
3
 72
9
 73
5
 74
0
 42
0.0000001
 43
0.0000001
 44
0.0000000001
 40
0.0
 40
0.0
 40
0.0
 40
0.0
 40
0.2540161251
 40
1.0
 40
1.0
 40
1.0
 40
1.0
 10
553.1133392743
 20
317.517692055
 30
0.0
 10
553.0792821619
 20
317.5159056876
 30
0.0
 10
553.1308666215
 20
317.7367503438
 30
0.0
 10
553.1054215062
 20
317.8195920979
 30
0.0
 10
553.1144531842
 20
317.9193390282
 30
0.0
  0
SPLINE
  5
759
100
AcDbEntity
  8
0
100
AcDbSpline
 62
7
  6
CONTINUOUS
 70
0
 71
3
 72
10
 73
6
 74
0
 42
0.0000001
 43
0.0000001
 44
0.0000000001
 40
0.0
 40
0.0
 40
0.0
 40
0.0
 40
0.6947954339
 40
0.8723802149
 40
1.0
 40
1.0
 40
1.0
 40
1.0
 10
553.1134865407
 20
320.9687058937
 30
0.0
 10
553.1075966109
 20
321.0823859285
 30
0.0
 10
553.1053077481
 20
321.1540373985
 30
0.0
 10
553.0962015396
 20
321.4411611197
 30
0.0
 10
553.1127537648
 20
321.3566109213
 30
0.0
 10
553.1153675556
 20
321.335866222
 30
0.0
  0
SPLINE
  5
75A
100
AcDbEntity
  8
0
100
AcDbSpline
 62
7
  6
CONTINUOUS
 70
0
 71
3
 72
9
 73
5
 74
0
 42
0.0000001
 43
0.0000001
 44
0.0000000001
 40
0.0
 40
0.0
 40
0.0
 40
0.0
 40
0.2610154415
 40
1.0
 40
1.0
 40
1.0
 40
1.0
 10
552.6395195787
 20
317.01816866
 30
0.0
 10
552.6395165933
 20
316.9937375767
 30
0.0
 10
552.7920951337
 20
317.0564422566
 30
0.0
 10
552.8510736317
 20
317.0238801053
 30
0.0
 10
552.9202179558
 20
317.0257298776
 30
0.0
  0
SPLINE
  5
75B
100
AcDbEntity
  8
0
100
AcDbSpline
 62
7
  6
CONTINUOUS
 70
0
 71
3
 72
9
 73
5
 74
0
 42
0.0000001
 43
0.0000001
 44
0.0000000001
 40
0.0
 40
0.0
 40
0.0
 40
0.0
 40
0.2627099713
 40
1.0
 40
1.0
 40
1.0
 40
1.0
 10
552.9324127959
 20
308.9499669997
 30
0.0
 10
552.9140541606
 20
308.9683257006
 30
0.0
 10
553.056020644
 20
309.0524548116
 30
0.0
 10
553.0789063084
 20
309.1187285758
 30
0.0
 10
553.1291559756
 20
309.171494614
 30
0.0
  0
SPLINE
  5
75C
100
AcDbEntity
  8
0
100
AcDbSpline
 62
7
  6
CONTINUOUS
 70
0
 71
3
 72
8
 73
4
 74
0
 42
0.0000001
 43
0.0000001
 44
0.0000000001
 40
0.0
 40
0.0
 40
0.0
 40
0.0
 40
1.0
 40
1.0
 40
1.0
 40
1.0
 10
553.1291559756
 20
309.171494614
 30
0.0
 10
553.2853793312
 20
309.3355412234
 30
0.0
 10
553.4445349702
 20
309.4967934502
 30
0.0
 10
553.604620082
 20
309.6570737794
 30
0.0
  0
SPLINE
  5
75D
100
AcDbEntity
  8
0
100
AcDbSpline
 62
7
  6
CONTINUOUS
 70
0
 71
3
 72
8
 73
4
 74
0
 42
0.0000001
 43
0.0000001
 44
0.0000000001
 40
0.0
 40
0.0
 40
0.0
 40
0.0
 40
1.0
 40
1.0
 40
1.0
 40
1.0
 10
546.6919181192
 20
162.864446142
 30
0.0
 10
547.0193144628
 20
161.6678772493
 30
0.0
 10
547.3070255862
 20
160.4578368853
 30
0.0
 10
547.5131043589
 20
159.2345229354
 30
0.0
  0
SPLINE
  5
75E
100
AcDbEntity
  8
0
100
AcDbSpline
 62
7
  6
CONTINUOUS
 70
0
 71
3
 72
8
 73
4
 74
0
 42
0.0000001
 43
0.0000001
 44
0.0000000001
 40
0.0
 40
0.0
 40
0.0
 40
0.0
 40
1.0
 40
1.0
 40
1.0
 40
1.0
 10
560.0123951842
 20
188.428359217
 30
0.0
 10
559.4886154848
 20
188.2880128652
 30
0.0
 10
558.9885319744
 20
187.9570811774
 30
0.0
 10
558.6580598983
 20
187.5271620234
 30
0.0
  0
SPLINE
  5
75F
100
AcDbEntity
  8
0
100
AcDbSpline
 62
7
  6
CONTINUOUS
 70
0
 71
3
 72
8
 73
4
 74
0
 42
0.0000001
 43
0.0000001
 44
0.0000000001
 40
0.0
 40
0.0
 40
0.0
 40
0.0
 40
1.0
 40
1.0
 40
1.0
 40
1.0
 10
558.6580598983
 20
187.5271620234
 30
0.0
 10
558.3320048796
 20
187.1029891267
 30
0.0
 10
558.1395195815
 20
186.5432151522
 30
0.0
 10
558.1395195787
 20
186.0082062537
 30
0.0
  0
SPLINE
  5
760
100
AcDbEntity
  8
0
100
AcDbSpline
 62
7
  6
CONTINUOUS
 70
0
 71
3
 72
8
 73
4
 74
0
 42
0.0000001
 43
0.0000001
 44
0.0000000001
 40
0.0
 40
0.0
 40
0.0
 40
0.0
 40
1.0
 40
1.0
 40
1.0
 40
1.0
 10
560.0123952025
 20
356.5573612121
 30
0.0
 10
559.4886154991
 20
356.6977075606
 30
0.0
 10
558.9885319837
 20
357.028639248
 30
0.0
 10
558.6580599041
 20
357.458558403
 30
0.0
  0
SPLINE
  5
761
100
AcDbEntity
  8
0
100
AcDbSpline
 62
7
  6
CONTINUOUS
 70
0
 71
3
 72
8
 73
4
 74
0
 42
0.0000001
 43
0.0000001
 44
0.0000000001
 40
0.0
 40
0.0
 40
0.0
 40
0.0
 40
1.0
 40
1.0
 40
1.0
 40
1.0
 10
558.6580599041
 20
357.458558403
 30
0.0
 10
558.3320048795
 20
357.882731304
 30
0.0
 10
558.1395195787
 20
358.4425052874
 30
0.0
 10
558.1395195787
 20
358.9775141929
 30
0.0
  0
SPLINE
  5
762
100
AcDbEntity
  8
0
100
AcDbSpline
 62
7
  6
CONTINUOUS
 70
0
 71
3
 72
8
 73
4
 74
0
 42
0.0000001
 43
0.0000001
 44
0.0000000001
 40
0.0
 40
0.0
 40
0.0
 40
0.0
 40
1.0
 40
1.0
 40
1.0
 40
1.0
 10
573.1395195775
 20
351.8889106254
 30
0.0
 10
573.1251807733
 20
352.3107468721
 30
0.0
 10
572.9300445642
 20
352.7650788996
 30
0.0
 10
572.6083899995
 20
353.0383731756
 30
0.0
  0
SPLINE
  5
763
100
AcDbEntity
  8
0
100
AcDbSpline
 62
7
  6
CONTINUOUS
 70
0
 71
3
 72
8
 73
4
 74
0
 42
0.0000001
 43
0.0000001
 44
0.0000000001
 40
0.0
 40
0.0
 40
0.0
 40
0.0
 40
1.0
 40
1.0
 40
1.0
 40
1.0
 10
572.6083899995
 20
353.0383731756
 30
0.0
 10
572.4467492852
 20
353.1740924452
 30
0.0
 10
572.2515422275
 20
353.2778916536
 30
0.0
 10
572.0476713658
 20
353.3325186834
 30
0.0
  0
LINE
  5
764
100
AcDbEntity
  8
0
100
AcDbLine
 62
7
  6
CONTINUOUS
 10
572.999484111
 20
192.4598789971
 11
573.1395195787
 21
193.0967521518
  0
SPLINE
  5
765
100
AcDbEntity
  8
0
100
AcDbSpline
 62
7
  6
CONTINUOUS
 70
0
 71
3
 72
9
 73
5
 74
0
 42
0.0000001
 43
0.0000001
 44
0.0000000001
 40
0.0
 40
0.0
 40
0.0
 40
0.0
 40
0.2685842559
 40
1.0
 40
1.0
 40
1.0
 40
1.0
 10
547.1661014134
 20
354.3644707713
 30
0.0
 10
547.2273585289
 20
354.6284543154
 30
0.0
 10
547.4511154412
 20
355.6105487231
 30
0.0
 10
547.6396673327
 20
356.6138340588
 30
0.0
 10
547.6395195352
 20
357.3518221043
 30
0.0
  0
SPLINE
  5
766
100
AcDbEntity
  8
0
100
AcDbSpline
 62
7
  6
CONTINUOUS
 70
0
 71
3
 72
8
 73
4
 74
0
 42
0.0000001
 43
0.0000001
 44
0.0000000001
 40
0.0
 40
0.0
 40
0.0
 40
0.0
 40
1.0
 40
1.0
 40
1.0
 40
1.0
 10
547.6398555628
 20
354.119120889
 30
0.0
 10
547.3466309542
 20
353.5410244058
 30
0.0
 10
547.0490817681
 20
352.9621487563
 30
0.0
 10
546.6922452341
 20
352.42099822
 30
0.0
  0
SPLINE
  5
767
100
AcDbEntity
  8
0
100
AcDbSpline
 62
7
  6
CONTINUOUS
 70
0
 71
3
 72
8
 73
4
 74
0
 42
0.0000001
 43
0.0000001
 44
0.0000000001
 40
0.0
 40
0.0
 40
0.0
 40
0.0
 40
1.0
 40
1.0
 40
1.0
 40
1.0
 10
548.5871834168
 20
357.3516726628
 30
0.0
 10
548.5871589163
 20
357.0137026861
 30
0.0
 10
548.5456987818
 20
356.6746100505
 30
0.0
 10
548.4762778284
 20
356.3438466351
 30
0.0
  0
SPLINE
  5
768
100
AcDbEntity
  8
0
100
AcDbSpline
 62
7
  6
CONTINUOUS
 70
0
 71
3
 72
8
 73
4
 74
0
 42
0.0000001
 43
0.0000001
 44
0.0000000001
 40
0.0
 40
0.0
 40
0.0
 40
0.0
 40
1.0
 40
1.0
 40
1.0
 40
1.0
 10
548.4762778284
 20
356.3438466351
 30
0.0
 10
548.3979354319
 20
355.9705760676
 30
0.0
 10
548.2831759602
 20
355.6042932918
 30
0.0
 10
548.1468601491
 20
355.2480820521
 30
0.0
  0
SPLINE
  5
769
100
AcDbEntity
  8
0
100
AcDbSpline
 62
7
  6
CONTINUOUS
 70
0
 71
3
 72
8
 73
4
 74
0
 42
0.0000001
 43
0.0000001
 44
0.0000000001
 40
0.0
 40
0.0
 40
0.0
 40
0.0
 40
1.0
 40
1.0
 40
1.0
 40
1.0
 10
548.1468601491
 20
355.2480820521
 30
0.0
 10
547.9994226887
 20
354.862808472
 30
0.0
 10
547.8261164815
 20
354.4871981933
 30
0.0
 10
547.6395186865
 20
354.1192922282
 30
0.0
  0
SPLINE
  5
76A
100
AcDbEntity
  8
0
100
AcDbSpline
 62
7
  6
CONTINUOUS
 70
0
 71
3
 72
8
 73
4
 74
0
 42
0.0000001
 43
0.0000001
 44
0.0000000001
 40
0.0
 40
0.0
 40
0.0
 40
0.0
 40
1.0
 40
1.0
 40
1.0
 40
1.0
 10
552.7526647432
 20
308.4838728565
 30
0.0
 10
552.5979383551
 20
308.3167809809
 30
0.0
 10
552.4384521878
 20
308.154106096
 30
0.0
 10
552.2776468025
 20
307.9928560476
 30
0.0
  0
SPLINE
  5
76B
100
AcDbEntity
  8
0
100
AcDbSpline
 62
7
  6
CONTINUOUS
 70
0
 71
3
 72
8
 73
4
 74
0
 42
0.0000001
 43
0.0000001
 44
0.0000000001
 40
0.0
 40
0.0
 40
0.0
 40
0.0
 40
1.0
 40
1.0
 40
1.0
 40
1.0
 10
522.5871836224
 20
327.242860217
 30
0.0
 10
522.4256232491
 20
327.1542485169
 30
0.0
 10
522.2655661395
 20
327.0604973302
 30
0.0
 10
522.0942160635
 20
326.9927261041
 30
0.0
  0
SPLINE
  5
76C
100
AcDbEntity
  8
0
100
AcDbSpline
 62
7
  6
CONTINUOUS
 70
0
 71
3
 72
8
 73
4
 74
0
 42
0.0000001
 43
0.0000001
 44
0.0000000001
 40
0.0
 40
0.0
 40
0.0
 40
0.0
 40
1.0
 40
1.0
 40
1.0
 40
1.0
 10
522.0942160636
 20
327.9929943299
 30
0.0
 10
522.2655661455
 20
327.9252231014
 30
0.0
 10
522.4256232604
 20
327.831471911
 30
0.0
 10
522.5871836393
 20
327.7428602078
 30
0.0
  0
SPLINE
  5
76D
100
AcDbEntity
  8
0
100
AcDbSpline
 62
7
  6
CONTINUOUS
 70
0
 71
3
 72
9
 73
5
 74
0
 42
0.0000001
 43
0.0000001
 44
0.0000000001
 40
0.0
 40
0.0
 40
0.0
 40
0.0
 40
0.332880997
 40
1.0
 40
1.0
 40
1.0
 40
1.0
 10
553.590182355
 20
408.5461842049
 30
0.0
 10
553.5901877451
 20
408.6462684572
 30
0.0
 10
553.590864273
 20
408.9469179266
 30
0.0
 10
553.5913342361
 20
409.2476323956
 30
0.0
 10
553.596802162
 20
409.4481343552
 30
0.0
  0
SPLINE
  5
76E
100
AcDbEntity
  8
0
100
AcDbSpline
 62
7
  6
CONTINUOUS
 70
0
 71
3
 72
9
 73
5
 74
0
 42
0.0000001
 43
0.0000001
 44
0.0000000001
 40
0.0
 40
0.0
 40
0.0
 40
0.0
 40
0.7462419913
 40
1.0
 40
1.0
 40
1.0
 40
1.0
 10
553.596802162
 20
409.4481343552
 30
0.0
 10
553.5976109749
 20
409.4777925057
 30
0.0
 10
553.6094318523
 20
409.5033919044
 30
0.0
 10
553.5945336487
 20
409.5668290641
 30
0.0
 10
553.6046204328
 20
409.5670376645
 30
0.0
  0
SPLINE
  5
76F
100
AcDbEntity
  8
0
100
AcDbSpline
 62
7
  6
CONTINUOUS
 70
0
 71
3
 72
9
 73
5
 74
0
 42
0.0000001
 43
0.0000001
 44
0.0000000001
 40
0.0
 40
0.0
 40
0.0
 40
0.0
 40
0.7171553237
 40
1.0
 40
1.0
 40
1.0
 40
1.0
 10
558.4922977911
 20
408.7134399049
 30
0.0
 10
558.4696306987
 20
408.9655462084
 30
0.0
 10
558.4814488187
 20
409.2343623656
 30
0.0
 10
558.5397652201
 20
409.739376718
 30
0.0
 10
558.6395357314
 20
409.7428607811
 30
0.0
  0
SPLINE
  5
770
100
AcDbEntity
  8
0
100
AcDbSpline
 62
7
  6
CONTINUOUS
 70
0
 71
3
 72
9
 73
5
 74
0
 42
0.0000001
 43
0.0000001
 44
0.0000000001
 40
0.0
 40
0.0
 40
0.0
 40
0.0
 40
0.2760710983
 40
1.0
 40
1.0
 40
1.0
 40
1.0
 10
558.6395849106
 20
406.2447321447
 30
0.0
 10
558.6166931712
 20
406.4712160965
 30
0.0
 10
558.5457220649
 20
407.291252111
 30
0.0
 10
558.4395977445
 20
408.1188461092
 30
0.0
 10
558.4922977911
 20
408.7134399049
 30
0.0
  0
SPLINE
  5
771
100
AcDbEntity
  8
0
100
AcDbSpline
 62
7
  6
CONTINUOUS
 70
0
 71
3
 72
9
 73
5
 74
0
 42
0.0000001
 43
0.0000001
 44
0.0000000001
 40
0.0
 40
0.0
 40
0.0
 40
0.0
 40
0.4249939213
 40
1.0
 40
1.0
 40
1.0
 40
1.0
 10
573.933958189
 20
169.7910803675
 30
0.0
 10
573.8670932518
 20
169.7943342127
 30
0.0
 10
573.6994200457
 20
169.8265624965
 30
0.0
 10
573.6218134194
 20
169.9943355508
 30
0.0
 10
573.6094735204
 20
170.0840646393
 30
0.0
  0
SPLINE
  5
772
100
AcDbEntity
  8
0
100
AcDbSpline
 62
7
  6
CONTINUOUS
 70
0
 71
3
 72
9
 73
5
 74
0
 42
0.0000001
 43
0.0000001
 44
0.0000000001
 40
0.0
 40
0.0
 40
0.0
 40
0.0
 40
0.4482338868
 40
1.0
 40
1.0
 40
1.0
 40
1.0
 10
573.6094735204
 20
170.0840646393
 30
0.0
 10
573.6043410972
 20
170.121384852
 30
0.0
 10
573.6010116794
 20
170.2057793824
 30
0.0
 10
573.6092689544
 20
170.2896207448
 30
0.0
 10
573.6159935681
 20
170.335503341
 30
0.0
  0
SPLINE
  5
773
100
AcDbEntity
  8
0
100
AcDbSpline
 62
7
  6
CONTINUOUS
 70
0
 71
3
 72
9
 73
5
 74
0
 42
0.0000001
 43
0.0000001
 44
0.0000000001
 40
0.0
 40
0.0
 40
0.0
 40
0.0
 40
0.504378171
 40
1.0
 40
1.0
 40
1.0
 40
1.0
 10
577.1124657928
 20
172.1025235681
 30
0.0
 10
577.1122175061
 20
172.1546439711
 30
0.0
 10
577.0534805963
 20
172.252395391
 30
0.0
 10
576.9513642119
 20
172.3062082196
 30
0.0
 10
576.9003428812
 20
172.3017454039
 30
0.0
  0
SPLINE
  5
774
100
AcDbEntity
  8
0
100
AcDbSpline
 62
7
  6
CONTINUOUS
 70
0
 71
3
 72
9
 73
5
 74
0
 42
0.0000001
 43
0.0000001
 44
0.0000000001
 40
0.0
 40
0.0
 40
0.0
 40
0.0
 40
0.5477997332
 40
1.0
 40
1.0
 40
1.0
 40
1.0
 10
577.0082402068
 20
172.4487130754
 30
0.0
 10
577.0421150096
 20
172.4463121985
 30
0.0
 10
577.1030177169
 20
172.4348470602
 30
0.0
 10
577.1632167162
 20
172.4153760485
 30
0.0
 10
577.1866845041
 20
172.4000421833
 30
0.0
  0
SPLINE
  5
775
100
AcDbEntity
  8
0
100
AcDbSpline
 62
7
  6
CONTINUOUS
 70
0
 71
3
 72
11
 73
7
 74
0
 42
0.0000001
 43
0.0000001
 44
0.0000000001
 40
0.0
 40
0.0
 40
0.0
 40
0.0
 40
0.0706320255
 40
0.2726243682
 40
0.5899502268
 40
1.0
 40
1.0
 40
1.0
 40
1.0
 10
522.1601898114
 20
344.5772262666
 30
0.0
 10
522.1165543365
 20
344.5532949039
 30
0.0
 10
522.225271001
 20
344.3000473954
 30
0.0
 10
522.1628603573
 20
343.9420396167
 30
0.0
 10
522.2629635404
 20
343.2585558359
 30
0.0
 10
522.28921656
 20
342.7571316763
 30
0.0
 10
522.3126643061
 20
342.4691649225
 30
0.0
  0
SPLINE
  5
776
100
AcDbEntity
  8
0
100
AcDbSpline
 62
7
  6
CONTINUOUS
 70
0
 71
3
 72
9
 73
5
 74
0
 42
0.0000001
 43
0.0000001
 44
0.0000000001
 40
0.0
 40
0.0
 40
0.0
 40
0.0
 40
0.2300593014
 40
1.0
 40
1.0
 40
1.0
 40
1.0
 10
522.3126643061
 20
342.4691649225
 30
0.0
 10
522.3293897208
 20
342.2637565503
 30
0.0
 10
522.401888246
 20
341.3708867468
 30
0.0
 10
522.4839657597
 20
340.4788316259
 30
0.0
 10
522.5429500836
 20
339.7916419893
 30
0.0
  0
SPLINE
  5
777
100
AcDbEntity
  8
0
100
AcDbSpline
 62
7
  6
CONTINUOUS
 70
0
 71
3
 72
9
 73
5
 74
0
 42
0.0000001
 43
0.0000001
 44
0.0000000001
 40
0.0
 40
0.0
 40
0.0
 40
0.0
 40
0.7389831539
 40
1.0
 40
1.0
 40
1.0
 40
1.0
 10
547.0775699084
 20
357.4671526162
 30
0.0
 10
547.0900678702
 20
357.6495662435
 30
0.0
 10
547.0291405095
 20
357.7590581558
 30
0.0
 10
547.1745555279
 20
358.2405699217
 30
0.0
 10
547.1186704607
 20
358.2082027871
 30
0.0
  0
SPLINE
  5
778
100
AcDbEntity
  8
0
100
AcDbSpline
 62
7
  6
CONTINUOUS
 70
0
 71
3
 72
8
 73
4
 74
0
 42
0.0000001
 43
0.0000001
 44
0.0000000001
 40
0.0
 40
0.0
 40
0.0
 40
0.0
 40
1.0
 40
1.0
 40
1.0
 40
1.0
 10
559.6111375179
 20
390.612791787
 30
0.0
 10
559.24265203
 20
390.4433642434
 30
0.0
 10
558.9051300354
 20
390.1781419198
 30
0.0
 10
558.6579599551
 20
389.8565922366
 30
0.0
  0
SPLINE
  5
779
100
AcDbEntity
  8
0
100
AcDbSpline
 62
7
  6
CONTINUOUS
 70
0
 71
3
 72
8
 73
4
 74
0
 42
0.0000001
 43
0.0000001
 44
0.0000000001
 40
0.0
 40
0.0
 40
0.0
 40
0.0
 40
1.0
 40
1.0
 40
1.0
 40
1.0
 10
558.6579599551
 20
389.8565922366
 30
0.0
 10
558.3318886327
 20
389.4323979723
 30
0.0
 10
558.1393938918
 20
388.8725958317
 30
0.0
 10
558.139393889
 20
388.3375600561
 30
0.0
  0
SPLINE
  5
77A
100
AcDbEntity
  8
0
100
AcDbSpline
 62
7
  6
CONTINUOUS
 70
0
 71
3
 72
8
 73
4
 74
0
 42
0.0000001
 43
0.0000001
 44
0.0000000001
 40
0.0
 40
0.0
 40
0.0
 40
0.0
 40
1.0
 40
1.0
 40
1.0
 40
1.0
 10
576.075879647
 20
170.2049618772
 30
0.0
 10
576.0771753403
 20
170.6366926956
 30
0.0
 10
576.103711937
 20
171.0734130535
 30
0.0
 10
576.200543663
 20
171.4941466928
 30
0.0
  0
SPLINE
  5
77B
100
AcDbEntity
  8
0
100
AcDbSpline
 62
7
  6
CONTINUOUS
 70
0
 71
3
 72
9
 73
5
 74
0
 42
0.0000001
 43
0.0000001
 44
0.0000000001
 40
0.0
 40
0.0
 40
0.0
 40
0.0
 40
0.3731914027
 40
1.0
 40
1.0
 40
1.0
 40
1.0
 10
576.200543663
 20
171.4941466928
 30
0.0
 10
576.2184063441
 20
171.5717600035
 30
0.0
 10
576.2734440085
 20
171.7609143537
 30
0.0
 10
576.3681548873
 20
172.0309934826
 30
0.0
 10
576.5007032184
 20
172.0490048858
 30
0.0
  0
SPLINE
  5
77C
100
AcDbEntity
  8
0
100
AcDbSpline
 62
7
  6
CONTINUOUS
 70
0
 71
3
 72
8
 73
4
 74
0
 42
0.0000001
 43
0.0000001
 44
0.0000000001
 40
0.0
 40
0.0
 40
0.0
 40
0.0
 40
1.0
 40
1.0
 40
1.0
 40
1.0
 10
567.9277378375
 20
392.8786226913
 30
0.0
 10
568.3340416169
 20
392.9874424602
 30
0.0
 10
568.7164762022
 20
393.3076706909
 30
0.0
 10
568.8956596947
 20
393.6882200035
 30
0.0
  0
SPLINE
  5
77D
100
AcDbEntity
  8
0
100
AcDbSpline
 62
7
  6
CONTINUOUS
 70
0
 71
3
 72
8
 73
4
 74
0
 42
0.0000001
 43
0.0000001
 44
0.0000000001
 40
0.0
 40
0.0
 40
0.0
 40
0.0
 40
1.0
 40
1.0
 40
1.0
 40
1.0
 10
568.8956596947
 20
393.6882200035
 30
0.0
 10
568.9887244689
 20
393.8858706651
 30
0.0
 10
569.0395371203
 20
394.1091658401
 30
0.0
 10
569.0395195574
 20
394.3276305647
 30
0.0
  0
SPLINE
  5
77E
100
AcDbEntity
  8
0
100
AcDbSpline
 62
7
  6
CONTINUOUS
 70
0
 71
3
 72
8
 73
4
 74
0
 42
0.0000001
 43
0.0000001
 44
0.0000000001
 40
0.0
 40
0.0
 40
0.0
 40
0.0
 40
1.0
 40
1.0
 40
1.0
 40
1.0
 10
558.1395196279
 20
388.3365638578
 30
0.0
 10
558.1394649907
 20
388.872644372
 30
0.0
 10
558.3307995871
 20
389.4339353557
 30
0.0
 10
558.6571656361
 20
389.8592205808
 30
0.0
  0
SPLINE
  5
77F
100
AcDbEntity
  8
0
100
AcDbSpline
 62
7
  6
CONTINUOUS
 70
0
 71
3
 72
8
 73
4
 74
0
 42
0.0000001
 43
0.0000001
 44
0.0000000001
 40
0.0
 40
0.0
 40
0.0
 40
0.0
 40
1.0
 40
1.0
 40
1.0
 40
1.0
 10
558.6571656361
 20
389.8592205808
 30
0.0
 10
558.9206698899
 20
390.202591058
 30
0.0
 10
559.2878735033
 20
390.4836330487
 30
0.0
 10
559.6878904793
 20
390.6489333673
 30
0.0
  0
SPLINE
  5
780
100
AcDbEntity
  8
0
100
AcDbSpline
 62
7
  6
CONTINUOUS
 70
0
 71
3
 72
9
 73
5
 74
0
 42
0.0000001
 43
0.0000001
 44
0.0000000001
 40
0.0
 40
0.0
 40
0.0
 40
0.0
 40
0.1304909836
 40
1.0
 40
1.0
 40
1.0
 40
1.0
 10
576.2886194866
 20
172.2482437907
 30
0.0
 10
576.2529788581
 20
172.2451251967
 30
0.0
 10
576.0218545058
 20
172.0539712201
 30
0.0
 10
576.0112073864
 20
171.7495075416
 30
0.0
 10
575.9713090793
 20
171.5144760797
 30
0.0
  0
SPLINE
  5
781
100
AcDbEntity
  8
0
100
AcDbSpline
 62
7
  6
CONTINUOUS
 70
0
 71
3
 72
8
 73
4
 74
0
 42
0.0000001
 43
0.0000001
 44
0.0000000001
 40
0.0
 40
0.0
 40
0.0
 40
0.0
 40
1.0
 40
1.0
 40
1.0
 40
1.0
 10
575.9713090793
 20
171.5144760797
 30
0.0
 10
575.8980817099
 20
171.0831110191
 30
0.0
 10
575.8790717484
 20
170.6424928633
 30
0.0
 10
575.8812260758
 20
170.2049618106
 30
0.0
  0
SPLINE
  5
782
100
AcDbEntity
  8
0
100
AcDbSpline
 62
7
  6
CONTINUOUS
 70
0
 71
3
 72
9
 73
5
 74
0
 42
0.0000001
 43
0.0000001
 44
0.0000000001
 40
0.0
 40
0.0
 40
0.0
 40
0.0
 40
0.6907754047
 40
1.0
 40
1.0
 40
1.0
 40
1.0
 10
554.0309686754
 20
384.8728459273
 30
0.0
 10
553.9033218537
 20
384.6806627045
 30
0.0
 10
553.8486917349
 20
384.4251239848
 30
0.0
 10
553.4235579649
 20
384.0997463295
 30
0.0
 10
553.4959469539
 20
384.026083778
 30
0.0
  0
SPLINE
  5
783
100
AcDbEntity
  8
0
100
AcDbSpline
 62
7
  6
CONTINUOUS
 70
0
 71
3
 72
9
 73
5
 74
0
 42
0.0000001
 43
0.0000001
 44
0.0000000001
 40
0.0
 40
0.0
 40
0.0
 40
0.0
 40
0.2710874235
 40
1.0
 40
1.0
 40
1.0
 40
1.0
 10
553.8440110247
 20
383.8765661302
 30
0.0
 10
553.7764104629
 20
383.8777479491
 30
0.0
 10
553.9785660717
 20
384.2807273019
 30
0.0
 10
553.9356244933
 20
384.4352555168
 30
0.0
 10
553.9735901909
 20
384.6130423269
 30
0.0
  0
SPLINE
  5
784
100
AcDbEntity
  8
0
100
AcDbSpline
 62
7
  6
CONTINUOUS
 70
0
 71
3
 72
9
 73
5
 74
0
 42
0.0000001
 43
0.0000001
 44
0.0000000001
 40
0.0
 40
0.0
 40
0.0
 40
0.0
 40
0.2643650403
 40
1.0
 40
1.0
 40
1.0
 40
1.0
 10
552.6395195787
 20
385.1021586343
 30
0.0
 10
552.6395195787
 20
385.1272643013
 30
0.0
 10
552.7897076471
 20
385.1056203478
 30
0.0
 10
552.8491856246
 20
385.1498065984
 30
0.0
 10
552.9175886819
 20
385.164000805
 30
0.0
  0
LINE
  5
785
100
AcDbEntity
  8
0
100
AcDbLine
 62
7
  6
CONTINUOUS
 10
552.9175886819
 20
385.164000805
 11
553.2161666643
 21
385.225455597
  0
SPLINE
  5
786
100
AcDbEntity
  8
0
100
AcDbSpline
 62
7
  6
CONTINUOUS
 70
0
 71
3
 72
9
 73
5
 74
0
 42
0.0000001
 43
0.0000001
 44
0.0000000001
 40
0.0
 40
0.0
 40
0.0
 40
0.0
 40
0.2615961832
 40
1.0
 40
1.0
 40
1.0
 40
1.0
 10
552.7829069003
 20
384.751678608
 30
0.0
 10
552.7654688589
 20
384.7694230463
 30
0.0
 10
552.9296441017
 20
384.8222815263
 30
0.0
 10
552.9569080391
 20
384.8780367605
 30
0.0
 10
553.0148977006
 20
384.9176438332
 30
0.0
  0
SPLINE
  5
787
100
AcDbEntity
  8
0
100
AcDbSpline
 62
7
  6
CONTINUOUS
 70
0
 71
3
 72
8
 73
4
 74
0
 42
0.0000001
 43
0.0000001
 44
0.0000000001
 40
0.0
 40
0.0
 40
0.0
 40
0.0
 40
1.0
 40
1.0
 40
1.0
 40
1.0
 10
547.1656987401
 20
354.3645256221
 30
0.0
 10
547.0138346092
 20
353.7153078245
 30
0.0
 10
546.8895390494
 20
353.0579991136
 30
0.0
 10
546.6919131965
 20
352.4212177655
 30
0.0
  0
SPLINE
  5
788
100
AcDbEntity
  8
0
100
AcDbSpline
 62
7
  6
CONTINUOUS
 70
0
 71
3
 72
9
 73
5
 74
0
 42
0.0000001
 43
0.0000001
 44
0.0000000001
 40
0.0
 40
0.0
 40
0.0
 40
0.0
 40
0.5042580746
 40
1.0
 40
1.0
 40
1.0
 40
1.0
 10
577.0530926795
 20
167.692860217
 30
0.0
 10
577.0530930142
 20
167.6431056304
 30
0.0
 10
577.0013726692
 20
167.5483040238
 30
0.0
 10
576.9073547957
 20
167.4928588667
 30
0.0
 10
576.8584404881
 20
167.4928589922
 30
0.0
  0
SPLINE
  5
789
100
AcDbEntity
  8
0
100
AcDbSpline
 62
7
  6
CONTINUOUS
 70
0
 71
3
 72
9
 73
5
 74
0
 42
0.0000001
 43
0.0000001
 44
0.0000000001
 40
0.0
 40
0.0
 40
0.0
 40
0.0
 40
0.1473871734
 40
1.0
 40
1.0
 40
1.0
 40
1.0
 10
576.8584388839
 20
167.492860217
 30
0.0
 10
576.898116891
 20
167.4928608887
 30
0.0
 10
577.1544922741
 20
167.3571152964
 30
0.0
 10
577.1996230402
 20
167.0446661702
 30
0.0
 10
577.2519088956
 20
166.821169341
 30
0.0
  0
SPLINE
  5
78A
100
AcDbEntity
  8
0
100
AcDbSpline
 62
7
  6
CONTINUOUS
 70
0
 71
3
 72
8
 73
4
 74
0
 42
0.0000001
 43
0.0000001
 44
0.0000000001
 40
0.0
 40
0.0
 40
0.0
 40
0.0
 40
1.0
 40
1.0
 40
1.0
 40
1.0
 10
577.2519088956
 20
166.821169341
 30
0.0
 10
577.2896767039
 20
166.6597301651
 30
0.0
 10
577.3161522546
 20
166.4955398689
 30
0.0
 10
577.3359832105
 20
166.3309320076
 30
0.0
  0
SPLINE
  5
78B
100
AcDbEntity
  8
0
100
AcDbSpline
 62
7
  6
CONTINUOUS
 70
0
 71
3
 72
8
 73
4
 74
0
 42
0.0000001
 43
0.0000001
 44
0.0000000001
 40
0.0
 40
0.0
 40
0.0
 40
0.0
 40
1.0
 40
1.0
 40
1.0
 40
1.0
 10
577.3359832105
 20
166.3309320076
 30
0.0
 10
577.3694843207
 20
166.0528543339
 30
0.0
 10
577.3839941362
 20
165.7721983199
 30
0.0
 10
577.3852571345
 20
165.4921127583
 30
0.0
  0
SPLINE
  5
78C
100
AcDbEntity
  8
0
100
AcDbSpline
 62
7
  6
CONTINUOUS
 70
0
 71
3
 72
8
 73
4
 74
0
 42
0.0000001
 43
0.0000001
 44
0.0000000001
 40
0.0
 40
0.0
 40
0.0
 40
0.0
 40
1.0
 40
1.0
 40
1.0
 40
1.0
 10
577.3852158626
 20
165.4921127669
 30
0.0
 10
577.4636263555
 20
165.7403847869
 30
0.0
 10
577.5728815552
 20
166.0247436705
 30
0.0
 10
577.4789075852
 20
166.2675524313
 30
0.0
  0
SPLINE
  5
78D
100
AcDbEntity
  8
0
100
AcDbSpline
 62
7
  6
CONTINUOUS
 70
0
 71
3
 72
9
 73
5
 74
0
 42
0.0000001
 43
0.0000001
 44
0.0000000001
 40
0.0
 40
0.0
 40
0.0
 40
0.0
 40
0.131648909
 40
1.0
 40
1.0
 40
1.0
 40
1.0
 10
577.0530927254
 20
167.692860217
 30
0.0
 10
577.09696765
 20
167.6928473491
 30
0.0
 10
577.3983930924
 20
167.4856279817
 30
0.0
 10
577.4182634936
 20
167.104636072
 30
0.0
 10
577.46930931
 20
166.819776232
 30
0.0
  0
SPLINE
  5
78E
100
AcDbEntity
  8
0
100
AcDbSpline
 62
7
  6
CONTINUOUS
 70
0
 71
3
 72
9
 73
5
 74
0
 42
0.0000001
 43
0.0000001
 44
0.0000000001
 40
0.0
 40
0.0
 40
0.0
 40
0.0
 40
0.4971606793
 40
1.0
 40
1.0
 40
1.0
 40
1.0
 10
573.008915318
 20
388.092859065
 30
0.0
 10
573.0796479259
 20
388.0928590643
 30
0.0
 10
573.2129916287
 20
388.0024007474
 30
0.0
 10
573.2772430428
 20
387.864400743
 30
0.0
 10
573.2772434219
 20
387.792860217
 30
0.0
  0
SPLINE
  5
78F
100
AcDbEntity
  8
0
100
AcDbSpline
 62
7
  6
CONTINUOUS
 70
0
 71
3
 72
9
 73
5
 74
0
 42
0.0000001
 43
0.0000001
 44
0.0000000001
 40
0.0
 40
0.0
 40
0.0
 40
0.0
 40
0.3463832579
 40
1.0
 40
1.0
 40
1.0
 40
1.0
 10
572.9541093821
 20
388.092860217
 30
0.0
 10
572.9389044184
 20
388.092860217
 30
0.0
 10
572.9029977151
 20
388.0553223734
 30
0.0
 10
572.8908558741
 20
388.0148410412
 30
0.0
 10
572.8838487354
 20
387.9870184578
 30
0.0
  0
SPLINE
  5
790
100
AcDbEntity
  8
0
100
AcDbSpline
 62
7
  6
CONTINUOUS
 70
0
 71
3
 72
9
 73
5
 74
0
 42
0.0000001
 43
0.0000001
 44
0.0000000001
 40
0.0
 40
0.0
 40
0.0
 40
0.0
 40
0.4201355766
 40
1.0
 40
1.0
 40
1.0
 40
1.0
 10
572.8838487354
 20
387.9870184578
 30
0.0
 10
572.8736339458
 20
387.9464595585
 30
0.0
 10
572.8630420562
 20
387.8465927925
 30
0.0
 10
572.8697615972
 20
387.746894263
 30
0.0
 10
572.8772115952
 20
387.6896502299
 30
0.0
  0
SPLINE
  5
791
100
AcDbEntity
  8
0
100
AcDbSpline
 62
7
  6
CONTINUOUS
 70
0
 71
3
 72
9
 73
5
 74
0
 42
0.0000001
 43
0.0000001
 44
0.0000000001
 40
0.0
 40
0.0
 40
0.0
 40
0.0
 40
0.51748128
 40
1.0
 40
1.0
 40
1.0
 40
1.0
 10
573.222437572
 20
387.792860217
 30
0.0
 10
573.2224371976
 20
387.8664539792
 30
0.0
 10
573.1558531941
 20
388.0042432748
 30
0.0
 10
573.0227309163
 20
388.0928592106
 30
0.0
 10
572.9541093655
 20
388.0928592106
 30
0.0
  0
SPLINE
  5
792
100
AcDbEntity
  8
0
100
AcDbSpline
 62
7
  6
CONTINUOUS
 70
0
 71
3
 72
9
 73
5
 74
0
 42
0.0000001
 43
0.0000001
 44
0.0000000001
 40
0.0
 40
0.0
 40
0.0
 40
0.0
 40
0.5174813269
 40
1.0
 40
1.0
 40
1.0
 40
1.0
 10
573.2224375569
 20
384.392860217
 30
0.0
 10
573.2224371421
 20
384.3192664638
 30
0.0
 10
573.1558531289
 20
384.1814772223
 30
0.0
 10
573.0227308698
 20
384.09286133
 30
0.0
 10
572.9541093403
 20
384.0928613314
 30
0.0
  0
ENDSEC
  0
SECTION
  2
OBJECTS
  0
DICTIONARY
  5
C
100
AcDbDictionary
280
0
281
1
  3
ACAD_GROUP
350
D
  3
ACAD_MLINESTYLE
350
17
  3
ACAD_LAYOUT
350
1A
  3
ACAD_PLOTSETTINGS
350
19
  3
ACAD_PLOTSTYLENAME
350
E
  0
DICTIONARY
  5
D
102
{ACAD_REACTORS
330
C
102
}
100
AcDbDictionary
280
0
281
1
  0
ACDBDICTIONARYWDFLT
  5
E
102
{ACAD_REACTORS
330
C
102
}
100
AcDbDictionary
281
1
  3
Normal
350
F
100
AcDbDictionaryWithDefault
340
F
  0
DICTIONARY
  5
17
102
{ACAD_REACTORS
330
C
102
}
100
AcDbDictionary
280
0
281
1
  3
Standard
350
18
  0
DICTIONARY
  5
19
102
{ACAD_REACTORS
330
C
102
}
100
AcDbDictionary
281
1
  0
DICTIONARY
  5
1A
102
{ACAD_REACTORS
330
C
102
}
100
AcDbDictionary
281
1
  3
Model
350
793
  3
Layout1
350
794
  0
ACDBPLACEHOLDER
  5
F
102
{ACAD_REACTORS
330
E
102
}
  0
MLINESTYLE
  5
18
102
{ACAD_REACTORS
330
17
102
}
100
AcDbMlineStyle
  2
STANDARD
 70
0
  3

 62
256
 51
90.0
 52
90.0
 71
2
 49
0.5
 62
256
  6
BYLAYER
 49
-0.5
 62
256
  6
BYLAYER
  0
LAYOUT
  5
793
102
{ACAD_REACTORS
330
1A
102
}
100
AcDbPlotSettings
  1

  2
none_device
  4

  6

 40
0.0
 41
0.0
 42
0.0
 43
0.0
 44
210.0
 45
297.0
 46
0.0
 47
0.0
 48
0.0
 49
0.0
140
0.0
141
0.0
142
1.0
143
1.0
 70
1024
 72
1
 73
0
 74
0
  7

 75
0
147
1.0
148
0.0
149
0.0
100
AcDbLayout
  1
Model
 70
0
 71
0
 10
0.0
 20
0.0
 11
210.0
 21
297.0
 12
0.0
 22
0.0
 32
0.0
 14
0.0
 24
0.0
 34
0.0
 15
0.0
 25
0.0
 35
0.0
146
0.0
 13
0.0
 23
0.0
 33
0.0
 16
1.0
 26
0.0
 36
0.0
 17
0.0
 27
1.0
 37
0.0
 76
0
330
210
345
0
346
0
  0
LAYOUT
  5
794
102
{ACAD_REACTORS
330
1A
102
}
100
AcDbPlotSettings
  1

  2
none_device
  4

  6

 40
0.0
 41
0.0
 42
0.0
 43
0.0
 44
210.0
 45
297.0
 46
0.0
 47
0.0
 48
0.0
 49
0.0
140
0.0
141
0.0
142
1.0
143
1.0
 70
0
 72
1
 73
0
 74
0
  7

 75
0
147
1.0
148
0.0
149
0.0
100
AcDbLayout
  1
Layout1
 70
0
 71
1
 10
0.0
 20
0.0
 11
210.0
 21
297.0
 12
0.0
 22
0.0
 32
0.0
 14
0.0
 24
0.0
 34
0.0
 15
0.0
 25
0.0
 35
0.0
146
0.0
 13
0.0
 23
0.0
 33
0.0
 16
1.0
 26
0.0
 36
0.0
 17
0.0
 27
1.0
 37
0.0
 76
0
330
211
345
0
346
0
  0
ENDSEC
  0
EOF
