999
DXF file: C:\Users\sesa63760\OneDrive - Schneider Electric\Documents\7-Dev\_Creo\CAD\MCADUE0000003_3D-CAD\drw0001_1.dxf
999
Pro/ENGINEER 2019471 by Parametric Technology Corporation
  0
SECTION
  2
HEADER
  9
$ACADVER
  1
AC1024
  9
$DWGCODEPAGE
  3
ANSI_1252
  9
$EXTMAX
 10
1019.1504584326
 20
1441.369934069
 30
0.0
  9
$EXTMIN
 10
0.0
 20
0.0
 30
0.0
  9
$LIMMIN
 10
0.0
 20
0.0
  9
$LIMMAX
 10
1019.1504584326
 20
1441.369934069
  9
$VIEWCTR
 10
509.5752292163
 20
720.6849670345
  9
$VIEWSIZE
 40
1441.369934069
  9
$CLAYER
  8
0
  9
$LTSCALE
 40
93.9559660726
  9
$CELTYPE
  6
BYLAYER
  9
$DIMSCALE
 40
1.0
  9
$DIMASZ
 40
12.1327435528
  9
$DIMEXO
 40
1.0
  9
$DIMDLI
 40
64.9150311047
  9
$DIMEXE
 40
1.0
  9
$DIMCEN
 40
15.3746126301
  9
$DIMLFAC
 40
1.0
  9
$DIMBLK
  1
_FILLED
  9
$DIMALT
 70
0
  9
$DIMALTF
 40
0.0393700787
  9
$DIMTXT
 40
16.9858409739
  9
$DIMTOL
 70
1
  9
$DIMLIM
 70
0
  9
$DIMTFAC
 40
1.0
  9
$DIMTP
 40
0.01
  9
$DIMTM
 40
0.01
  9
$DIMGAP
 40
0.625
  9
$DIMDSEP
 70
46
  9
$AUNITS
 70
0
  9
$PDMODE
 70
3
  9
$PDSIZE
 40
0.3125
  9
$HANDSEED
  5
38D
  9
$TILEMODE
 70
1
  9
$MEASUREMENT
 70
1
  9
$INSUNITS
 70
4
  0
ENDSEC
  0
SECTION
  2
CLASSES
  0
CLASS
  1
ACDBDICTIONARYWDFLT
  2
AcDbDictionaryWithDefault
  3
AutoCAD 2000
 90
0
 91
1
280
0
281
0
  0
CLASS
  1
ACDBPLACEHOLDER
  2
AcDbPlaceHolder
  3
AutoCAD 2000
 90
0
 91
1
280
0
281
0
  0
CLASS
  1
LAYOUT
  2
AcDbLayout
  3
AutoCAD 2000
 90
0
 91
0
280
0
281
0
  0
ENDSEC
  0
SECTION
  2
TABLES
  0
TABLE
  2
VPORT
  5
8
100
AcDbSymbolTable
 70
2
  0
VPORT
  5
1F4
100
AcDbSymbolTableRecord
100
AcDbViewportTableRecord
  2
*ACTIVE
 70
0
 10
0.0
 20
0.0
 11
1.0
 21
1.0
 12
509.5752292163
 22
720.6849670345
 13
0.0
 23
0.0
 14
1.0
 24
1.0
 15
0.0
 25
0.0
 16
0.0
 26
0.0
 36
1.0
 17
0.0
 27
0.0
 37
0.0
 40
1441.369934069
 41
0.7070707071
 42
50.0
 43
0.0
 44
0.0
 50
0.0
 51
0.0
 71
0
 72
100
 73
1
 74
1
 75
0
 76
0
 77
0
 78
0
  0
ENDTAB
  0
TABLE
  2
LTYPE
  5
5
100
AcDbSymbolTable
 70
6
  0
LTYPE
  5
14
100
AcDbSymbolTableRecord
100
AcDbLinetypeTableRecord
  2
BYBLOCK
 70
0
  3

 72
65
 73
0
 40
0.0
  0
LTYPE
  5
15
100
AcDbSymbolTableRecord
100
AcDbLinetypeTableRecord
  2
BYLAYER
 70
0
  3

 72
65
 73
0
 40
0.0
  0
LTYPE
  5
16
100
AcDbSymbolTableRecord
100
AcDbLinetypeTableRecord
  2
CONTINUOUS
 70
64
  3
Solid line
 72
65
 73
0
 40
0.0
  0
LTYPE
  5
1F5
100
AcDbSymbolTableRecord
100
AcDbLinetypeTableRecord
  2
CENTER
 70
64
  3
____ _ ____ _ ____ _ ____ _ ____ _ ____ _ ____
 72
65
 73
4
 40
0.6
 49
0.375
 74
0
 49
-0.075
 74
0
 49
0.075
 74
0
 49
-0.075
 74
0
  0
LTYPE
  5
1F6
100
AcDbSymbolTableRecord
100
AcDbLinetypeTableRecord
  2
HIDDEN
 70
64
  3
- - - - - - - - - - - - - - - - - - - -
 72
65
 73
2
 40
0.2
 49
0.1
 74
0
 49
-0.1
 74
0
  0
LTYPE
  5
1F7
100
AcDbSymbolTableRecord
100
AcDbLinetypeTableRecord
  2
PHANTOM
 70
64
  3
_____ _ _ _____ _ _ _____ _ _ _____
 72
65
 73
6
 40
0.8
 49
0.45
 74
0
 49
-0.05
 74
0
 49
0.1
 74
0
 49
-0.05
 74
0
 49
0.1
 74
0
 49
-0.05
 74
0
  0
LTYPE
  5
1F8
100
AcDbSymbolTableRecord
100
AcDbLinetypeTableRecord
  2
DOT
 70
64
  3
. . . . . . . . . . . . . . . . . . . .
 72
65
 73
2
 40
0.2
 49
0.1
 74
0
 49
-0.1
 74
0
  0
LTYPE
  5
1F9
100
AcDbSymbolTableRecord
100
AcDbLinetypeTableRecord
  2
DASHED
 70
64
  3
- - - - - - - - - - - - - - - - - - - -
 72
65
 73
2
 40
0.2
 49
0.1
 74
0
 49
-0.1
 74
0
  0
ENDTAB
  0
TABLE
  2
LAYER
  5
2
100
AcDbSymbolTable
 70
36
  0
LAYER
  5
10
100
AcDbSymbolTableRecord
100
AcDbLayerTableRecord
  2
0
 70
0
 62
7
  6
CONTINUOUS
370
-3
390
F
  0
LAYER
  5
1FA
100
AcDbSymbolTableRecord
100
AcDbLayerTableRecord
  2
DEFAULT_1
 70
0
 62
7
  6
CENTER
370
-3
390
F
  0
LAYER
  5
1FB
100
AcDbSymbolTableRecord
100
AcDbLayerTableRecord
  2
DEFAULT_2
 70
0
 62
8
  6
HIDDEN
370
-3
390
F
  0
LAYER
  5
1FC
100
AcDbSymbolTableRecord
100
AcDbLayerTableRecord
  2
DEFAULT_3
 70
0
 62
7
  6
PHANTOM
370
-3
390
F
  0
LAYER
  5
1FD
100
AcDbSymbolTableRecord
100
AcDbLayerTableRecord
  2
00_COMPONENTS
 70
0
 62
7
  6
CONTINUOUS
370
-3
390
F
  0
LAYER
  5
1FE
100
AcDbSymbolTableRecord
100
AcDbLayerTableRecord
  2
01_1_DEFAULT_DATUMS
 70
0
 62
7
  6
CONTINUOUS
370
-3
390
F
  0
LAYER
  5
1FF
100
AcDbSymbolTableRecord
100
AcDbLayerTableRecord
  2
01_PLANES
 70
0
 62
7
  6
CONTINUOUS
370
-3
390
F
  0
LAYER
  5
200
100
AcDbSymbolTableRecord
100
AcDbLayerTableRecord
  2
02_COORD_SYS
 70
0
 62
7
  6
CONTINUOUS
370
-3
390
F
  0
LAYER
  5
201
100
AcDbSymbolTableRecord
100
AcDbLayerTableRecord
  2
03_AXES
 70
0
 62
7
  6
CONTINUOUS
370
-3
390
F
  0
LAYER
  5
202
100
AcDbSymbolTableRecord
100
AcDbLayerTableRecord
  2
04_POINTS
 70
0
 62
7
  6
CONTINUOUS
370
-3
390
F
  0
LAYER
  5
203
100
AcDbSymbolTableRecord
100
AcDbLayerTableRecord
  2
05_CURVES
 70
0
 62
7
  6
CONTINUOUS
370
-3
390
F
  0
LAYER
  5
204
100
AcDbSymbolTableRecord
100
AcDbLayerTableRecord
  2
06_SURFS
 70
0
 62
7
  6
CONTINUOUS
370
-3
390
F
  0
LAYER
  5
205
100
AcDbSymbolTableRecord
100
AcDbLayerTableRecord
  2
07_COSMETICS
 70
0
 62
7
  6
CONTINUOUS
370
-3
390
F
  0
LAYER
  5
206
100
AcDbSymbolTableRecord
100
AcDbLayerTableRecord
  2
10_NOTES
 70
0
 62
7
  6
CONTINUOUS
370
-3
390
F
  0
LAYER
  5
207
100
AcDbSymbolTableRecord
100
AcDbLayerTableRecord
  2
11_NOTES_PUB
 70
0
 62
7
  6
CONTINUOUS
370
-3
390
F
  0
LAYER
  5
208
100
AcDbSymbolTableRecord
100
AcDbLayerTableRecord
  2
13_REF_GTOL
 70
0
 62
7
  6
CONTINUOUS
370
-3
390
F
  0
LAYER
  5
209
100
AcDbSymbolTableRecord
100
AcDbLayerTableRecord
  2
16_MISC
 70
0
 62
7
  6
CONTINUOUS
370
-3
390
F
  0
LAYER
  5
20A
100
AcDbSymbolTableRecord
100
AcDbLayerTableRecord
  2
17_NO_PRINT
 70
0
 62
7
  6
CONTINUOUS
370
-3
390
F
  0
LAYER
  5
20B
100
AcDbSymbolTableRecord
100
AcDbLayerTableRecord
  2
18_DATUM_CAMS_JOINTS
 70
0
 62
7
  6
CONTINUOUS
370
-3
390
F
  0
LAYER
  5
20C
100
AcDbSymbolTableRecord
100
AcDbLayerTableRecord
  2
19_DATUM_FUNCTIONAL
 70
0
 62
7
  6
CONTINUOUS
370
-3
390
F
  0
LAYER
  5
20D
100
AcDbSymbolTableRecord
100
AcDbLayerTableRecord
  2
20_DATUM_KINEMATIC_SCHEME
 70
0
 62
7
  6
CONTINUOUS
370
-3
390
F
  0
ENDTAB
  0
TABLE
  2
STYLE
  5
3
100
AcDbSymbolTable
 70
1
  0
STYLE
  5
11
100
AcDbSymbolTableRecord
100
AcDbTextStyleTableRecord
  2
STANDARD
 70
0
 40
0.0
 41
0.8
 50
0.0
 71
0
 42
0.2
  3
txt
  4

  0
STYLE
  5
20E
100
AcDbSymbolTableRecord
100
AcDbTextStyleTableRecord
  2
TEXTSTYLE_1
 70
0
 40
0.0
 41
0.8
 50
0.0
 71
0
 42
0.2
  3
gdt
  4

  0
ENDTAB
  0
TABLE
  2
VIEW
  5
6
100
AcDbSymbolTable
 70
0
  0
ENDTAB
  0
TABLE
  2
UCS
  5
7
100
AcDbSymbolTable
 70
0
  0
ENDTAB
  0
TABLE
  2
APPID
  5
9
100
AcDbSymbolTable
 70
1
  0
APPID
  5
20F
100
AcDbSymbolTableRecord
100
AcDbRegAppTableRecord
  2
ACAD
 70
0
  0
ENDTAB
  0
TABLE
  2
BLOCK_RECORD
  5
1
100
AcDbSymbolTable
 70
0
  0
BLOCK_RECORD
  5
210
100
AcDbSymbolTableRecord
100
AcDbBlockTableRecord
  2
*Model_Space
  0
BLOCK_RECORD
  5
211
100
AcDbSymbolTableRecord
100
AcDbBlockTableRecord
  2
*Paper_Space
  0
BLOCK_RECORD
  5
212
100
AcDbSymbolTableRecord
100
AcDbBlockTableRecord
  2
_FILLED
  0
ENDTAB
  0
TABLE
  2
DIMSTYLE
  5
A
100
AcDbSymbolTable
 70
1
100
AcDbDimStyleTable
 71
0
  0
DIMSTYLE
105
213
100
AcDbSymbolTableRecord
100
AcDbDimStyleTableRecord
  2
STANDARD
 70
0
  3

  4

 40
1.0
 41
12.1327435528
 42
1.0
 43
0.38
 44
1.0
 45
0.0
 46
0.0
 47
0.01
 48
0.01
140
16.9858409739
141
0.09
142
0.0
143
25.4
144
1.0
145
0.0
146
1.0
147
0.625
 71
1
 72
0
 73
0
 74
0
 75
0
 76
0
 77
1
 78
8
 79
2
170
0
171
1
172
0
173
0
174
0
175
0
176
0
177
0
178
0
270
2
179
2
271
2
272
2
273
2
274
2
275
0
280
0
281
0
282
0
283
1
284
8
285
0
286
0
287
3
288
0
340
11
278
46
341
212
342
212
343
212
344
212
  0
ENDTAB
  0
ENDSEC
  0
SECTION
  2
BLOCKS
  0
BLOCK
  5
20
100
AcDbEntity
  8
0
100
AcDbBlockBegin
  2
*Model_Space
 70
0
 10
0.0
 20
0.0
 30
0.0
  3
*Model_Space
  1

  0
ENDBLK
  5
21
100
AcDbEntity
  8
0
100
AcDbBlockEnd
  0
BLOCK
  5
1C
100
AcDbEntity
  8
0
100
AcDbBlockBegin
  2
*Paper_Space
 70
0
 10
0.0
 20
0.0
 30
0.0
  3
*Paper_Space
  1

  0
ENDBLK
  5
1D
100
AcDbEntity
  8
0
100
AcDbBlockEnd
  0
BLOCK
  5
214
100
AcDbEntity
  8
0
100
AcDbBlockBegin
  2
_FILLED
 70
64
 10
0.0
 20
0.0
  3
_FILLED
  1

  0
SOLID
  5
215
100
AcDbEntity
  8
0
  6
BYBLOCK
 62
0
100
AcDbTrace
 10
0.0
 20
0.0
 11
-1.0
 21
0.25
 12
-1.0
 22
-0.25
 13
-1.0
 23
-0.25
  0
ENDBLK
  5
216
100
AcDbEntity
  8
0
  6
BYBLOCK
 62
0
100
AcDbBlockEnd
  0
ENDSEC
  0
SECTION
  2
ENTITIES
  0
LINE
  5
217
100
AcDbEntity
  8
0
100
AcDbLine
 62
7
  6
CONTINUOUS
 10
346.3540581889
 20
1290.3775959937
 11
343.6822422167
 21
1288.8350315308
  0
LINE
  5
218
100
AcDbEntity
  8
0
100
AcDbLine
 62
7
  6
CONTINUOUS
 10
353.9151946752
 20
1282.9271673281
 11
352.9252492505
 21
1282.3556254822
  0
LINE
  5
219
100
AcDbEntity
  8
0
100
AcDbLine
 62
7
  6
CONTINUOUS
 10
743.6535585679
 20
148.6358335267
 11
750.4607710819
 21
149.6190456473
  0
LINE
  5
21A
100
AcDbEntity
  8
0
100
AcDbLine
 62
7
  6
CONTINUOUS
 10
346.7236297112
 20
1290.7407714048
 11
346.3540581889
 21
1290.3775959937
  0
LINE
  5
21B
100
AcDbEntity
  8
0
100
AcDbLine
 62
7
  6
CONTINUOUS
 10
345.7734613836
 20
1291.3835078191
 11
343.56237005
 21
1289.3431969121
  0
LINE
  5
21C
100
AcDbEntity
  8
0
100
AcDbLine
 62
7
  6
CONTINUOUS
 10
701.1028787664
 20
170.9855857169
 11
706.68702791
 21
170.9437473961
  0
LINE
  5
21D
100
AcDbEntity
  8
0
100
AcDbLine
 62
7
  6
CONTINUOUS
 10
700.9023790089
 20
170.4921856562
 11
707.1847879289
 21
169.6181943445
  0
LINE
  5
21E
100
AcDbEntity
  8
0
100
AcDbLine
 62
7
  6
CONTINUOUS
 10
706.68702791
 20
170.9437473961
 11
707.1847879289
 21
170.8744344421
  0
LINE
  5
21F
100
AcDbEntity
  8
0
100
AcDbLine
 62
7
  6
CONTINUOUS
 10
345.7734613836
 20
1327.6868706968
 11
350.0325342156
 21
1333.0927432619
  0
LINE
  5
220
100
AcDbEntity
  8
0
100
AcDbLine
 62
7
  6
CONTINUOUS
 10
283.104492676
 20
342.1938948888
 11
682.4246933662
 21
111.6514850937
  0
LINE
  5
221
100
AcDbEntity
  8
0
100
AcDbLine
 62
7
  6
CONTINUOUS
 10
680.2871148987
 20
113.8731120796
 11
283.9825258976
 21
342.6744970415
  0
LINE
  5
222
100
AcDbEntity
  8
0
100
AcDbLine
 62
7
  6
CONTINUOUS
 10
691.7975287115
 20
175.7487545068
 11
700.9023790089
 21
170.4921856562
  0
LINE
  5
223
100
AcDbEntity
  8
0
100
AcDbLine
 62
7
  6
CONTINUOUS
 10
691.7975287115
 20
176.3579105377
 11
701.1028787664
 21
170.9855857169
  0
LINE
  5
224
100
AcDbEntity
  8
0
100
AcDbLine
 62
7
  6
CONTINUOUS
 10
707.1847879289
 20
169.6181943445
 11
735.2333825768
 21
153.42469702
  0
LINE
  5
225
100
AcDbEntity
  8
0
100
AcDbLine
 62
7
  6
CONTINUOUS
 10
735.3149363891
 20
153.4500303704
 11
743.6535585679
 21
148.6358335225
  0
LINE
  5
226
100
AcDbEntity
  8
0
100
AcDbLine
 62
7
  6
CONTINUOUS
 10
706.68702791
 20
170.9437473961
 11
691.7975287115
 21
179.5400092929
  0
LINE
  5
227
100
AcDbEntity
  8
0
100
AcDbLine
 62
7
  6
CONTINUOUS
 10
735.2333825768
 20
154.6809371176
 11
707.1847879289
 21
170.8744344421
  0
LINE
  5
228
100
AcDbEntity
  8
0
100
AcDbLine
 62
7
  6
CONTINUOUS
 10
692.0809037438
 20
179.7542212221
 11
742.4921000993
 21
150.6499618624
  0
LINE
  5
229
100
AcDbEntity
  8
0
100
AcDbLine
 62
7
  6
CONTINUOUS
 10
691.9337223835
 20
181.9490009895
 11
693.3479418338
 21
181.1325194805
  0
LINE
  5
22A
100
AcDbEntity
  8
0
100
AcDbLine
 62
7
  6
CONTINUOUS
 10
693.3479418338
 20
183.5133613068
 11
691.9337223835
 21
184.3298428159
  0
LINE
  5
22B
100
AcDbEntity
  8
0
100
AcDbLine
 62
7
  6
CONTINUOUS
 10
691.7975287115
 20
188.082639281
 11
742.4825638599
 21
158.8202825972
  0
LINE
  5
22C
100
AcDbEntity
  8
0
100
AcDbLine
 62
7
  6
CONTINUOUS
 10
728.0165245807
 20
189.0681488522
 11
737.0270377234
 21
183.8660444118
  0
LINE
  5
22D
100
AcDbEntity
  8
0
100
AcDbLine
 62
7
  6
CONTINUOUS
 10
283.1044045458
 20
342.1935570996
 11
283.1044686892
 21
342.1933766816
  0
LINE
  5
22E
100
AcDbEntity
  8
0
100
AcDbLine
 62
7
  6
CONTINUOUS
 10
283.1044045458
 20
342.1935570996
 11
283.1044045458
 21
1293.1165602428
  0
LINE
  5
22F
100
AcDbEntity
  8
0
100
AcDbLine
 62
7
  6
CONTINUOUS
 10
283.9825258976
 20
342.6744970415
 11
283.9825258976
 21
1290.1903769269
  0
LINE
  5
230
100
AcDbEntity
  8
0
100
AcDbLine
 62
7
  6
CONTINUOUS
 10
292.5136677821
 20
1234.3177783985
 11
292.5136677821
 21
1226.3402257179
  0
LINE
  5
231
100
AcDbEntity
  8
0
100
AcDbLine
 62
7
  6
CONTINUOUS
 10
292.5136677821
 20
1030.1921741161
 11
292.5136677821
 21
1022.2146214355
  0
LINE
  5
232
100
AcDbEntity
  8
0
100
AcDbLine
 62
7
  6
CONTINUOUS
 10
292.5136677821
 20
601.5284051231
 11
292.5136677821
 21
593.5508524425
  0
LINE
  5
233
100
AcDbEntity
  8
0
100
AcDbLine
 62
7
  6
CONTINUOUS
 10
292.5136677821
 20
397.4028008407
 11
292.5136677821
 21
389.4252481601
  0
LINE
  5
234
100
AcDbEntity
  8
0
100
AcDbLine
 62
7
  6
CONTINUOUS
 10
292.8112192477
 20
1234.0057280039
 11
292.8112192477
 21
1226.3099693751
  0
LINE
  5
235
100
AcDbEntity
  8
0
100
AcDbLine
 62
7
  6
CONTINUOUS
 10
292.8112192477
 20
1029.8801237215
 11
292.8112192477
 21
1022.1843650927
  0
LINE
  5
236
100
AcDbEntity
  8
0
100
AcDbLine
 62
7
  6
CONTINUOUS
 10
292.8112192477
 20
601.2163547285
 11
292.8112192477
 21
593.5205960996
  0
LINE
  5
237
100
AcDbEntity
  8
0
100
AcDbLine
 62
7
  6
CONTINUOUS
 10
292.8112192477
 20
397.0907504461
 11
292.8112192477
 21
389.3949918173
  0
LINE
  5
238
100
AcDbEntity
  8
0
100
AcDbLine
 62
7
  6
CONTINUOUS
 10
689.206563134
 20
1066.5410864092
 11
684.947490302
 21
1064.0867384388
  0
LINE
  5
239
100
AcDbEntity
  8
0
100
AcDbLine
 62
7
  6
CONTINUOUS
 10
750.6371239899
 20
1102.0088253516
 11
750.4607710819
 21
1101.9097238652
  0
LINE
  5
23A
100
AcDbEntity
  8
0
100
AcDbLine
 62
7
  6
CONTINUOUS
 10
740.0893358604
 20
1060.3850165529
 11
743.6535585679
 21
1061.6725233613
  0
LINE
  5
23B
100
AcDbEntity
  8
0
100
AcDbLine
 62
7
  6
CONTINUOUS
 10
742.1688052699
 20
1062.1564233082
 11
742.4663567355
 21
1062.2637702679
  0
LINE
  5
23C
100
AcDbEntity
  8
0
100
AcDbLine
 62
7
  6
CONTINUOUS
 10
343.1824958061
 20
1262.9389034041
 11
343.1824958061
 21
1265.1336831715
  0
LINE
  5
23D
100
AcDbEntity
  8
0
100
AcDbLine
 62
7
  6
CONTINUOUS
 10
343.1824958061
 20
1269.1391498868
 11
343.1824958061
 21
1288.5783403681
  0
LINE
  5
23E
100
AcDbEntity
  8
0
100
AcDbLine
 62
7
  6
CONTINUOUS
 10
343.914736213
 20
1262.6620099932
 11
343.914736213
 21
1265.2611292026
  0
LINE
  5
23F
100
AcDbEntity
  8
0
100
AcDbLine
 62
7
  6
CONTINUOUS
 10
343.914736213
 20
1268.7164002546
 11
343.914736213
 21
1287.5577299834
  0
LINE
  5
240
100
AcDbEntity
  8
0
100
AcDbLine
 62
7
  6
CONTINUOUS
 10
345.7734613836
 20
1291.3835078191
 11
345.7734613836
 21
1327.6868706968
  0
LINE
  5
241
100
AcDbEntity
  8
0
100
AcDbLine
 62
7
  6
CONTINUOUS
 10
346.3540581889
 20
1267.3080889154
 11
346.3540581889
 21
1269.5656930533
  0
LINE
  5
242
100
AcDbEntity
  8
0
100
AcDbLine
 62
7
  6
CONTINUOUS
 10
346.3540581889
 20
1287.292492757
 11
346.3540581889
 21
1290.3775959937
  0
LINE
  5
243
100
AcDbEntity
  8
0
100
AcDbLine
 62
7
  6
CONTINUOUS
 10
346.7236297112
 20
1290.7407714048
 11
346.7236297112
 21
1287.0791253661
  0
LINE
  5
244
100
AcDbEntity
  8
0
100
AcDbLine
 62
7
  6
CONTINUOUS
 10
346.7236297112
 20
1269.5656930533
 11
346.7236297112
 21
1267.0947215245
  0
LINE
  5
245
100
AcDbEntity
  8
0
100
AcDbLine
 62
7
  6
CONTINUOUS
 10
346.7236297112
 20
1264.867992617
 11
346.7236297112
 21
1264.6404963177
  0
LINE
  5
246
100
AcDbEntity
  8
0
100
AcDbLine
 62
7
  6
CONTINUOUS
 10
346.894142946
 20
1269.7171360962
 11
346.894142946
 21
1266.9962778897
  0
LINE
  5
247
100
AcDbEntity
  8
0
100
AcDbLine
 62
7
  6
CONTINUOUS
 10
346.894142946
 20
1264.7993702033
 11
346.894142946
 21
1264.426367629
  0
LINE
  5
248
100
AcDbEntity
  8
0
100
AcDbLine
 62
7
  6
CONTINUOUS
 10
347.2889133815
 20
1264.6404963177
 11
347.2889133815
 21
1265.5125866154
  0
LINE
  5
249
100
AcDbEntity
  8
0
100
AcDbLine
 62
7
  6
CONTINUOUS
 10
348.7031328318
 20
1264.6961051064
 11
348.7031328318
 21
1263.8240148087
  0
LINE
  5
24A
100
AcDbEntity
  8
0
100
AcDbLine
 62
7
  6
CONTINUOUS
 10
346.9349198521
 20
1325.6727423611
 11
346.8949504668
 21
1291.3822006006
  0
LINE
  5
24B
100
AcDbEntity
  8
0
100
AcDbLine
 62
7
  6
CONTINUOUS
 10
346.8949504668
 20
1291.3822006006
 11
346.894142946
 21
1286.9806817312
  0
LINE
  5
24C
100
AcDbEntity
  8
0
100
AcDbLine
 62
7
  6
CONTINUOUS
 10
750.4607710819
 20
1101.9106229544
 11
743.6535585679
 21
1097.975886239
  0
LINE
  5
24D
100
AcDbEntity
  8
0
100
AcDbLine
 62
7
  6
CONTINUOUS
 10
728.0165245807
 20
1065.8014758091
 11
729.0064700055
 21
1066.373017655
  0
LINE
  5
24E
100
AcDbEntity
  8
0
100
AcDbLine
 62
7
  6
CONTINUOUS
 10
689.206563134
 20
1031.5788410778
 11
691.2977823009
 21
1032.7861998197
  0
LINE
  5
24F
100
AcDbEntity
  8
0
100
AcDbLine
 62
7
  6
CONTINUOUS
 10
739.239422464
 20
1060.4651534522
 11
742.1688052699
 21
1062.1564233082
  0
LINE
  5
250
100
AcDbEntity
  8
0
100
AcDbLine
 62
7
  6
CONTINUOUS
 10
693.3479418338
 20
183.5133613068
 11
694.5194397132
 21
181.8803846914
  0
LINE
  5
251
100
AcDbEntity
  8
0
100
AcDbLine
 62
7
  6
CONTINUOUS
 10
352.9252492505
 20
1282.3556254822
 11
352.9252492505
 21
1263.5142958142
  0
LINE
  5
252
100
AcDbEntity
  8
0
100
AcDbLine
 62
7
  6
CONTINUOUS
 10
353.9151946752
 20
1282.9271673281
 11
353.9151946752
 21
1262.9427634865
  0
LINE
  5
253
100
AcDbEntity
  8
0
100
AcDbLine
 62
7
  6
CONTINUOUS
 10
354.0059582401
 20
1321.547597437
 11
354.0059582401
 21
1282.9271673281
  0
LINE
  5
254
100
AcDbEntity
  8
0
100
AcDbLine
 62
7
  6
CONTINUOUS
 10
354.1120835624
 20
1321.5290987027
 11
354.1120835624
 21
1322.8726738531
  0
LINE
  5
255
100
AcDbEntity
  8
0
100
AcDbLine
 62
7
  6
CONTINUOUS
 10
382.1581017511
 20
1301.7771752296
 11
382.1607053645
 21
1302.1563205801
  0
LINE
  5
256
100
AcDbEntity
  8
0
100
AcDbLine
 62
7
  6
CONTINUOUS
 10
382.1607053645
 20
1302.1563205801
 11
382.079124398
 21
1306.61034021
  0
LINE
  5
257
100
AcDbEntity
  8
0
100
AcDbLine
 62
7
  6
CONTINUOUS
 10
403.8572203586
 20
1297.3000286275
 11
403.8572203586
 21
1299.6808704538
  0
LINE
  5
258
100
AcDbEntity
  8
0
100
AcDbLine
 62
7
  6
CONTINUOUS
 10
405.2714398089
 20
1298.8643889448
 11
405.2714398089
 21
1296.4835471184
  0
LINE
  5
259
100
AcDbEntity
  8
0
100
AcDbLine
 62
7
  6
CONTINUOUS
 10
689.206563134
 20
1030.2377235315
 11
691.4176544676
 21
1032.2780344385
  0
LINE
  5
25A
100
AcDbEntity
  8
0
100
AcDbLine
 62
7
  6
CONTINUOUS
 10
635.3654154064
 20
1098.3232129262
 11
635.3654154064
 21
1099.1953032238
  0
LINE
  5
25B
100
AcDbEntity
  8
0
100
AcDbLine
 62
7
  6
CONTINUOUS
 10
636.7796348567
 20
1098.3788217148
 11
636.7796348567
 21
1097.5067314171
  0
LINE
  5
25C
100
AcDbEntity
  8
0
100
AcDbLine
 62
7
  6
CONTINUOUS
 10
652.8193191531
 20
1090.3742907778
 11
652.9009001197
 21
1087.5741139362
  0
LINE
  5
25D
100
AcDbEntity
  8
0
100
AcDbLine
 62
7
  6
CONTINUOUS
 10
680.2871148986
 20
1061.388991965
 11
680.2871148986
 21
113.8731120796
  0
LINE
  5
25E
100
AcDbEntity
  8
0
100
AcDbLine
 62
7
  6
CONTINUOUS
 10
684.947490302
 20
111.7951611317
 11
684.947490302
 21
1064.0867384388
  0
LINE
  5
25F
100
AcDbEntity
  8
0
100
AcDbLine
 62
7
  6
CONTINUOUS
 10
689.206563134
 20
117.2010336968
 11
689.206563134
 21
153.5043965745
  0
LINE
  5
260
100
AcDbEntity
  8
0
100
AcDbLine
 62
7
  6
CONTINUOUS
 10
689.206563134
 20
1030.2377235315
 11
689.206563134
 21
1066.5410864092
  0
LINE
  5
261
100
AcDbEntity
  8
0
100
AcDbLine
 62
7
  6
CONTINUOUS
 10
691.4176544676
 20
1032.2780344385
 11
691.4176544676
 21
155.5447074815
  0
LINE
  5
262
100
AcDbEntity
  8
0
100
AcDbLine
 62
7
  6
CONTINUOUS
 10
691.7975287115
 20
156.3095640255
 11
691.7975287115
 21
1033.0428909824
  0
LINE
  5
263
100
AcDbEntity
  8
0
100
AcDbLine
 62
7
  6
CONTINUOUS
 10
691.9337223835
 20
181.9490009895
 11
691.9337223835
 21
184.3298428159
  0
LINE
  5
264
100
AcDbEntity
  8
0
100
AcDbLine
 62
7
  6
CONTINUOUS
 10
691.9337223835
 20
1130.9827452359
 11
691.9337223835
 21
1133.3635870622
  0
LINE
  5
265
100
AcDbEntity
  8
0
100
AcDbLine
 62
7
  6
CONTINUOUS
 10
693.3479418338
 20
1132.5471055532
 11
693.3479418338
 21
1130.1662637269
  0
LINE
  5
266
100
AcDbEntity
  8
0
100
AcDbLine
 62
7
  6
CONTINUOUS
 10
693.3479418338
 20
183.5133613068
 11
693.3479418338
 21
181.1325194805
  0
LINE
  5
267
100
AcDbEntity
  8
0
100
AcDbLine
 62
7
  6
CONTINUOUS
 10
707.1847879289
 20
1118.9147440972
 11
707.1847879289
 21
1117.6585039996
  0
LINE
  5
268
100
AcDbEntity
  8
0
100
AcDbLine
 62
7
  6
CONTINUOUS
 10
707.1847879289
 20
170.8744344421
 11
707.1847879289
 21
169.6181943445
  0
LINE
  5
269
100
AcDbEntity
  8
0
100
AcDbLine
 62
7
  6
CONTINUOUS
 10
728.0165245807
 20
1065.8014758091
 11
728.0165245807
 21
189.0681488522
  0
LINE
  5
26A
100
AcDbEntity
  8
0
100
AcDbLine
 62
7
  6
CONTINUOUS
 10
735.3149363891
 20
1102.7900830912
 11
735.3149363891
 21
1101.4465079408
  0
LINE
  5
26B
100
AcDbEntity
  8
0
100
AcDbLine
 62
7
  6
CONTINUOUS
 10
735.3149363891
 20
154.7936055208
 11
735.3149363891
 21
153.4500303704
  0
LINE
  5
26C
100
AcDbEntity
  8
0
100
AcDbLine
 62
7
  6
CONTINUOUS
 10
737.0270377234
 20
1060.5993713688
 11
737.0270377234
 21
183.8660444118
  0
LINE
  5
26D
100
AcDbEntity
  8
0
100
AcDbLine
 62
7
  6
CONTINUOUS
 10
740.119604304
 20
183.6626234883
 11
740.119604304
 21
1060.3959504453
  0
LINE
  5
26E
100
AcDbEntity
  8
0
100
AcDbLine
 62
7
  6
CONTINUOUS
 10
742.4921000993
 20
150.6499618624
 11
742.452584728
 21
184.5053677347
  0
LINE
  5
26F
100
AcDbEntity
  8
0
100
AcDbLine
 62
7
  6
CONTINUOUS
 10
743.6535585679
 20
184.9391964044
 11
743.6535585679
 21
148.6358335267
  0
LINE
  5
270
100
AcDbEntity
  8
0
100
AcDbLine
 62
7
  6
CONTINUOUS
 10
743.6535585679
 20
1061.6725233613
 11
743.6535585679
 21
1097.9758862433
  0
LINE
  5
271
100
AcDbEntity
  8
0
100
AcDbLine
 62
7
  6
CONTINUOUS
 10
750.4607710819
 20
1101.9106229544
 11
750.4607710819
 21
149.6190456473
  0
LINE
  5
272
100
AcDbEntity
  8
0
100
AcDbLine
 62
7
  6
CONTINUOUS
 10
751.8756199718
 20
151.7714261092
 11
751.8756199718
 21
1102.6944292524
  0
LINE
  5
273
100
AcDbEntity
  8
0
100
AcDbLine
 62
7
  6
CONTINUOUS
 10
742.4513231932
 20
1062.3195341336
 11
742.4921000993
 21
1097.3028642824
  0
LINE
  5
274
100
AcDbEntity
  8
0
100
AcDbLine
 62
7
  6
CONTINUOUS
 10
700.9023790089
 20
1118.1348926206
 11
701.1028787664
 21
1117.6384881369
  0
LINE
  5
275
100
AcDbEntity
  8
0
100
AcDbLine
 62
7
  6
CONTINUOUS
 10
751.8755558741
 20
1102.6946113364
 11
751.8756199718
 21
1102.6944292524
  0
LINE
  5
276
100
AcDbEntity
  8
0
100
AcDbLine
 62
7
  6
CONTINUOUS
 10
701.1028787664
 20
170.9855857169
 11
700.9023790089
 21
170.4921856562
  0
LINE
  5
277
100
AcDbEntity
  8
0
100
AcDbLine
 62
7
  6
CONTINUOUS
 10
707.1847879289
 20
1117.6585039996
 11
706.68702791
 21
1117.5966498161
  0
LINE
  5
278
100
AcDbEntity
  8
0
100
AcDbLine
 62
7
  6
CONTINUOUS
 10
707.1847879289
 20
1118.9147440972
 11
700.9023790089
 21
1118.1348926206
  0
LINE
  5
279
100
AcDbEntity
  8
0
100
AcDbLine
 62
7
  6
CONTINUOUS
 10
706.68702791
 20
1117.5966498161
 11
701.1028787664
 21
1117.6384881369
  0
LINE
  5
27A
100
AcDbEntity
  8
0
100
AcDbLine
 62
7
  6
CONTINUOUS
 10
691.2977823009
 20
1032.7861998197
 11
689.206563134
 21
1033.993538455
  0
LINE
  5
27B
100
AcDbEntity
  8
0
100
AcDbLine
 62
7
  6
CONTINUOUS
 10
689.206563134
 20
1035.1366125802
 11
691.0652883046
 21
1034.0635013671
  0
LINE
  5
27C
100
AcDbEntity
  8
0
100
AcDbLine
 62
7
  6
CONTINUOUS
 10
283.9825258976
 20
1290.1903769269
 11
680.2871148987
 21
1061.388991965
  0
LINE
  5
27D
100
AcDbEntity
  8
0
100
AcDbLine
 62
7
  6
CONTINUOUS
 10
684.9524543275
 20
1064.0895990252
 11
284.5271873634
 21
1295.2700046976
  0
LINE
  5
27E
100
AcDbEntity
  8
0
100
AcDbLine
 62
7
  6
CONTINUOUS
 10
341.6320826838
 20
1263.7553849131
 11
343.0463021341
 21
1262.9389034041
  0
LINE
  5
27F
100
AcDbEntity
  8
0
100
AcDbLine
 62
7
  6
CONTINUOUS
 10
629.7085847087
 20
1097.4381015215
 11
631.122804159
 21
1096.6216200125
  0
LINE
  5
280
100
AcDbEntity
  8
0
100
AcDbLine
 62
7
  6
CONTINUOUS
 10
291.3264659497
 20
1296.2520708711
 11
299.6650881285
 21
1291.4378740232
  0
LINE
  5
281
100
AcDbEntity
  8
0
100
AcDbLine
 62
7
  6
CONTINUOUS
 10
680.8679409552
 20
1071.3552832613
 11
689.206563134
 21
1066.5410864134
  0
LINE
  5
282
100
AcDbEntity
  8
0
100
AcDbLine
 62
7
  6
CONTINUOUS
 10
299.7466419408
 20
1291.4632073736
 11
327.7952365887
 21
1275.2697100491
  0
LINE
  5
283
100
AcDbEntity
  8
0
100
AcDbLine
 62
7
  6
CONTINUOUS
 10
652.9009001197
 20
1087.5741139362
 11
680.9494947676
 21
1071.3806166117
  0
LINE
  5
284
100
AcDbEntity
  8
0
100
AcDbLine
 62
7
  6
CONTINUOUS
 10
347.2889133815
 20
1264.6404963177
 11
348.7031328318
 21
1263.8240148087
  0
LINE
  5
285
100
AcDbEntity
  8
0
100
AcDbLine
 62
7
  6
CONTINUOUS
 10
635.3654154064
 20
1098.3232129262
 11
636.7796348567
 21
1097.5067314171
  0
LINE
  5
286
100
AcDbEntity
  8
0
100
AcDbLine
 62
7
  6
CONTINUOUS
 10
636.7796348567
 20
1098.3788217148
 11
635.3654154064
 21
1099.1953032238
  0
LINE
  5
287
100
AcDbEntity
  8
0
100
AcDbLine
 62
7
  6
CONTINUOUS
 10
348.7031328318
 20
1264.6961051064
 11
347.2889133815
 21
1265.5125866154
  0
LINE
  5
288
100
AcDbEntity
  8
0
100
AcDbLine
 62
7
  6
CONTINUOUS
 10
334.0776455087
 20
1274.3957187374
 11
652.8193191531
 21
1090.3742907778
  0
LINE
  5
289
100
AcDbEntity
  8
0
100
AcDbLine
 62
7
  6
CONTINUOUS
 10
737.0270377234
 20
1060.5993713688
 11
728.0165245807
 21
1065.8014758091
  0
LINE
  5
28A
100
AcDbEntity
  8
0
100
AcDbLine
 62
7
  6
CONTINUOUS
 10
352.9252492505
 20
1282.3556254822
 11
343.914736213
 21
1287.5577299834
  0
LINE
  5
28B
100
AcDbEntity
  8
0
100
AcDbLine
 62
7
  6
CONTINUOUS
 10
343.6822422167
 20
1288.8350315308
 11
353.9151946752
 21
1282.9271673281
  0
LINE
  5
28C
100
AcDbEntity
  8
0
100
AcDbLine
 62
7
  6
CONTINUOUS
 10
729.0064700055
 20
1066.373017655
 11
739.239422464
 21
1060.4651534522
  0
LINE
  5
28D
100
AcDbEntity
  8
0
100
AcDbLine
 62
7
  6
CONTINUOUS
 10
345.7734613836
 20
1291.3835078191
 11
346.9349198521
 21
1290.7129546295
  0
LINE
  5
28E
100
AcDbEntity
  8
0
100
AcDbLine
 62
7
  6
CONTINUOUS
 10
742.4921000993
 20
1062.3430765509
 11
743.6535585679
 21
1061.6725233613
  0
LINE
  5
28F
100
AcDbEntity
  8
0
100
AcDbLine
 62
7
  6
CONTINUOUS
 10
701.1028787664
 20
1117.6384881369
 11
382.1581017511
 21
1301.7771752296
  0
LINE
  5
290
100
AcDbEntity
  8
0
100
AcDbLine
 62
7
  6
CONTINUOUS
 10
700.9023790089
 20
1118.1348926206
 11
382.1607053645
 21
1302.1563205802
  0
LINE
  5
291
100
AcDbEntity
  8
0
100
AcDbLine
 62
7
  6
CONTINUOUS
 10
398.2003896609
 20
1294.9061656942
 11
399.6146091112
 21
1294.0896841851
  0
LINE
  5
292
100
AcDbEntity
  8
0
100
AcDbLine
 62
7
  6
CONTINUOUS
 10
686.2768916858
 20
1128.5888823026
 11
687.6911111361
 21
1127.7724007936
  0
LINE
  5
293
100
AcDbEntity
  8
0
100
AcDbLine
 62
7
  6
CONTINUOUS
 10
354.03052975
 20
1321.547597437
 11
382.079124398
 21
1305.3541001125
  0
LINE
  5
294
100
AcDbEntity
  8
0
100
AcDbLine
 62
7
  6
CONTINUOUS
 10
707.1847879289
 20
1117.6585039996
 11
735.2333825768
 21
1101.4650066751
  0
LINE
  5
295
100
AcDbEntity
  8
0
100
AcDbLine
 62
7
  6
CONTINUOUS
 10
742.4921000993
 20
1097.3028642824
 11
735.3149363891
 21
1101.4465079408
  0
LINE
  5
296
100
AcDbEntity
  8
0
100
AcDbLine
 62
7
  6
CONTINUOUS
 10
354.1120835624
 20
1321.5290987027
 11
346.9349198521
 21
1325.6727423611
  0
LINE
  5
297
100
AcDbEntity
  8
0
100
AcDbLine
 62
7
  6
CONTINUOUS
 10
735.2333825768
 20
1102.7212467727
 11
707.1847879289
 21
1118.9147440972
  0
LINE
  5
298
100
AcDbEntity
  8
0
100
AcDbLine
 62
7
  6
CONTINUOUS
 10
382.079124398
 20
1306.61034021
 11
354.03052975
 21
1322.8038375346
  0
LINE
  5
299
100
AcDbEntity
  8
0
100
AcDbLine
 62
7
  6
CONTINUOUS
 10
743.6535585679
 20
1097.9758862433
 11
735.3149363891
 21
1102.7900830912
  0
LINE
  5
29A
100
AcDbEntity
  8
0
100
AcDbLine
 62
7
  6
CONTINUOUS
 10
354.1120835624
 20
1322.8726738531
 11
345.7734613836
 21
1327.686870701
  0
LINE
  5
29B
100
AcDbEntity
  8
0
100
AcDbLine
 62
7
  6
CONTINUOUS
 10
403.8572203586
 20
1297.3000286275
 11
405.2714398089
 21
1296.4835471184
  0
LINE
  5
29C
100
AcDbEntity
  8
0
100
AcDbLine
 62
7
  6
CONTINUOUS
 10
691.9337223835
 20
1130.9827452359
 11
693.3479418338
 21
1130.1662637269
  0
LINE
  5
29D
100
AcDbEntity
  8
0
100
AcDbLine
 62
7
  6
CONTINUOUS
 10
693.3479418338
 20
1132.5471055532
 11
691.9337223835
 21
1133.3635870622
  0
LINE
  5
29E
100
AcDbEntity
  8
0
100
AcDbLine
 62
7
  6
CONTINUOUS
 10
405.2714398089
 20
1298.8643889448
 11
403.8572203586
 21
1299.6808704538
  0
LINE
  5
29F
100
AcDbEntity
  8
0
100
AcDbLine
 62
7
  6
CONTINUOUS
 10
350.0275701902
 20
1333.0864426209
 11
750.4528371542
 21
1101.9060369485
  0
LINE
  5
2A0
100
AcDbEntity
  8
0
100
AcDbLine
 62
7
  6
CONTINUOUS
 10
751.8755964082
 20
1102.6939722281
 11
352.555395718
 21
1333.2363820232
  0
LINE
  5
2A1
100
AcDbEntity
  8
0
100
AcDbLine
 62
7
  6
CONTINUOUS
 10
684.947490302
 20
111.7951611317
 11
689.206563134
 21
117.2010336968
  0
LINE
  5
2A2
100
AcDbEntity
  8
0
100
AcDbLine
 62
7
  6
CONTINUOUS
 10
327.7952365887
 20
1275.2697100491
 11
334.0776455087
 21
1274.3957187374
  0
LINE
  5
2A3
100
AcDbEntity
  8
0
100
AcDbLine
 62
7
  6
CONTINUOUS
 10
691.4176544676
 20
155.5447074815
 11
689.206563134
 21
153.5043965745
  0
LINE
  5
2A4
100
AcDbEntity
  8
0
100
AcDbLine
 62
7
  6
CONTINUOUS
 10
743.6535585679
 20
184.9391964044
 11
740.0893361374
 21
183.6516896961
  0
LINE
  5
2A5
100
AcDbEntity
  8
0
100
AcDbLine
 62
7
  6
CONTINUOUS
 10
284.5192534357
 20
1295.2688587463
 11
291.3264659497
 21
1296.2520708669
  0
ARC
  5
2A6
100
AcDbEntity
  8
0
100
AcDbCircle
 62
7
  6
CONTINUOUS
 10
288.4241085351
 20
397.6812479832
 40
2.4579300871
100
AcDbArc
 50
97.6492646349
 51
103.0526594122
  0
ARC
  5
2A7
100
AcDbEntity
  8
0
100
AcDbCircle
 62
7
  6
CONTINUOUS
 10
288.4241085351
 20
601.8068522656
 40
2.4579300871
100
AcDbArc
 50
97.6492646349
 51
103.0526594122
  0
ARC
  5
2A8
100
AcDbEntity
  8
0
100
AcDbCircle
 62
7
  6
CONTINUOUS
 10
292.4845439452
 20
594.7828464562
 40
2.4452056486
100
AcDbArc
 50
316.9361858048
 51
322.2893516478
  0
ARC
  5
2A9
100
AcDbEntity
  8
0
100
AcDbCircle
 62
7
  6
CONTINUOUS
 10
292.4845439452
 20
390.6572421738
 40
2.4452056487
100
AcDbArc
 50
316.9361858049
 51
322.2893516478
  0
ARC
  5
2AA
100
AcDbEntity
  8
0
100
AcDbCircle
 62
7
  6
CONTINUOUS
 10
355.2430183119
 20
1268.4970419777
 40
9.4211166335
100
AcDbArc
 50
210.0064038734
 51
216.8377762682
  0
ARC
  5
2AB
100
AcDbEntity
  8
0
100
AcDbCircle
 62
7
  6
CONTINUOUS
 10
354.2424909513
 20
1267.9228101965
 40
9.4106113969
100
AcDbArc
 50
203.5745385452
 51
210.2293041106
  0
ARC
  5
2AC
100
AcDbEntity
  8
0
100
AcDbCircle
 62
7
  6
CONTINUOUS
 10
355.2121880527
 20
1268.484057132
 40
9.387925817
100
AcDbArc
 50
202.9980875477
 51
210.0318761213
  0
ARC
  5
2AD
100
AcDbEntity
  8
0
100
AcDbCircle
 62
7
  6
CONTINUOUS
 10
354.1914810951
 20
1267.8853980286
 40
9.3477047515
100
AcDbArc
 50
210.1885850332
 51
218.6998608132
  0
ARC
  5
2AE
100
AcDbEntity
  8
0
100
AcDbCircle
 62
7
  6
CONTINUOUS
 10
344.2209731764
 20
1259.7144392548
 40
5.5781267827
100
AcDbArc
 50
103.707815142
 51
108.6047324523
  0
ARC
  5
2AF
100
AcDbEntity
  8
0
100
AcDbCircle
 62
7
  6
CONTINUOUS
 10
403.5403865368
 20
1293.4794093083
 40
3.4671875365
100
AcDbArc
 50
55.1563961793
 51
60.0484648897
  0
ARC
  5
2B0
100
AcDbEntity
  8
0
100
AcDbCircle
 62
7
  6
CONTINUOUS
 10
343.3631248665
 20
1261.6363747339
 40
3.4671679179
100
AcDbArc
 50
119.9519596112
 51
124.8434604028
  0
ARC
  5
2B1
100
AcDbEntity
  8
0
100
AcDbCircle
 62
7
  6
CONTINUOUS
 10
358.0738365006
 20
1274.8082746974
 40
2.457930087
100
AcDbArc
 50
97.6492646348
 51
103.0526594122
  0
ARC
  5
2B2
100
AcDbEntity
  8
0
100
AcDbCircle
 62
7
  6
CONTINUOUS
 10
288.4241085351
 20
1030.4706212586
 40
2.4579300871
100
AcDbArc
 50
97.6492646349
 51
103.0526594122
  0
ARC
  5
2B3
100
AcDbEntity
  8
0
100
AcDbCircle
 62
7
  6
CONTINUOUS
 10
288.4241085351
 20
1234.596225541
 40
2.4579300871
100
AcDbArc
 50
97.6492646349
 51
103.0526594122
  0
ARC
  5
2B4
100
AcDbEntity
  8
0
100
AcDbCircle
 62
7
  6
CONTINUOUS
 10
362.1342719108
 20
1267.7842688879
 40
2.4452056486
100
AcDbArc
 50
316.9361858047
 51
322.2893516478
  0
ARC
  5
2B5
100
AcDbEntity
  8
0
100
AcDbCircle
 62
7
  6
CONTINUOUS
 10
292.4845439453
 20
1227.5722197316
 40
2.4452056486
100
AcDbArc
 50
316.9361858048
 51
322.2893516479
  0
ARC
  5
2B6
100
AcDbEntity
  8
0
100
AcDbCircle
 62
7
  6
CONTINUOUS
 10
292.4845439452
 20
1023.4466154492
 40
2.4452056486
100
AcDbArc
 50
316.9361858048
 51
322.2893516479
  0
ARC
  5
2B7
100
AcDbEntity
  8
0
100
AcDbCircle
 62
7
  6
CONTINUOUS
 10
347.0890283666
 20
1267.6925513268
 40
2.1298469334
100
AcDbArc
 50
95.3883498648
 51
101.303906843
  0
ARC
  5
2B8
100
AcDbEntity
  8
0
100
AcDbCircle
 62
7
  6
CONTINUOUS
 10
347.974059737
 20
1261.9293826671
 40
1.9646541707
100
AcDbArc
 50
33.4566352008
 51
38.7152832598
  0
ARC
  5
2B9
100
AcDbEntity
  8
0
100
AcDbCircle
 62
7
  6
CONTINUOUS
 10
691.6168998878
 20
183.2515292748
 40
3.4671674663
100
AcDbArc
 50
299.9519593965
 51
304.8434709692
  0
ARC
  5
2BA
100
AcDbEntity
  8
0
100
AcDbCircle
 62
7
  6
CONTINUOUS
 10
671.6775795647
 20
176.4147590332
 40
2.4579300871
100
AcDbArc
 50
97.6492646349
 51
103.0526594122
  0
ARC
  5
2BB
100
AcDbEntity
  8
0
100
AcDbCircle
 62
7
  6
CONTINUOUS
 10
671.6775795647
 20
380.5403633155
 40
2.4579300872
100
AcDbArc
 50
97.649264635
 51
103.0526594121
  0
ARC
  5
2BC
100
AcDbEntity
  8
0
100
AcDbCircle
 62
7
  6
CONTINUOUS
 10
675.738014975
 20
373.5163575061
 40
2.4452056485
100
AcDbArc
 50
316.9361858047
 51
322.289351648
  0
ARC
  5
2BD
100
AcDbEntity
  8
0
100
AcDbCircle
 62
7
  6
CONTINUOUS
 10
675.738014975
 20
169.3907532237
 40
2.4452056485
100
AcDbArc
 50
316.9361858047
 51
322.289351648
  0
ARC
  5
2BE
100
AcDbEntity
  8
0
100
AcDbCircle
 62
7
  6
CONTINUOUS
 10
730.3424993926
 20
209.5110847381
 40
2.1298470026
100
AcDbArc
 50
95.3883495335
 51
101.303906633
  0
ARC
  5
2BF
100
AcDbEntity
  8
0
100
AcDbCircle
 62
7
  6
CONTINUOUS
 10
730.3424993926
 20
413.6366890205
 40
2.1298470026
100
AcDbArc
 50
95.3883495336
 51
101.303906633
  0
ARC
  5
2C0
100
AcDbEntity
  8
0
100
AcDbCircle
 62
7
  6
CONTINUOUS
 10
733.7314899687
 20
407.7744499181
 40
2.1189266523
100
AcDbArc
 50
318.6952515199
 51
324.5564466722
  0
ARC
  5
2C1
100
AcDbEntity
  8
0
100
AcDbCircle
 62
7
  6
CONTINUOUS
 10
733.7314899687
 20
203.6488456357
 40
2.1189266522
100
AcDbArc
 50
318.6952515198
 51
324.5564466722
  0
ARC
  5
2C2
100
AcDbEntity
  8
0
100
AcDbCircle
 62
7
  6
CONTINUOUS
 10
645.0150300659
 20
1130.1915946215
 40
77.2306433308
100
AcDbArc
 50
300.7656369142
 51
301.1348871847
  0
ARC
  5
2C3
100
AcDbEntity
  8
0
100
AcDbCircle
 62
7
  6
CONTINUOUS
 10
632.2974752013
 20
1093.3971558632
 40
5.5781267827
100
AcDbArc
 50
103.7078151421
 51
108.6047324523
  0
ARC
  5
2C4
100
AcDbEntity
  8
0
100
AcDbCircle
 62
7
  6
CONTINUOUS
 10
691.6168885617
 20
1127.1621259167
 40
3.4671875365
100
AcDbArc
 50
55.1563961793
 51
60.0484648897
  0
ARC
  5
2C5
100
AcDbEntity
  8
0
100
AcDbCircle
 62
7
  6
CONTINUOUS
 10
631.4396268915
 20
1095.3190913423
 40
3.467167918
100
AcDbArc
 50
119.9519596113
 51
124.8434604028
  0
ARC
  5
2C6
100
AcDbEntity
  8
0
100
AcDbCircle
 62
7
  6
CONTINUOUS
 10
671.6775795647
 20
809.2041323086
 40
2.4579300872
100
AcDbArc
 50
97.6492646349
 51
103.0526594121
  0
ARC
  5
2C7
100
AcDbEntity
  8
0
100
AcDbCircle
 62
7
  6
CONTINUOUS
 10
671.6775795647
 20
1013.329736591
 40
2.4579300871
100
AcDbArc
 50
97.6492646349
 51
103.0526594122
  0
ARC
  5
2C8
100
AcDbEntity
  8
0
100
AcDbCircle
 62
7
  6
CONTINUOUS
 10
675.7380149749
 20
1006.3057307816
 40
2.4452056487
100
AcDbArc
 50
316.9361858049
 51
322.2893516479
  0
ARC
  5
2C9
100
AcDbEntity
  8
0
100
AcDbCircle
 62
7
  6
CONTINUOUS
 10
675.738014975
 20
802.1801264991
 40
2.4452056485
100
AcDbArc
 50
316.9361858047
 51
322.289351648
  0
ARC
  5
2CA
100
AcDbEntity
  8
0
100
AcDbCircle
 62
7
  6
CONTINUOUS
 10
730.3424993926
 20
842.3004580134
 40
2.1298470027
100
AcDbArc
 50
95.3883495336
 51
101.303906633
  0
ARC
  5
2CB
100
AcDbEntity
  8
0
100
AcDbCircle
 62
7
  6
CONTINUOUS
 10
730.3424993926
 20
1046.4260622958
 40
2.1298470027
100
AcDbArc
 50
95.3883495337
 51
101.303906633
  0
ARC
  5
2CC
100
AcDbEntity
  8
0
100
AcDbCircle
 62
7
  6
CONTINUOUS
 10
733.7314899686
 20
1040.5638231936
 40
2.1189266523
100
AcDbArc
 50
318.69525152
 51
324.5564466721
  0
ARC
  5
2CD
100
AcDbEntity
  8
0
100
AcDbCircle
 62
7
  6
CONTINUOUS
 10
733.7314899687
 20
836.4382189111
 40
2.1189266522
100
AcDbArc
 50
318.6952515197
 51
324.5564466722
  0
ARC
  5
2CE
100
AcDbEntity
  8
0
100
AcDbCircle
 62
7
  6
CONTINUOUS
 10
636.050561762
 20
1095.6120992756
 40
1.9646541707
100
AcDbArc
 50
33.4566352007
 51
38.71528326
  0
SPLINE
  5
2CF
100
AcDbEntity
  8
0
100
AcDbSpline
 62
7
  6
CONTINUOUS
 70
0
 71
3
 72
8
 73
4
 74
0
 42
0.0000001
 43
0.0000001
 44
0.0000000001
 40
0.0
 40
0.0
 40
0.0
 40
0.0
 40
1.0
 40
1.0
 40
1.0
 40
1.0
 10
750.4607710819
 20
149.6199448023
 30
0.0
 10
750.64898548
 20
149.64931533
 30
0.0
 10
750.8355514885
 20
149.7139834767
 30
0.0
 10
750.9991825489
 20
149.8115137984
 30
0.0
  0
SPLINE
  5
2D0
100
AcDbEntity
  8
0
100
AcDbSpline
 62
7
  6
CONTINUOUS
 70
0
 71
3
 72
9
 73
5
 74
0
 42
0.0000001
 43
0.0000001
 44
0.0000000001
 40
0.0
 40
0.0
 40
0.0
 40
0.0
 40
0.4981672407
 40
1.0
 40
1.0
 40
1.0
 40
1.0
 10
397.1770381673
 20
1296.288283166
 30
0.0
 10
397.1860394471
 20
1296.3123886234
 30
0.0
 10
397.2038999201
 20
1296.3608519096
 30
0.0
 10
397.2229864053
 20
1296.4088682732
 30
0.0
 10
397.2332482031
 20
1296.4326710227
 30
0.0
  0
SPLINE
  5
2D1
100
AcDbEntity
  8
0
100
AcDbSpline
 62
7
  6
CONTINUOUS
 70
0
 71
3
 72
8
 73
4
 74
0
 42
0.0000001
 43
0.0000001
 44
0.0000000001
 40
0.0
 40
0.0
 40
0.0
 40
0.0
 40
1.0
 40
1.0
 40
1.0
 40
1.0
 10
397.2332482031
 20
1296.4326710227
 30
0.0
 10
397.2638875942
 20
1296.5037406121
 30
0.0
 10
397.3019220933
 20
1296.5728024697
 30
0.0
 10
397.3504214062
 20
1296.6331139568
 30
0.0
  0
SPLINE
  5
2D2
100
AcDbEntity
  8
0
100
AcDbSpline
 62
7
  6
CONTINUOUS
 70
0
 71
3
 72
9
 73
5
 74
0
 42
0.0000001
 43
0.0000001
 44
0.0000000001
 40
0.0
 40
0.0
 40
0.0
 40
0.0
 40
0.5000005437
 40
1.0
 40
1.0
 40
1.0
 40
1.0
 10
403.8572203586
 20
1297.3000286275
 30
0.0
 10
403.0176986259
 20
1297.7847157607
 30
0.0
 10
401.0287904653
 20
1298.1680284918
 30
0.0
 10
399.0398825208
 20
1297.7847071631
 30
0.0
 10
398.2003661092
 20
1297.3000150301
 30
0.0
  0
SPLINE
  5
2D3
100
AcDbEntity
  8
0
100
AcDbSpline
 62
7
  6
CONTINUOUS
 70
0
 71
3
 72
9
 73
5
 74
0
 42
0.0000001
 43
0.0000001
 44
0.0000000001
 40
0.0
 40
0.0
 40
0.0
 40
0.0
 40
0.2711475594
 40
1.0
 40
1.0
 40
1.0
 40
1.0
 10
686.2768681341
 20
1130.9827316385
 30
0.0
 10
686.1885060182
 20
1130.9317160517
 30
0.0
 10
685.8707772372
 20
1130.7307919577
 30
0.0
 10
685.5849536084
 20
1130.4722605618
 30
0.0
 10
685.4226182325
 20
1130.2511996098
 30
0.0
  0
SPLINE
  5
2D4
100
AcDbEntity
  8
0
100
AcDbSpline
 62
7
  6
CONTINUOUS
 70
0
 71
3
 72
9
 73
5
 74
0
 42
0.0000001
 43
0.0000001
 44
0.0000000001
 40
0.0
 40
0.0
 40
0.0
 40
0.0
 40
0.5000005437
 40
1.0
 40
1.0
 40
1.0
 40
1.0
 10
691.9337223835
 20
1130.9827452359
 30
0.0
 10
691.0942006508
 20
1131.4674323692
 30
0.0
 10
689.1052924902
 20
1131.8507451002
 30
0.0
 10
687.1163845457
 20
1131.4674237715
 30
0.0
 10
686.2768681341
 20
1130.9827316385
 30
0.0
  0
SPLINE
  5
2D5
100
AcDbEntity
  8
0
100
AcDbSpline
 62
7
  6
CONTINUOUS
 70
0
 71
3
 72
9
 73
5
 74
0
 42
0.0000001
 43
0.0000001
 44
0.0000000001
 40
0.0
 40
0.0
 40
0.0
 40
0.0
 40
0.2711475594
 40
1.0
 40
1.0
 40
1.0
 40
1.0
 10
398.2003661092
 20
1297.3000150301
 30
0.0
 10
398.1120039933
 20
1297.2489994432
 30
0.0
 10
397.7942752123
 20
1297.0480753493
 30
0.0
 10
397.5084515835
 20
1296.7895439534
 30
0.0
 10
397.3461162076
 20
1296.5684830014
 30
0.0
  0
SPLINE
  5
2D6
100
AcDbEntity
  8
0
100
AcDbSpline
 62
7
  6
CONTINUOUS
 70
0
 71
3
 72
9
 73
5
 74
0
 42
0.0000001
 43
0.0000001
 44
0.0000000001
 40
0.0
 40
0.0
 40
0.0
 40
0.0
 40
0.4981672407
 40
1.0
 40
1.0
 40
1.0
 40
1.0
 10
685.2535401922
 20
1129.9709997744
 30
0.0
 10
685.262541472
 20
1129.9951052318
 30
0.0
 10
685.280401945
 20
1130.043568518
 30
0.0
 10
685.2994884302
 20
1130.0915848816
 30
0.0
 10
685.309750228
 20
1130.1153876311
 30
0.0
  0
SPLINE
  5
2D7
100
AcDbEntity
  8
0
100
AcDbSpline
 62
7
  6
CONTINUOUS
 70
0
 71
3
 72
8
 73
4
 74
0
 42
0.0000001
 43
0.0000001
 44
0.0000000001
 40
0.0
 40
0.0
 40
0.0
 40
0.0
 40
1.0
 40
1.0
 40
1.0
 40
1.0
 10
685.309750228
 20
1130.1153876311
 30
0.0
 10
685.340389619
 20
1130.1864572205
 30
0.0
 10
685.3784241182
 20
1130.2555190782
 30
0.0
 10
685.4269234311
 20
1130.3158305652
 30
0.0
  0
SPLINE
  5
2D8
100
AcDbEntity
  8
0
100
AcDbSpline
 62
7
  6
CONTINUOUS
 70
0
 71
3
 72
8
 73
4
 74
0
 42
0.0000001
 43
0.0000001
 44
0.0000000001
 40
0.0
 40
0.0
 40
0.0
 40
0.0
 40
1.0
 40
1.0
 40
1.0
 40
1.0
 10
691.7985380477
 20
179.6559733623
 30
0.0
 10
691.8819225872
 20
179.6571047076
 30
0.0
 10
691.9656636298
 20
179.6607208729
 30
0.0
 10
692.0481242853
 20
179.6731507432
 30
0.0
  0
SPLINE
  5
2D9
100
AcDbEntity
  8
0
100
AcDbSpline
 62
7
  6
CONTINUOUS
 70
0
 71
3
 72
8
 73
4
 74
0
 42
0.0000001
 43
0.0000001
 44
0.0000000001
 40
0.0
 40
0.0
 40
0.0
 40
0.0
 40
1.0
 40
1.0
 40
1.0
 40
1.0
 10
693.3479653855
 20
180.2474216733
 30
0.0
 10
692.9554630069
 20
180.020811672
 30
0.0
 10
692.5211289882
 20
179.8619799532
 30
0.0
 10
692.0809037438
 20
179.7542212221
 30
0.0
  0
SPLINE
  5
2DA
100
AcDbEntity
  8
0
100
AcDbSpline
 62
7
  6
CONTINUOUS
 70
0
 71
3
 72
9
 73
5
 74
0
 42
0.0000001
 43
0.0000001
 44
0.0000000001
 40
0.0
 40
0.0
 40
0.0
 40
0.0
 40
0.2245236873
 40
1.0
 40
1.0
 40
1.0
 40
1.0
 10
346.4740128526
 20
1269.5752764968
 30
0.0
 10
346.385153886
 20
1269.450626931
 30
0.0
 10
346.0479186947
 20
1268.8531348771
 30
0.0
 10
345.9449933372
 20
1268.1482046693
 30
0.0
 10
345.9449933372
 20
1267.6194864168
 30
0.0
  0
SPLINE
  5
2DB
100
AcDbEntity
  8
0
100
AcDbSpline
 62
7
  6
CONTINUOUS
 70
0
 71
3
 72
8
 73
4
 74
0
 42
0.0000001
 43
0.0000001
 44
0.0000000001
 40
0.0
 40
0.0
 40
0.0
 40
0.0
 40
1.0
 40
1.0
 40
1.0
 40
1.0
 10
346.0942061041
 20
1269.5656940012
 30
0.0
 10
346.2721504832
 20
1269.6682940351
 30
0.0
 10
346.4701564467
 20
1269.7406921397
 30
0.0
 10
346.67155066
 20
1269.7810819884
 30
0.0
  0
SPLINE
  5
2DC
100
AcDbEntity
  8
0
100
AcDbSpline
 62
7
  6
CONTINUOUS
 70
0
 71
3
 72
9
 73
5
 74
0
 42
0.0000001
 43
0.0000001
 44
0.0000000001
 40
0.0
 40
0.0
 40
0.0
 40
0.0
 40
0.2245627704
 40
1.0
 40
1.0
 40
1.0
 40
1.0
 10
346.8890232149
 20
1269.8129866357
 30
0.0
 10
347.0399239415
 20
1269.8273196065
 30
0.0
 10
347.7190654102
 20
1269.821299162
 30
0.0
 10
348.3747627829
 20
1269.5621703078
 30
0.0
 10
348.8289467419
 20
1269.3020056683
 30
0.0
  0
SPLINE
  5
2DD
100
AcDbEntity
  8
0
100
AcDbSpline
 62
7
  6
CONTINUOUS
 70
0
 71
3
 72
9
 73
5
 74
0
 42
0.0000001
 43
0.0000001
 44
0.0000000001
 40
0.0
 40
0.0
 40
0.0
 40
0.0
 40
0.4855621245
 40
1.0
 40
1.0
 40
1.0
 40
1.0
 10
348.8289467419
 20
1269.3020056683
 30
0.0
 10
349.7871424656
 20
1268.7531341373
 30
0.0
 10
351.4163878247
 20
1267.049504173
 30
0.0
 10
352.3727987932
 20
1264.9248833659
 30
0.0
 10
352.6039296489
 20
1263.7780084258
 30
0.0
  0
SPLINE
  5
2DE
100
AcDbEntity
  8
0
100
AcDbSpline
 62
7
  6
CONTINUOUS
 70
0
 71
3
 72
9
 73
5
 74
0
 42
0.0000001
 43
0.0000001
 44
0.0000000001
 40
0.0
 40
0.0
 40
0.0
 40
0.0
 40
0.2236097662
 40
1.0
 40
1.0
 40
1.0
 40
1.0
 10
357.3076436218
 20
1276.9928636232
 30
0.0
 10
357.1928723159
 20
1276.8445854104
 30
0.0
 10
356.7541653575
 20
1276.1227328902
 30
0.0
 10
356.6222553912
 20
1275.251496769
 30
0.0
 10
356.6222553912
 20
1274.6004580487
 30
0.0
  0
SPLINE
  5
2DF
100
AcDbEntity
  8
0
100
AcDbSpline
 62
7
  6
CONTINUOUS
 70
0
 71
3
 72
8
 73
4
 74
0
 42
0.0000001
 43
0.0000001
 44
0.0000000001
 40
0.0
 40
0.0
 40
0.0
 40
0.0
 40
1.0
 40
1.0
 40
1.0
 40
1.0
 10
356.907877451
 20
1276.9636138445
 30
0.0
 10
357.0973014817
 20
1277.0728328716
 30
0.0
 10
357.3057414485
 20
1277.1532045698
 30
0.0
 10
357.5187216341
 20
1277.2026990119
 30
0.0
  0
SPLINE
  5
2E0
100
AcDbEntity
  8
0
100
AcDbSpline
 62
7
  6
CONTINUOUS
 70
0
 71
3
 72
11
 73
7
 74
0
 42
0.0000001
 43
0.0000001
 44
0.0000000001
 40
0.0
 40
0.0
 40
0.0
 40
0.0
 40
0.1980795881
 40
0.4559222641
 40
0.7401060645
 40
1.0
 40
1.0
 40
1.0
 40
1.0
 10
357.7466648231
 20
1277.2443327851
 30
0.0
 10
358.5315410307
 20
1277.3501222652
 30
0.0
 10
360.4042224188
 20
1276.7416394943
 30
0.0
 10
362.5847427403
 20
1274.688853164
 30
0.0
 10
364.2353032455
 20
1271.8937561559
 30
0.0
 10
364.7540260623
 20
1269.7200853232
 30
0.0
 10
364.7540260623
 20
1268.6809620091
 30
0.0
  0
SPLINE
  5
2E1
100
AcDbEntity
  8
0
100
AcDbSpline
 62
7
  6
CONTINUOUS
 70
0
 71
3
 72
9
 73
5
 74
0
 42
0.0000001
 43
0.0000001
 44
0.0000000001
 40
0.0
 40
0.0
 40
0.0
 40
0.0
 40
0.2807306068
 40
1.0
 40
1.0
 40
1.0
 40
1.0
 10
364.7540260623
 20
1268.6809620091
 30
0.0
 10
364.7540260623
 20
1268.4459547039
 30
0.0
 10
364.7066207945
 20
1267.6135994631
 30
0.0
 10
364.4372195044
 20
1266.7647730274
 30
0.0
 10
364.0686982281
 20
1266.2885999783
 30
0.0
  0
SPLINE
  5
2E2
100
AcDbEntity
  8
0
100
AcDbSpline
 62
7
  6
CONTINUOUS
 70
0
 71
3
 72
8
 73
4
 74
0
 42
0.0000001
 43
0.0000001
 44
0.0000000001
 40
0.0
 40
0.0
 40
0.0
 40
0.0
 40
1.0
 40
1.0
 40
1.0
 40
1.0
 10
363.9207236559
 20
1266.1146519179
 30
0.0
 10
363.7712879004
 20
1265.9549234075
 30
0.0
 10
363.5972395852
 20
1265.8146978182
 30
0.0
 10
363.4077482466
 20
1265.7054399824
 30
0.0
  0
SPLINE
  5
2E3
100
AcDbEntity
  8
0
100
AcDbSpline
 62
7
  6
CONTINUOUS
 70
0
 71
3
 72
9
 73
5
 74
0
 42
0.0000001
 43
0.0000001
 44
0.0000000001
 40
0.0
 40
0.0
 40
0.0
 40
0.0
 40
0.766471999
 40
1.0
 40
1.0
 40
1.0
 40
1.0
 10
740.0893361374
 20
183.6516896961
 30
0.0
 10
739.3400384718
 20
183.3813680699
 30
0.0
 10
738.2108633382
 20
183.3657073882
 30
0.0
 10
737.2372212518
 20
183.7446976403
 30
0.0
 10
737.0270377234
 20
183.8660444118
 30
0.0
  0
SPLINE
  5
2E4
100
AcDbEntity
  8
0
100
AcDbSpline
 62
7
  6
CONTINUOUS
 70
0
 71
3
 72
9
 73
5
 74
0
 42
0.0000001
 43
0.0000001
 44
0.0000000001
 40
0.0
 40
0.0
 40
0.0
 40
0.0
 40
0.4997671378
 40
1.0
 40
1.0
 40
1.0
 40
1.0
 10
729.1984643669
 20
1046.3529974668
 30
0.0
 10
729.1984643669
 20
1045.0235255786
 30
0.0
 10
730.1055209339
 20
1042.3967689726
 30
0.0
 10
731.9221847421
 20
1040.2950835214
 30
0.0
 10
733.0723631724
 20
1039.6258445418
 30
0.0
  0
SPLINE
  5
2E5
100
AcDbEntity
  8
0
100
AcDbSpline
 62
7
  6
CONTINUOUS
 70
0
 71
3
 72
9
 73
5
 74
0
 42
0.0000001
 43
0.0000001
 44
0.0000000001
 40
0.0
 40
0.0
 40
0.0
 40
0.0
 40
0.280349595
 40
1.0
 40
1.0
 40
1.0
 40
1.0
 10
733.0723631724
 20
1039.6258445418
 30
0.0
 10
733.2389586407
 20
1039.5289098591
 30
0.0
 10
733.8489402448
 20
1039.217003503
 30
0.0
 10
734.5562033452
 20
1039.0498301075
 30
0.0
 10
735.0486307841
 20
1039.0979184628
 30
0.0
  0
SPLINE
  5
2E6
100
AcDbEntity
  8
0
100
AcDbSpline
 62
7
  6
CONTINUOUS
 70
0
 71
3
 72
9
 73
5
 74
0
 42
0.0000001
 43
0.0000001
 44
0.0000000001
 40
0.0
 40
0.0
 40
0.0
 40
0.0
 40
0.2245236876
 40
1.0
 40
1.0
 40
1.0
 40
1.0
 10
729.7274838648
 20
211.3938099646
 30
0.0
 10
729.6386249011
 20
211.2691603992
 30
0.0
 10
729.3013897214
 20
210.6716683503
 30
0.0
 10
729.1984643669
 20
209.9667381536
 30
0.0
 10
729.1984643669
 20
209.438019909
 30
0.0
  0
SPLINE
  5
2E7
100
AcDbEntity
  8
0
100
AcDbSpline
 62
7
  6
CONTINUOUS
 70
0
 71
3
 72
9
 73
5
 74
0
 42
0.0000001
 43
0.0000001
 44
0.0000000001
 40
0.0
 40
0.0
 40
0.0
 40
0.0
 40
0.4997671378
 40
1.0
 40
1.0
 40
1.0
 40
1.0
 10
729.1984643669
 20
413.5636241914
 30
0.0
 10
729.1984643669
 20
412.2341523032
 30
0.0
 10
730.1055209339
 20
409.6073956972
 30
0.0
 10
731.9221847421
 20
407.505710246
 30
0.0
 10
733.0723631724
 20
406.8364712664
 30
0.0
  0
SPLINE
  5
2E8
100
AcDbEntity
  8
0
100
AcDbSpline
 62
7
  6
CONTINUOUS
 70
0
 71
3
 72
9
 73
5
 74
0
 42
0.0000001
 43
0.0000001
 44
0.0000000001
 40
0.0
 40
0.0
 40
0.0
 40
0.0
 40
0.280349595
 40
1.0
 40
1.0
 40
1.0
 40
1.0
 10
733.0723631724
 20
406.8364712664
 30
0.0
 10
733.2389586407
 20
406.7395365837
 30
0.0
 10
733.8489402448
 20
406.4276302276
 30
0.0
 10
734.5562033452
 20
406.2604568321
 30
0.0
 10
735.0486307841
 20
406.3085451874
 30
0.0
  0
SPLINE
  5
2E9
100
AcDbEntity
  8
0
100
AcDbSpline
 62
7
  6
CONTINUOUS
 70
0
 71
3
 72
8
 73
4
 74
0
 42
0.0000001
 43
0.0000001
 44
0.0000000001
 40
0.0
 40
0.0
 40
0.0
 40
0.0
 40
1.0
 40
1.0
 40
1.0
 40
1.0
 10
729.3476771016
 20
211.3842274748
 30
0.0
 10
729.5256214876
 20
211.4868275126
 30
0.0
 10
729.7236274589
 20
211.5592256196
 30
0.0
 10
729.9250216801
 20
211.599615469
 30
0.0
  0
SPLINE
  5
2EA
100
AcDbEntity
  8
0
100
AcDbSpline
 62
7
  6
CONTINUOUS
 70
0
 71
3
 72
9
 73
5
 74
0
 42
0.0000001
 43
0.0000001
 44
0.0000000001
 40
0.0
 40
0.0
 40
0.0
 40
0.0
 40
0.2245627712
 40
1.0
 40
1.0
 40
1.0
 40
1.0
 10
730.1424942466
 20
211.631520117
 30
0.0
 10
730.2933949734
 20
211.645853087
 30
0.0
 10
730.9725364398
 20
211.6398326409
 30
0.0
 10
731.6282338115
 20
211.3807037942
 30
0.0
 10
732.0824177714
 20
211.1205391604
 30
0.0
  0
SPLINE
  5
2EB
100
AcDbEntity
  8
0
100
AcDbSpline
 62
7
  6
CONTINUOUS
 70
0
 71
3
 72
9
 73
5
 74
0
 42
0.0000001
 43
0.0000001
 44
0.0000000001
 40
0.0
 40
0.0
 40
0.0
 40
0.0
 40
0.4997026048
 40
1.0
 40
1.0
 40
1.0
 40
1.0
 10
732.0824177714
 20
211.1205391604
 30
0.0
 10
733.2407471414
 20
210.4570275373
 30
0.0
 10
735.0720231816
 20
208.3493992245
 30
0.0
 10
735.9867259653
 20
205.7123249297
 30
0.0
 10
735.9867259653
 20
204.3758297903
 30
0.0
  0
SPLINE
  5
2EC
100
AcDbEntity
  8
0
100
AcDbSpline
 62
7
  6
CONTINUOUS
 70
0
 71
3
 72
9
 73
5
 74
0
 42
0.0000001
 43
0.0000001
 44
0.0000000001
 40
0.0
 40
0.0
 40
0.0
 40
0.0
 40
0.4997671378
 40
1.0
 40
1.0
 40
1.0
 40
1.0
 10
729.1984643669
 20
842.2273931844
 30
0.0
 10
729.1984643669
 20
840.8979212962
 30
0.0
 10
730.1055209339
 20
838.2711646902
 30
0.0
 10
731.9221847421
 20
836.169479239
 30
0.0
 10
733.0723631724
 20
835.5002402594
 30
0.0
  0
SPLINE
  5
2ED
100
AcDbEntity
  8
0
100
AcDbSpline
 62
7
  6
CONTINUOUS
 70
0
 71
3
 72
9
 73
5
 74
0
 42
0.0000001
 43
0.0000001
 44
0.0000000001
 40
0.0
 40
0.0
 40
0.0
 40
0.0
 40
0.280349595
 40
1.0
 40
1.0
 40
1.0
 40
1.0
 10
733.0723631724
 20
835.5002402594
 30
0.0
 10
733.2389586407
 20
835.4033055767
 30
0.0
 10
733.8489402448
 20
835.0913992206
 30
0.0
 10
734.5562033452
 20
834.9242258252
 30
0.0
 10
735.0486307841
 20
834.9723141804
 30
0.0
  0
SPLINE
  5
2EE
100
AcDbEntity
  8
0
100
AcDbSpline
 62
7
  6
CONTINUOUS
 70
0
 71
3
 72
9
 73
5
 74
0
 42
0.0000001
 43
0.0000001
 44
0.0000000001
 40
0.0
 40
0.0
 40
0.0
 40
0.0
 40
0.4997671378
 40
1.0
 40
1.0
 40
1.0
 40
1.0
 10
729.1984643669
 20
209.438019909
 30
0.0
 10
729.1984643669
 20
208.1085480208
 30
0.0
 10
730.1055209339
 20
205.4817914148
 30
0.0
 10
731.9221847421
 20
203.3801059636
 30
0.0
 10
733.0723631724
 20
202.710866984
 30
0.0
  0
SPLINE
  5
2EF
100
AcDbEntity
  8
0
100
AcDbSpline
 62
7
  6
CONTINUOUS
 70
0
 71
3
 72
9
 73
5
 74
0
 42
0.0000001
 43
0.0000001
 44
0.0000000001
 40
0.0
 40
0.0
 40
0.0
 40
0.0
 40
0.280349595
 40
1.0
 40
1.0
 40
1.0
 40
1.0
 10
733.0723631724
 20
202.710866984
 30
0.0
 10
733.2389586407
 20
202.6139323013
 30
0.0
 10
733.8489402448
 20
202.3020259452
 30
0.0
 10
734.5562033452
 20
202.1348525497
 30
0.0
 10
735.0486307841
 20
202.182940905
 30
0.0
  0
SPLINE
  5
2F0
100
AcDbEntity
  8
0
100
AcDbSpline
 62
7
  6
CONTINUOUS
 70
0
 71
3
 72
9
 73
5
 74
0
 42
0.0000001
 43
0.0000001
 44
0.0000000001
 40
0.0
 40
0.0
 40
0.0
 40
0.0
 40
0.2790951709
 40
1.0
 40
1.0
 40
1.0
 40
1.0
 10
735.9867259653
 20
1041.2908073481
 30
0.0
 10
735.9867259653
 20
1041.1007937714
 30
0.0
 10
735.9495233829
 20
1040.4233503671
 30
0.0
 10
735.7426286454
 20
1039.7347267931
 30
0.0
 10
735.457752433
 20
1039.3350563068
 30
0.0
  0
SPLINE
  5
2F1
100
AcDbEntity
  8
0
100
AcDbSpline
 62
7
  6
CONTINUOUS
 70
0
 71
3
 72
8
 73
4
 74
0
 42
0.0000001
 43
0.0000001
 44
0.0000000001
 40
0.0
 40
0.0
 40
0.0
 40
0.0
 40
1.0
 40
1.0
 40
1.0
 40
1.0
 10
735.3232476561
 20
1039.1651961444
 30
0.0
 10
735.1875135102
 20
1039.010912903
 30
0.0
 10
735.0255883141
 20
1038.8757018652
 30
0.0
 10
734.8475678069
 20
1038.7730579371
 30
0.0
  0
SPLINE
  5
2F2
100
AcDbEntity
  8
0
100
AcDbSpline
 62
7
  6
CONTINUOUS
 70
0
 71
3
 72
9
 73
5
 74
0
 42
0.0000001
 43
0.0000001
 44
0.0000000001
 40
0.0
 40
0.0
 40
0.0
 40
0.0
 40
0.2790951709
 40
1.0
 40
1.0
 40
1.0
 40
1.0
 10
735.9867259653
 20
408.5014340727
 30
0.0
 10
735.9867259653
 20
408.311420496
 30
0.0
 10
735.9495233829
 20
407.6339770917
 30
0.0
 10
735.7426286454
 20
406.9453535176
 30
0.0
 10
735.457752433
 20
406.5456830313
 30
0.0
  0
SPLINE
  5
2F3
100
AcDbEntity
  8
0
100
AcDbSpline
 62
7
  6
CONTINUOUS
 70
0
 71
3
 72
8
 73
4
 74
0
 42
0.0000001
 43
0.0000001
 44
0.0000000001
 40
0.0
 40
0.0
 40
0.0
 40
0.0
 40
1.0
 40
1.0
 40
1.0
 40
1.0
 10
735.3232476561
 20
406.375822869
 30
0.0
 10
735.1875135102
 20
406.2215396276
 30
0.0
 10
735.0255883141
 20
406.0863285898
 30
0.0
 10
734.8475678069
 20
405.9836846617
 30
0.0
  0
SPLINE
  5
2F4
100
AcDbEntity
  8
0
100
AcDbSpline
 62
7
  6
CONTINUOUS
 70
0
 71
3
 72
9
 73
5
 74
0
 42
0.0000001
 43
0.0000001
 44
0.0000000001
 40
0.0
 40
0.0
 40
0.0
 40
0.0
 40
0.2790951709
 40
1.0
 40
1.0
 40
1.0
 40
1.0
 10
735.9867259653
 20
837.1652030657
 30
0.0
 10
735.9867259653
 20
836.975189489
 30
0.0
 10
735.9495233829
 20
836.2977460847
 30
0.0
 10
735.7426286454
 20
835.6091225107
 30
0.0
 10
735.457752433
 20
835.2094520244
 30
0.0
  0
SPLINE
  5
2F5
100
AcDbEntity
  8
0
100
AcDbSpline
 62
7
  6
CONTINUOUS
 70
0
 71
3
 72
8
 73
4
 74
0
 42
0.0000001
 43
0.0000001
 44
0.0000000001
 40
0.0
 40
0.0
 40
0.0
 40
0.0
 40
1.0
 40
1.0
 40
1.0
 40
1.0
 10
735.3232476561
 20
835.039591862
 30
0.0
 10
735.1875135102
 20
834.8853086206
 30
0.0
 10
735.0255883141
 20
834.7500975828
 30
0.0
 10
734.8475678069
 20
834.6474536547
 30
0.0
  0
SPLINE
  5
2F6
100
AcDbEntity
  8
0
100
AcDbSpline
 62
7
  6
CONTINUOUS
 70
0
 71
3
 72
9
 73
5
 74
0
 42
0.0000001
 43
0.0000001
 44
0.0000000001
 40
0.0
 40
0.0
 40
0.0
 40
0.0
 40
0.2790951709
 40
1.0
 40
1.0
 40
1.0
 40
1.0
 10
735.9867259653
 20
204.3758297903
 30
0.0
 10
735.9867259653
 20
204.1858162136
 30
0.0
 10
735.9495233829
 20
203.5083728093
 30
0.0
 10
735.7426286454
 20
202.8197492352
 30
0.0
 10
735.457752433
 20
202.4200787489
 30
0.0
  0
SPLINE
  5
2F7
100
AcDbEntity
  8
0
100
AcDbSpline
 62
7
  6
CONTINUOUS
 70
0
 71
3
 72
8
 73
4
 74
0
 42
0.0000001
 43
0.0000001
 44
0.0000000001
 40
0.0
 40
0.0
 40
0.0
 40
0.0
 40
1.0
 40
1.0
 40
1.0
 40
1.0
 10
735.3232476561
 20
202.2502185866
 30
0.0
 10
735.1875135102
 20
202.0959353452
 30
0.0
 10
735.0255883141
 20
201.9607243074
 30
0.0
 10
734.8475678069
 20
201.8580803793
 30
0.0
  0
SPLINE
  5
2F8
100
AcDbEntity
  8
0
100
AcDbSpline
 62
7
  6
CONTINUOUS
 70
0
 71
3
 72
9
 73
5
 74
0
 42
0.0000001
 43
0.0000001
 44
0.0000000001
 40
0.0
 40
0.0
 40
0.0
 40
0.0
 40
0.2245236876
 40
1.0
 40
1.0
 40
1.0
 40
1.0
 10
729.7274838648
 20
844.18318324
 30
0.0
 10
729.6386249011
 20
844.0585336746
 30
0.0
 10
729.3013897214
 20
843.4610416257
 30
0.0
 10
729.1984643669
 20
842.7561114291
 30
0.0
 10
729.1984643669
 20
842.2273931844
 30
0.0
  0
SPLINE
  5
2F9
100
AcDbEntity
  8
0
100
AcDbSpline
 62
7
  6
CONTINUOUS
 70
0
 71
3
 72
8
 73
4
 74
0
 42
0.0000001
 43
0.0000001
 44
0.0000000001
 40
0.0
 40
0.0
 40
0.0
 40
0.0
 40
1.0
 40
1.0
 40
1.0
 40
1.0
 10
729.3476771016
 20
844.1736007503
 30
0.0
 10
729.5256214876
 20
844.2762007881
 30
0.0
 10
729.7236274589
 20
844.348598895
 30
0.0
 10
729.9250216801
 20
844.3889887445
 30
0.0
  0
SPLINE
  5
2FA
100
AcDbEntity
  8
0
100
AcDbSpline
 62
7
  6
CONTINUOUS
 70
0
 71
3
 72
9
 73
5
 74
0
 42
0.0000001
 43
0.0000001
 44
0.0000000001
 40
0.0
 40
0.0
 40
0.0
 40
0.0
 40
0.2245627712
 40
1.0
 40
1.0
 40
1.0
 40
1.0
 10
730.1424942466
 20
844.4208933924
 30
0.0
 10
730.2933949734
 20
844.4352263624
 30
0.0
 10
730.9725364398
 20
844.4292059164
 30
0.0
 10
731.6282338115
 20
844.1700770696
 30
0.0
 10
732.0824177714
 20
843.9099124358
 30
0.0
  0
SPLINE
  5
2FB
100
AcDbEntity
  8
0
100
AcDbSpline
 62
7
  6
CONTINUOUS
 70
0
 71
3
 72
9
 73
5
 74
0
 42
0.0000001
 43
0.0000001
 44
0.0000000001
 40
0.0
 40
0.0
 40
0.0
 40
0.0
 40
0.4997026048
 40
1.0
 40
1.0
 40
1.0
 40
1.0
 10
732.0824177714
 20
843.9099124358
 30
0.0
 10
733.2407471414
 20
843.2464008127
 30
0.0
 10
735.0720231816
 20
841.1387724999
 30
0.0
 10
735.9867259653
 20
838.5016982052
 30
0.0
 10
735.9867259653
 20
837.1652030657
 30
0.0
  0
SPLINE
  5
2FC
100
AcDbEntity
  8
0
100
AcDbSpline
 62
7
  6
CONTINUOUS
 70
0
 71
3
 72
11
 73
7
 74
0
 42
0.0000001
 43
0.0000001
 44
0.0000000001
 40
0.0
 40
0.0
 40
0.0
 40
0.0
 40
0.2599631815
 40
0.5441993056
 40
0.8020240112
 40
1.0
 40
1.0
 40
1.0
 40
1.0
 10
356.6222553912
 20
1274.6004580487
 30
0.0
 10
356.6222553912
 20
1273.5605331201
 30
0.0
 10
357.1417001189
 20
1271.3852786869
 30
0.0
 10
358.7941980312
 20
1268.5889206146
 30
0.0
 10
360.9767004135
 20
1266.5362233199
 30
0.0
 10
362.8513338777
 20
1265.9302828702
 30
0.0
 10
363.6359348238
 20
1266.0379876506
 30
0.0
  0
SPLINE
  5
2FD
100
AcDbEntity
  8
0
100
AcDbSpline
 62
7
  6
CONTINUOUS
 70
0
 71
3
 72
9
 73
5
 74
0
 42
0.0000001
 43
0.0000001
 44
0.0000000001
 40
0.0
 40
0.0
 40
0.0
 40
0.0
 40
0.2245236876
 40
1.0
 40
1.0
 40
1.0
 40
1.0
 10
729.7274838648
 20
415.519414247
 30
0.0
 10
729.6386249011
 20
415.3947646816
 30
0.0
 10
729.3013897214
 20
414.7972726327
 30
0.0
 10
729.1984643669
 20
414.092342436
 30
0.0
 10
729.1984643669
 20
413.5636241914
 30
0.0
  0
SPLINE
  5
2FE
100
AcDbEntity
  8
0
100
AcDbSpline
 62
7
  6
CONTINUOUS
 70
0
 71
3
 72
8
 73
4
 74
0
 42
0.0000001
 43
0.0000001
 44
0.0000000001
 40
0.0
 40
0.0
 40
0.0
 40
0.0
 40
1.0
 40
1.0
 40
1.0
 40
1.0
 10
729.3476771016
 20
415.5098317572
 30
0.0
 10
729.5256214876
 20
415.612431795
 30
0.0
 10
729.7236274589
 20
415.684829902
 30
0.0
 10
729.9250216801
 20
415.7252197514
 30
0.0
  0
SPLINE
  5
2FF
100
AcDbEntity
  8
0
100
AcDbSpline
 62
7
  6
CONTINUOUS
 70
0
 71
3
 72
9
 73
5
 74
0
 42
0.0000001
 43
0.0000001
 44
0.0000000001
 40
0.0
 40
0.0
 40
0.0
 40
0.0
 40
0.2245627712
 40
1.0
 40
1.0
 40
1.0
 40
1.0
 10
730.1424942466
 20
415.7571243994
 30
0.0
 10
730.2933949734
 20
415.7714573694
 30
0.0
 10
730.9725364398
 20
415.7654369233
 30
0.0
 10
731.6282338115
 20
415.5063080766
 30
0.0
 10
732.0824177714
 20
415.2461434428
 30
0.0
  0
SPLINE
  5
300
100
AcDbEntity
  8
0
100
AcDbSpline
 62
7
  6
CONTINUOUS
 70
0
 71
3
 72
9
 73
5
 74
0
 42
0.0000001
 43
0.0000001
 44
0.0000000001
 40
0.0
 40
0.0
 40
0.0
 40
0.0
 40
0.4997026048
 40
1.0
 40
1.0
 40
1.0
 40
1.0
 10
732.0824177714
 20
415.2461434428
 30
0.0
 10
733.2407471414
 20
414.5826318197
 30
0.0
 10
735.0720231816
 20
412.4750035069
 30
0.0
 10
735.9867259653
 20
409.8379292121
 30
0.0
 10
735.9867259653
 20
408.5014340727
 30
0.0
  0
SPLINE
  5
301
100
AcDbEntity
  8
0
100
AcDbSpline
 62
7
  6
CONTINUOUS
 70
0
 71
3
 72
9
 73
5
 74
0
 42
0.0000001
 43
0.0000001
 44
0.0000000001
 40
0.0
 40
0.0
 40
0.0
 40
0.0
 40
0.2245236876
 40
1.0
 40
1.0
 40
1.0
 40
1.0
 10
729.7274838648
 20
1048.3087875224
 30
0.0
 10
729.6386249011
 20
1048.184137957
 30
0.0
 10
729.3013897214
 20
1047.5866459081
 30
0.0
 10
729.1984643669
 20
1046.8817157115
 30
0.0
 10
729.1984643669
 20
1046.3529974668
 30
0.0
  0
SPLINE
  5
302
100
AcDbEntity
  8
0
100
AcDbSpline
 62
7
  6
CONTINUOUS
 70
0
 71
3
 72
8
 73
4
 74
0
 42
0.0000001
 43
0.0000001
 44
0.0000000001
 40
0.0
 40
0.0
 40
0.0
 40
0.0
 40
1.0
 40
1.0
 40
1.0
 40
1.0
 10
729.3476771016
 20
1048.2992050327
 30
0.0
 10
729.5256214876
 20
1048.4018050704
 30
0.0
 10
729.7236274589
 20
1048.4742031774
 30
0.0
 10
729.9250216801
 20
1048.5145930269
 30
0.0
  0
SPLINE
  5
303
100
AcDbEntity
  8
0
100
AcDbSpline
 62
7
  6
CONTINUOUS
 70
0
 71
3
 72
9
 73
5
 74
0
 42
0.0000001
 43
0.0000001
 44
0.0000000001
 40
0.0
 40
0.0
 40
0.0
 40
0.0
 40
0.2245627712
 40
1.0
 40
1.0
 40
1.0
 40
1.0
 10
730.1424942466
 20
1048.5464976748
 30
0.0
 10
730.2933949734
 20
1048.5608306448
 30
0.0
 10
730.9725364398
 20
1048.5548101988
 30
0.0
 10
731.6282338115
 20
1048.295681352
 30
0.0
 10
732.0824177714
 20
1048.0355167182
 30
0.0
  0
SPLINE
  5
304
100
AcDbEntity
  8
0
100
AcDbSpline
 62
7
  6
CONTINUOUS
 70
0
 71
3
 72
9
 73
5
 74
0
 42
0.0000001
 43
0.0000001
 44
0.0000000001
 40
0.0
 40
0.0
 40
0.0
 40
0.0
 40
0.4997026048
 40
1.0
 40
1.0
 40
1.0
 40
1.0
 10
732.0824177714
 20
1048.0355167182
 30
0.0
 10
733.2407471414
 20
1047.3720050951
 30
0.0
 10
735.0720231816
 20
1045.2643767823
 30
0.0
 10
735.9867259653
 20
1042.6273024875
 30
0.0
 10
735.9867259653
 20
1041.2908073481
 30
0.0
  0
SPLINE
  5
305
100
AcDbEntity
  8
0
100
AcDbSpline
 62
7
  6
CONTINUOUS
 70
0
 71
3
 72
8
 73
4
 74
0
 42
0.0000001
 43
0.0000001
 44
0.0000000001
 40
0.0
 40
0.0
 40
0.0
 40
0.0
 40
1.0
 40
1.0
 40
1.0
 40
1.0
 10
350.0325342156
 20
1333.0918441069
 30
0.0
 10
350.1492147473
 20
1333.2384459009
 30
0.0
 10
350.2958152749
 20
1333.3661870998
 30
0.0
 10
350.4593878583
 20
1333.4575678552
 30
0.0
  0
SPLINE
  5
306
100
AcDbEntity
  8
0
100
AcDbSpline
 62
7
  6
CONTINUOUS
 70
0
 71
3
 72
9
 73
5
 74
0
 42
0.0000001
 43
0.0000001
 44
0.0000000001
 40
0.0
 40
0.0
 40
0.0
 40
0.0
 40
0.7245450559
 40
1.0
 40
1.0
 40
1.0
 40
1.0
 10
694.5194397132
 20
181.8803846914
 30
0.0
 10
694.5194396956
 20
181.577536155
 30
0.0
 10
694.3606231662
 20
181.1535716142
 30
0.0
 10
694.0902957742
 20
180.8358001244
 30
0.0
 10
694.0101093615
 20
180.7531780439
 30
0.0
  0
SPLINE
  5
307
100
AcDbEntity
  8
0
100
AcDbSpline
 62
7
  6
CONTINUOUS
 70
0
 71
3
 72
8
 73
4
 74
0
 42
0.0000001
 43
0.0000001
 44
0.0000000001
 40
0.0
 40
0.0
 40
0.0
 40
0.0
 40
1.0
 40
1.0
 40
1.0
 40
1.0
 10
694.0101093615
 20
180.7531780439
 30
0.0
 10
693.8849769863
 20
180.6242447643
 30
0.0
 10
693.7451884619
 20
180.5087515001
 30
0.0
 10
693.5978189312
 20
180.4059695789
 30
0.0
  0
SPLINE
  5
308
100
AcDbEntity
  8
0
100
AcDbSpline
 62
7
  6
CONTINUOUS
 70
0
 71
3
 72
8
 73
4
 74
0
 42
0.0000001
 43
0.0000001
 44
0.0000000001
 40
0.0
 40
0.0
 40
0.0
 40
0.0
 40
1.0
 40
1.0
 40
1.0
 40
1.0
 10
343.56237005
 20
1289.3431969121
 30
0.0
 10
343.3532751038
 20
1289.1500038618
 30
0.0
 10
343.1824822736
 20
1288.8630254066
 30
0.0
 10
343.1823749115
 20
1288.5783427065
 30
0.0
  0
SPLINE
  5
309
100
AcDbEntity
  8
0
100
AcDbSpline
 62
7
  6
CONTINUOUS
 70
0
 71
3
 72
8
 73
4
 74
0
 42
0.0000001
 43
0.0000001
 44
0.0000000001
 40
0.0
 40
0.0
 40
0.0
 40
0.0
 40
1.0
 40
1.0
 40
1.0
 40
1.0
 10
694.1220300325
 20
1129.5365781059
 30
0.0
 10
693.9711611631
 20
1129.7166678821
 30
0.0
 10
693.790521494
 20
1129.8733023181
 30
0.0
 10
693.5978256699
 20
1130.0076974913
 30
0.0
  0
SPLINE
  5
30A
100
AcDbEntity
  8
0
100
AcDbSpline
 62
7
  6
CONTINUOUS
 70
0
 71
3
 72
8
 73
4
 74
0
 42
0.0000001
 43
0.0000001
 44
0.0000000001
 40
0.0
 40
0.0
 40
0.0
 40
0.0
 40
1.0
 40
1.0
 40
1.0
 40
1.0
 10
406.0455280076
 20
1295.8538614975
 30
0.0
 10
405.8946591382
 20
1296.0339512737
 30
0.0
 10
405.7140194692
 20
1296.1905857096
 30
0.0
 10
405.5213236451
 20
1296.3249808829
 30
0.0
  0
SPLINE
  5
30B
100
AcDbEntity
  8
0
100
AcDbSpline
 62
7
  6
CONTINUOUS
 70
0
 71
3
 72
9
 73
5
 74
0
 42
0.0000001
 43
0.0000001
 44
0.0000000001
 40
0.0
 40
0.0
 40
0.0
 40
0.0
 40
0.5235359955
 40
1.0
 40
1.0
 40
1.0
 40
1.0
 10
352.5556306427
 20
1333.2366525167
 30
0.0
 10
352.2261058504
 20
1333.426468154
 30
0.0
 10
351.539514649
 20
1333.7249001017
 30
0.0
 10
350.7672477704
 20
1333.6156896563
 30
0.0
 10
350.4593878583
 20
1333.4575678552
 30
0.0
  0
SPLINE
  5
30C
100
AcDbEntity
  8
0
100
AcDbSpline
 62
7
  6
CONTINUOUS
 70
0
 71
3
 72
8
 73
4
 74
0
 42
0.0000001
 43
0.0000001
 44
0.0000000001
 40
0.0
 40
0.0
 40
0.0
 40
0.0
 40
1.0
 40
1.0
 40
1.0
 40
1.0
 10
347.7029571684
 20
1262.8485982475
 30
0.0
 10
347.9476524937
 20
1262.5221547245
 30
0.0
 10
348.2146116701
 20
1262.2108733446
 30
0.0
 10
348.5034830955
 20
1261.9227857269
 30
0.0
  0
SPLINE
  5
30D
100
AcDbEntity
  8
0
100
AcDbSpline
 62
7
  6
CONTINUOUS
 70
0
 71
3
 72
9
 73
5
 74
0
 42
0.0000001
 43
0.0000001
 44
0.0000000001
 40
0.0
 40
0.0
 40
0.0
 40
0.0
 40
0.5221971759
 40
1.0
 40
1.0
 40
1.0
 40
1.0
 10
751.8756306391
 20
151.7714384193
 30
0.0
 10
751.875646029
 20
151.3850671529
 30
0.0
 10
751.7869663813
 20
150.6277207819
 30
0.0
 10
751.2968000855
 20
150.0023097245
 30
0.0
 10
750.9991825489
 20
149.8115137984
 30
0.0
  0
SPLINE
  5
30E
100
AcDbEntity
  8
0
100
AcDbSpline
 62
7
  6
CONTINUOUS
 70
0
 71
3
 72
12
 73
8
 74
0
 42
0.0000001
 43
0.0000001
 44
0.0000000001
 40
0.0
 40
0.0
 40
0.0
 40
0.0
 40
0.1832755849
 40
0.3014564547
 40
0.4361795015
 40
0.7288632917
 40
1.0
 40
1.0
 40
1.0
 40
1.0
 10
363.4077482466
 20
1265.7054399824
 30
0.0
 10
362.7276936946
 20
1265.3133308279
 30
0.0
 10
361.2393894218
 20
1265.3894399535
 30
0.0
 10
359.6206457771
 20
1266.306374493
 30
0.0
 10
357.8480779049
 20
1267.8629638038
 30
0.0
 10
356.2019782342
 20
1270.4202902041
 30
0.0
 10
355.5615996354
 20
1272.8267690702
 30
0.0
 10
355.5615996354
 20
1273.9880918179
 30
0.0
  0
SPLINE
  5
30F
100
AcDbEntity
  8
0
100
AcDbSpline
 62
7
  6
CONTINUOUS
 70
0
 71
3
 72
8
 73
4
 74
0
 42
0.0000001
 43
0.0000001
 44
0.0000000001
 40
0.0
 40
0.0
 40
0.0
 40
0.0
 40
1.0
 40
1.0
 40
1.0
 40
1.0
 10
355.5615996354
 20
1273.9880918179
 30
0.0
 10
355.5615996354
 20
1274.3736200996
 30
0.0
 10
355.5985561096
 20
1274.7624475845
 30
0.0
 10
355.6856869264
 20
1275.1380008786
 30
0.0
  0
SPLINE
  5
310
100
AcDbEntity
  8
0
100
AcDbSpline
 62
7
  6
CONTINUOUS
 70
0
 71
3
 72
9
 73
5
 74
0
 42
0.0000001
 43
0.0000001
 44
0.0000000001
 40
0.0
 40
0.0
 40
0.0
 40
0.0
 40
0.2787808137
 40
1.0
 40
1.0
 40
1.0
 40
1.0
 10
355.6856869264
 20
1275.1380008786
 30
0.0
 10
355.7325401755
 20
1275.3399488543
 30
0.0
 10
355.9470950719
 20
1276.0496986698
 30
0.0
 10
356.4432519041
 20
1276.6957177915
 30
0.0
 10
356.907877451
 20
1276.9636138445
 30
0.0
  0
SPLINE
  5
311
100
AcDbEntity
  8
0
100
AcDbSpline
 62
7
  6
CONTINUOUS
 70
0
 71
3
 72
11
 73
7
 74
0
 42
0.0000001
 43
0.0000001
 44
0.0000000001
 40
0.0
 40
0.0
 40
0.0
 40
0.0
 40
0.1835917434
 40
0.4352068896
 40
0.7283955706
 40
1.0
 40
1.0
 40
1.0
 40
1.0
 10
734.8475678069
 20
201.8580803793
 30
0.0
 10
734.2721370287
 20
201.5262957081
 30
0.0
 10
732.479030668
 20
201.6316606201
 30
0.0
 10
730.391658272
 20
203.3486116835
 30
0.0
 10
728.7458309255
 20
205.8403651065
 30
0.0
 10
728.2085189432
 20
207.8838203547
 30
0.0
 10
728.2085189432
 20
208.8664780638
 30
0.0
  0
SPLINE
  5
312
100
AcDbEntity
  8
0
100
AcDbSpline
 62
7
  6
CONTINUOUS
 70
0
 71
3
 72
9
 73
5
 74
0
 42
0.0000001
 43
0.0000001
 44
0.0000000001
 40
0.0
 40
0.0
 40
0.0
 40
0.0
 40
0.2335270221
 40
1.0
 40
1.0
 40
1.0
 40
1.0
 10
737.0270377234
 20
1060.5993713688
 30
0.0
 10
737.2372203592
 20
1060.4780251126
 30
0.0
 10
738.2108615435
 20
1060.0990329075
 30
0.0
 10
739.3400372792
 20
1060.1146945965
 30
0.0
 10
740.0893358604
 20
1060.3850165529
 30
0.0
  0
SPLINE
  5
313
100
AcDbEntity
  8
0
100
AcDbSpline
 62
7
  6
CONTINUOUS
 70
0
 71
3
 72
8
 73
4
 74
0
 42
0.0000001
 43
0.0000001
 44
0.0000000001
 40
0.0
 40
0.0
 40
0.0
 40
0.0
 40
1.0
 40
1.0
 40
1.0
 40
1.0
 10
728.2085189432
 20
1045.7814556216
 30
0.0
 10
728.2085189432
 20
1046.1406760626
 30
0.0
 10
728.2463512198
 20
1046.5038990719
 30
0.0
 10
728.3374476313
 20
1046.8513767963
 30
0.0
  0
SPLINE
  5
314
100
AcDbEntity
  8
0
100
AcDbSpline
 62
7
  6
CONTINUOUS
 70
0
 71
3
 72
9
 73
5
 74
0
 42
0.0000001
 43
0.0000001
 44
0.0000000001
 40
0.0
 40
0.0
 40
0.0
 40
0.0
 40
0.2768213698
 40
1.0
 40
1.0
 40
1.0
 40
1.0
 10
728.3374476313
 20
1046.8513767963
 30
0.0
 10
728.379356676
 20
1047.0112344595
 30
0.0
 10
728.5678174565
 20
1047.5762470348
 30
0.0
 10
728.9736629557
 20
1048.083554141
 30
0.0
 10
729.3476771016
 20
1048.2992050327
 30
0.0
  0
SPLINE
  5
315
100
AcDbEntity
  8
0
100
AcDbSpline
 62
7
  6
CONTINUOUS
 70
0
 71
3
 72
8
 73
4
 74
0
 42
0.0000001
 43
0.0000001
 44
0.0000000001
 40
0.0
 40
0.0
 40
0.0
 40
0.0
 40
1.0
 40
1.0
 40
1.0
 40
1.0
 10
728.2085189432
 20
412.9920823462
 30
0.0
 10
728.2085189432
 20
413.3513027871
 30
0.0
 10
728.2463512198
 20
413.7145257965
 30
0.0
 10
728.3374476313
 20
414.0620035209
 30
0.0
  0
SPLINE
  5
316
100
AcDbEntity
  8
0
100
AcDbSpline
 62
7
  6
CONTINUOUS
 70
0
 71
3
 72
9
 73
5
 74
0
 42
0.0000001
 43
0.0000001
 44
0.0000000001
 40
0.0
 40
0.0
 40
0.0
 40
0.0
 40
0.2768213698
 40
1.0
 40
1.0
 40
1.0
 40
1.0
 10
728.3374476313
 20
414.0620035209
 30
0.0
 10
728.379356676
 20
414.2218611841
 30
0.0
 10
728.5678174565
 20
414.7868737594
 30
0.0
 10
728.9736629557
 20
415.2941808656
 30
0.0
 10
729.3476771016
 20
415.5098317572
 30
0.0
  0
SPLINE
  5
317
100
AcDbEntity
  8
0
100
AcDbSpline
 62
7
  6
CONTINUOUS
 70
0
 71
3
 72
8
 73
4
 74
0
 42
0.0000001
 43
0.0000001
 44
0.0000000001
 40
0.0
 40
0.0
 40
0.0
 40
0.0
 40
1.0
 40
1.0
 40
1.0
 40
1.0
 10
728.2085189432
 20
841.6558513392
 30
0.0
 10
728.2085189432
 20
842.0150717802
 30
0.0
 10
728.2463512198
 20
842.3782947895
 30
0.0
 10
728.3374476313
 20
842.7257725139
 30
0.0
  0
SPLINE
  5
318
100
AcDbEntity
  8
0
100
AcDbSpline
 62
7
  6
CONTINUOUS
 70
0
 71
3
 72
9
 73
5
 74
0
 42
0.0000001
 43
0.0000001
 44
0.0000000001
 40
0.0
 40
0.0
 40
0.0
 40
0.0
 40
0.2768213698
 40
1.0
 40
1.0
 40
1.0
 40
1.0
 10
728.3374476313
 20
842.7257725139
 30
0.0
 10
728.379356676
 20
842.8856301772
 30
0.0
 10
728.5678174565
 20
843.4506427524
 30
0.0
 10
728.9736629557
 20
843.9579498586
 30
0.0
 10
729.3476771016
 20
844.1736007503
 30
0.0
  0
SPLINE
  5
319
100
AcDbEntity
  8
0
100
AcDbSpline
 62
7
  6
CONTINUOUS
 70
0
 71
3
 72
8
 73
4
 74
0
 42
0.0000001
 43
0.0000001
 44
0.0000000001
 40
0.0
 40
0.0
 40
0.0
 40
0.0
 40
1.0
 40
1.0
 40
1.0
 40
1.0
 10
728.2085189432
 20
208.8664780638
 30
0.0
 10
728.2085189432
 20
209.2256985047
 30
0.0
 10
728.2463512198
 20
209.5889215141
 30
0.0
 10
728.3374476313
 20
209.9363992385
 30
0.0
  0
SPLINE
  5
31A
100
AcDbEntity
  8
0
100
AcDbSpline
 62
7
  6
CONTINUOUS
 70
0
 71
3
 72
9
 73
5
 74
0
 42
0.0000001
 43
0.0000001
 44
0.0000000001
 40
0.0
 40
0.0
 40
0.0
 40
0.0
 40
0.2768213698
 40
1.0
 40
1.0
 40
1.0
 40
1.0
 10
728.3374476313
 20
209.9363992385
 30
0.0
 10
728.379356676
 20
210.0962569017
 30
0.0
 10
728.5678174565
 20
210.661269477
 30
0.0
 10
728.9736629557
 20
211.1685765832
 30
0.0
 10
729.3476771016
 20
211.3842274748
 30
0.0
  0
SPLINE
  5
31B
100
AcDbEntity
  8
0
100
AcDbSpline
 62
7
  6
CONTINUOUS
 70
0
 71
3
 72
11
 73
7
 74
0
 42
0.0000001
 43
0.0000001
 44
0.0000000001
 40
0.0
 40
0.0
 40
0.0
 40
0.0
 40
0.1835917434
 40
0.4352068896
 40
0.7283955706
 40
1.0
 40
1.0
 40
1.0
 40
1.0
 10
734.8475678069
 20
834.6474536547
 30
0.0
 10
734.2721370287
 20
834.3156689836
 30
0.0
 10
732.479030668
 20
834.4210338956
 30
0.0
 10
730.391658272
 20
836.1379849589
 30
0.0
 10
728.7458309255
 20
838.6297383819
 30
0.0
 10
728.2085189432
 20
840.6731936301
 30
0.0
 10
728.2085189432
 20
841.6558513392
 30
0.0
  0
LINE
  5
31C
100
AcDbEntity
  8
0
100
AcDbLine
 62
7
  6
CONTINUOUS
 10
750.9991825489
 20
1102.2110410649
 11
750.6371486708
 21
1102.008541309
  0
SPLINE
  5
31D
100
AcDbEntity
  8
0
100
AcDbSpline
 62
7
  6
CONTINUOUS
 70
0
 71
3
 72
11
 73
7
 74
0
 42
0.0000001
 43
0.0000001
 44
0.0000000001
 40
0.0
 40
0.0
 40
0.0
 40
0.0
 40
0.1835917434
 40
0.4352068896
 40
0.7283955706
 40
1.0
 40
1.0
 40
1.0
 40
1.0
 10
734.8475678069
 20
405.9836846617
 30
0.0
 10
734.2721370287
 20
405.6518999905
 30
0.0
 10
732.479030668
 20
405.7572649025
 30
0.0
 10
730.391658272
 20
407.4742159659
 30
0.0
 10
728.7458309255
 20
409.9659693889
 30
0.0
 10
728.2085189432
 20
412.0094246371
 30
0.0
 10
728.2085189432
 20
412.9920823462
 30
0.0
  0
SPLINE
  5
31E
100
AcDbEntity
  8
0
100
AcDbSpline
 62
7
  6
CONTINUOUS
 70
0
 71
3
 72
8
 73
4
 74
0
 42
0.0000001
 43
0.0000001
 44
0.0000000001
 40
0.0
 40
0.0
 40
0.0
 40
0.0
 40
1.0
 40
1.0
 40
1.0
 40
1.0
 10
345.6172840183
 20
1264.1591135793
 30
0.0
 10
345.4651498548
 20
1264.5080179439
 30
0.0
 10
345.3340976683
 20
1264.8671561375
 30
0.0
 10
345.2293800547
 20
1265.2330977732
 30
0.0
  0
SPLINE
  5
31F
100
AcDbEntity
  8
0
100
AcDbSpline
 62
7
  6
CONTINUOUS
 70
0
 71
3
 72
11
 73
7
 74
0
 42
0.0000001
 43
0.0000001
 44
0.0000000001
 40
0.0
 40
0.0
 40
0.0
 40
0.0
 40
0.1835917434
 40
0.4352068896
 40
0.7283955706
 40
1.0
 40
1.0
 40
1.0
 40
1.0
 10
734.8475678069
 20
1038.7730579371
 30
0.0
 10
734.2721370287
 20
1038.4412732659
 30
0.0
 10
732.479030668
 20
1038.546638178
 30
0.0
 10
730.391658272
 20
1040.2635892413
 30
0.0
 10
728.7458309255
 20
1042.7553426643
 30
0.0
 10
728.2085189432
 20
1044.7987979125
 30
0.0
 10
728.2085189432
 20
1045.7814556216
 30
0.0
  0
SPLINE
  5
320
100
AcDbEntity
  8
0
100
AcDbSpline
 62
7
  6
CONTINUOUS
 70
0
 71
3
 72
9
 73
5
 74
0
 42
0.0000001
 43
0.0000001
 44
0.0000000001
 40
0.0
 40
0.0
 40
0.0
 40
0.0
 40
0.2768097453
 40
1.0
 40
1.0
 40
1.0
 40
1.0
 10
345.0841249563
 20
1268.1184312909
 30
0.0
 10
345.1260461802
 20
1268.2782244988
 30
0.0
 10
345.3145439416
 20
1268.8430280751
 30
0.0
 10
345.7203043577
 20
1269.3501079175
 30
0.0
 10
346.0942061041
 20
1269.5656940012
 30
0.0
  0
SPLINE
  5
321
100
AcDbEntity
  8
0
100
AcDbSpline
 62
7
  6
CONTINUOUS
 70
0
 71
3
 72
9
 73
5
 74
0
 42
0.0000001
 43
0.0000001
 44
0.0000000001
 40
0.0
 40
0.0
 40
0.0
 40
0.0
 40
0.2208390513
 40
1.0
 40
1.0
 40
1.0
 40
1.0
 10
343.1823749115
 20
1288.5783427065
 30
0.0
 10
343.1823390197
 20
1288.483171704
 30
0.0
 10
343.2592718961
 20
1288.0492286294
 30
0.0
 10
343.6239397849
 20
1287.7256175814
 30
0.0
 10
343.914736213
 20
1287.5577299834
 30
0.0
  0
SPLINE
  5
322
100
AcDbEntity
  8
0
100
AcDbSpline
 62
7
  6
CONTINUOUS
 70
0
 71
3
 72
11
 73
7
 74
0
 42
0.0000001
 43
0.0000001
 44
0.0000000001
 40
0.0
 40
0.0
 40
0.0
 40
0.0
 40
0.4508595985
 40
0.7669433298
 40
0.9433511766
 40
1.0
 40
1.0
 40
1.0
 40
1.0
 10
750.9991825489
 20
1102.2110410649
 30
0.0
 10
751.1329981367
 20
1102.2797453074
 30
0.0
 10
751.3551698853
 20
1102.3998410525
 30
0.0
 10
751.6274732162
 20
1102.5786958964
 30
0.0
 10
751.7906274545
 20
1102.6284732378
 30
0.0
 10
751.8578073617
 20
1102.700874366
 30
0.0
 10
751.8755669968
 20
1102.6944086405
 30
0.0
  0
SPLINE
  5
323
100
AcDbEntity
  8
0
100
AcDbSpline
 62
7
  6
CONTINUOUS
 70
0
 71
3
 72
8
 73
4
 74
0
 42
0.0000001
 43
0.0000001
 44
0.0000000001
 40
0.0
 40
0.0
 40
0.0
 40
0.0
 40
1.0
 40
1.0
 40
1.0
 40
1.0
 10
287.2581494855
 20
399.8365871304
 30
0.0
 10
287.4475735161
 20
399.9458061574
 30
0.0
 10
287.6560134829
 20
400.0261778557
 30
0.0
 10
287.8689936685
 20
400.0756722978
 30
0.0
  0
SPLINE
  5
324
100
AcDbEntity
  8
0
100
AcDbSpline
 62
7
  6
CONTINUOUS
 70
0
 71
3
 72
11
 73
7
 74
0
 42
0.0000001
 43
0.0000001
 44
0.0000000001
 40
0.0
 40
0.0
 40
0.0
 40
0.0
 40
0.1980795881
 40
0.4559222641
 40
0.7401060645
 40
1.0
 40
1.0
 40
1.0
 40
1.0
 10
288.0969368575
 20
400.1173060709
 30
0.0
 10
288.8818130652
 20
400.2230955511
 30
0.0
 10
290.7544944532
 20
399.6146127801
 30
0.0
 10
292.9350147748
 20
397.5618264499
 30
0.0
 10
294.5855752799
 20
394.7667294417
 30
0.0
 10
295.1042980967
 20
392.5930586091
 30
0.0
 10
295.1042980967
 20
391.5539352949
 30
0.0
  0
SPLINE
  5
325
100
AcDbEntity
  8
0
100
AcDbSpline
 62
7
  6
CONTINUOUS
 70
0
 71
3
 72
8
 73
4
 74
0
 42
0.0000001
 43
0.0000001
 44
0.0000000001
 40
0.0
 40
0.0
 40
0.0
 40
0.0
 40
1.0
 40
1.0
 40
1.0
 40
1.0
 10
283.9808419687
 20
1295.0763905952
 30
0.0
 10
284.1444730354
 20
1295.1739209207
 30
0.0
 10
284.3310390303
 20
1295.2385891283
 30
0.0
 10
284.5192534357
 20
1295.2679596571
 30
0.0
  0
SPLINE
  5
326
100
AcDbEntity
  8
0
100
AcDbSpline
 62
7
  6
CONTINUOUS
 70
0
 71
3
 72
8
 73
4
 74
0
 42
0.0000001
 43
0.0000001
 44
0.0000000001
 40
0.0
 40
0.0
 40
0.0
 40
0.0
 40
1.0
 40
1.0
 40
1.0
 40
1.0
 10
283.9808419687
 20
1295.0763905952
 30
0.0
 10
283.7917412378
 20
1294.9551261894
 30
0.0
 10
283.6214103661
 20
1294.7953169519
 30
0.0
 10
283.4942315174
 20
1294.6101422155
 30
0.0
  0
SPLINE
  5
327
100
AcDbEntity
  8
0
100
AcDbSpline
 62
7
  6
CONTINUOUS
 70
0
 71
3
 72
8
 73
4
 74
0
 42
0.0000001
 43
0.0000001
 44
0.0000000001
 40
0.0
 40
0.0
 40
0.0
 40
0.0
 40
1.0
 40
1.0
 40
1.0
 40
1.0
 10
283.4942315174
 20
1294.6101422155
 30
0.0
 10
283.2029239468
 20
1294.1859930496
 30
0.0
 10
283.1043817354
 20
1293.6310767382
 30
0.0
 10
283.1043934792
 20
1293.116525851
 30
0.0
  0
SPLINE
  5
328
100
AcDbEntity
  8
0
100
AcDbSpline
 62
7
  6
CONTINUOUS
 70
0
 71
3
 72
9
 73
5
 74
0
 42
0.0000001
 43
0.0000001
 44
0.0000000001
 40
0.0
 40
0.0
 40
0.0
 40
0.0
 40
0.2236097662
 40
1.0
 40
1.0
 40
1.0
 40
1.0
 10
287.6579156562
 20
399.8658369091
 30
0.0
 10
287.5431443503
 20
399.7175586962
 30
0.0
 10
287.104437392
 20
398.9957061761
 30
0.0
 10
286.9725274256
 20
398.1244700548
 30
0.0
 10
286.9725274256
 20
397.4734313345
 30
0.0
  0
SPLINE
  5
329
100
AcDbEntity
  8
0
100
AcDbSpline
 62
7
  6
CONTINUOUS
 70
0
 71
3
 72
8
 73
4
 74
0
 42
0.0000001
 43
0.0000001
 44
0.0000000001
 40
0.0
 40
0.0
 40
0.0
 40
0.0
 40
1.0
 40
1.0
 40
1.0
 40
1.0
 10
287.2581494855
 20
1032.6259604058
 30
0.0
 10
287.4475735161
 20
1032.7351794328
 30
0.0
 10
287.6560134829
 20
1032.8155511311
 30
0.0
 10
287.8689936685
 20
1032.8650455732
 30
0.0
  0
SPLINE
  5
32A
100
AcDbEntity
  8
0
100
AcDbSpline
 62
7
  6
CONTINUOUS
 70
0
 71
3
 72
11
 73
7
 74
0
 42
0.0000001
 43
0.0000001
 44
0.0000000001
 40
0.0
 40
0.0
 40
0.0
 40
0.0
 40
0.1980795881
 40
0.4559222641
 40
0.7401060645
 40
1.0
 40
1.0
 40
1.0
 40
1.0
 10
288.0969368575
 20
1032.9066793463
 30
0.0
 10
288.8818130652
 20
1033.0124688265
 30
0.0
 10
290.7544944532
 20
1032.4039860555
 30
0.0
 10
292.9350147748
 20
1030.3511997253
 30
0.0
 10
294.5855752799
 20
1027.5561027171
 30
0.0
 10
295.1042980967
 20
1025.3824318845
 30
0.0
 10
295.1042980967
 20
1024.3433085704
 30
0.0
  0
SPLINE
  5
32B
100
AcDbEntity
  8
0
100
AcDbSpline
 62
7
  6
CONTINUOUS
 70
0
 71
3
 72
9
 73
5
 74
0
 42
0.0000001
 43
0.0000001
 44
0.0000000001
 40
0.0
 40
0.0
 40
0.0
 40
0.0
 40
0.2236097662
 40
1.0
 40
1.0
 40
1.0
 40
1.0
 10
287.6579156562
 20
1032.6552101845
 30
0.0
 10
287.5431443503
 20
1032.5069319717
 30
0.0
 10
287.104437392
 20
1031.7850794515
 30
0.0
 10
286.9725274256
 20
1030.9138433303
 30
0.0
 10
286.9725274256
 20
1030.2628046099
 30
0.0
  0
SPLINE
  5
32C
100
AcDbEntity
  8
0
100
AcDbSpline
 62
7
  6
CONTINUOUS
 70
0
 71
3
 72
8
 73
4
 74
0
 42
0.0000001
 43
0.0000001
 44
0.0000000001
 40
0.0
 40
0.0
 40
0.0
 40
0.0
 40
1.0
 40
1.0
 40
1.0
 40
1.0
 10
287.2581494855
 20
603.9621914128
 30
0.0
 10
287.4475735161
 20
604.0714104398
 30
0.0
 10
287.6560134829
 20
604.151782138
 30
0.0
 10
287.8689936685
 20
604.2012765802
 30
0.0
  0
SPLINE
  5
32D
100
AcDbEntity
  8
0
100
AcDbSpline
 62
7
  6
CONTINUOUS
 70
0
 71
3
 72
11
 73
7
 74
0
 42
0.0000001
 43
0.0000001
 44
0.0000000001
 40
0.0
 40
0.0
 40
0.0
 40
0.0
 40
0.1980795881
 40
0.4559222641
 40
0.7401060645
 40
1.0
 40
1.0
 40
1.0
 40
1.0
 10
288.0969368575
 20
604.2429103533
 30
0.0
 10
288.8818130652
 20
604.3486998335
 30
0.0
 10
290.7544944532
 20
603.7402170625
 30
0.0
 10
292.9350147748
 20
601.6874307323
 30
0.0
 10
294.5855752799
 20
598.8923337241
 30
0.0
 10
295.1042980967
 20
596.7186628915
 30
0.0
 10
295.1042980967
 20
595.6795395773
 30
0.0
  0
SPLINE
  5
32E
100
AcDbEntity
  8
0
100
AcDbSpline
 62
7
  6
CONTINUOUS
 70
0
 71
3
 72
9
 73
5
 74
0
 42
0.0000001
 43
0.0000001
 44
0.0000000001
 40
0.0
 40
0.0
 40
0.0
 40
0.0
 40
0.2236097662
 40
1.0
 40
1.0
 40
1.0
 40
1.0
 10
287.6579156562
 20
603.9914411915
 30
0.0
 10
287.5431443503
 20
603.8431629786
 30
0.0
 10
287.104437392
 20
603.1213104584
 30
0.0
 10
286.9725274256
 20
602.2500743372
 30
0.0
 10
286.9725274256
 20
601.5990356169
 30
0.0
  0
SPLINE
  5
32F
100
AcDbEntity
  8
0
100
AcDbSpline
 62
7
  6
CONTINUOUS
 70
0
 71
3
 72
8
 73
4
 74
0
 42
0.0000001
 43
0.0000001
 44
0.0000000001
 40
0.0
 40
0.0
 40
0.0
 40
0.0
 40
1.0
 40
1.0
 40
1.0
 40
1.0
 10
287.2581494855
 20
1236.7515646882
 30
0.0
 10
287.4475735161
 20
1236.8607837152
 30
0.0
 10
287.6560134829
 20
1236.9411554135
 30
0.0
 10
287.8689936685
 20
1236.9906498556
 30
0.0
  0
SPLINE
  5
330
100
AcDbEntity
  8
0
100
AcDbSpline
 62
7
  6
CONTINUOUS
 70
0
 71
3
 72
11
 73
7
 74
0
 42
0.0000001
 43
0.0000001
 44
0.0000000001
 40
0.0
 40
0.0
 40
0.0
 40
0.0
 40
0.1980795881
 40
0.4559222641
 40
0.7401060645
 40
1.0
 40
1.0
 40
1.0
 40
1.0
 10
288.0969368575
 20
1237.0322836287
 30
0.0
 10
288.8818130652
 20
1237.1380731089
 30
0.0
 10
290.7544944532
 20
1236.5295903379
 30
0.0
 10
292.9350147748
 20
1234.4768040077
 30
0.0
 10
294.5855752799
 20
1231.6817069995
 30
0.0
 10
295.1042980967
 20
1229.5080361669
 30
0.0
 10
295.1042980967
 20
1228.4689128528
 30
0.0
  0
SPLINE
  5
331
100
AcDbEntity
  8
0
100
AcDbSpline
 62
7
  6
CONTINUOUS
 70
0
 71
3
 72
8
 73
4
 74
0
 42
0.0000001
 43
0.0000001
 44
0.0000000001
 40
0.0
 40
0.0
 40
0.0
 40
0.0
 40
1.0
 40
1.0
 40
1.0
 40
1.0
 10
629.4587081148
 20
1098.1646517742
 30
0.0
 10
629.3536178802
 20
1098.0913573028
 30
0.0
 10
629.2525704984
 20
1098.0116995644
 30
0.0
 10
629.1578870787
 20
1097.9253798855
 30
0.0
  0
SPLINE
  5
332
100
AcDbEntity
  8
0
100
AcDbSpline
 62
7
  6
CONTINUOUS
 70
0
 71
3
 72
8
 73
4
 74
0
 42
0.0000001
 43
0.0000001
 44
0.0000000001
 40
0.0
 40
0.0
 40
0.0
 40
0.0
 40
1.0
 40
1.0
 40
1.0
 40
1.0
 10
630.5178430707
 20
1098.6837812408
 30
0.0
 10
630.2380307704
 20
1098.5893224194
 30
0.0
 10
629.964321278
 20
1098.4708616221
 30
0.0
 10
629.708561157
 20
1098.3231993288
 30
0.0
  0
SPLINE
  5
333
100
AcDbEntity
  8
0
100
AcDbSpline
 62
7
  6
CONTINUOUS
 70
0
 71
3
 72
9
 73
5
 74
0
 42
0.0000001
 43
0.0000001
 44
0.0000000001
 40
0.0
 40
0.0
 40
0.0
 40
0.0
 40
0.2236097662
 40
1.0
 40
1.0
 40
1.0
 40
1.0
 10
287.6579156562
 20
1236.7808144669
 30
0.0
 10
287.5431443503
 20
1236.6325362541
 30
0.0
 10
287.104437392
 20
1235.9106837339
 30
0.0
 10
286.9725274256
 20
1235.0394476127
 30
0.0
 10
286.9725274256
 20
1234.3884088923
 30
0.0
  0
SPLINE
  5
334
100
AcDbEntity
  8
0
100
AcDbSpline
 62
7
  6
CONTINUOUS
 70
0
 71
3
 72
8
 73
4
 74
0
 42
0.0000001
 43
0.0000001
 44
0.0000000001
 40
0.0
 40
0.0
 40
0.0
 40
0.0
 40
1.0
 40
1.0
 40
1.0
 40
1.0
 10
670.5116205151
 20
178.5700981804
 30
0.0
 10
670.7010445458
 20
178.6793172074
 30
0.0
 10
670.9094845126
 20
178.7596889056
 30
0.0
 10
671.1224646982
 20
178.8091833478
 30
0.0
  0
SPLINE
  5
335
100
AcDbEntity
  8
0
100
AcDbSpline
 62
7
  6
CONTINUOUS
 70
0
 71
3
 72
11
 73
7
 74
0
 42
0.0000001
 43
0.0000001
 44
0.0000000001
 40
0.0
 40
0.0
 40
0.0
 40
0.0
 40
0.1980795881
 40
0.4559222641
 40
0.7401060645
 40
1.0
 40
1.0
 40
1.0
 40
1.0
 10
671.3504078872
 20
178.8508171209
 30
0.0
 10
672.1352840948
 20
178.9566066011
 30
0.0
 10
674.0079654829
 20
178.3481238301
 30
0.0
 10
676.1884858044
 20
176.2953374999
 30
0.0
 10
677.8390463096
 20
173.5002404917
 30
0.0
 10
678.3577691264
 20
171.3265696591
 30
0.0
 10
678.3577691264
 20
170.2874463449
 30
0.0
  0
SPLINE
  5
336
100
AcDbEntity
  8
0
100
AcDbSpline
 62
7
  6
CONTINUOUS
 70
0
 71
3
 72
8
 73
4
 74
0
 42
0.0000001
 43
0.0000001
 44
0.0000000001
 40
0.0
 40
0.0
 40
0.0
 40
0.0
 40
1.0
 40
1.0
 40
1.0
 40
1.0
 10
341.3822060899
 20
1264.4819351658
 30
0.0
 10
341.2771158553
 20
1264.4086406944
 30
0.0
 10
341.1760684735
 20
1264.328982956
 30
0.0
 10
341.0813850538
 20
1264.2426632771
 30
0.0
  0
SPLINE
  5
337
100
AcDbEntity
  8
0
100
AcDbSpline
 62
7
  6
CONTINUOUS
 70
0
 71
3
 72
8
 73
4
 74
0
 42
0.0000001
 43
0.0000001
 44
0.0000000001
 40
0.0
 40
0.0
 40
0.0
 40
0.0
 40
1.0
 40
1.0
 40
1.0
 40
1.0
 10
342.4413410459
 20
1265.0010646324
 30
0.0
 10
342.1615287455
 20
1264.906605811
 30
0.0
 10
341.8878192531
 20
1264.7881450136
 30
0.0
 10
341.6320591321
 20
1264.6404827203
 30
0.0
  0
SPLINE
  5
338
100
AcDbEntity
  8
0
100
AcDbSpline
 62
7
  6
CONTINUOUS
 70
0
 71
3
 72
9
 73
5
 74
0
 42
0.0000001
 43
0.0000001
 44
0.0000000001
 40
0.0
 40
0.0
 40
0.0
 40
0.0
 40
0.2236097662
 40
1.0
 40
1.0
 40
1.0
 40
1.0
 10
670.9113866859
 20
178.5993479591
 30
0.0
 10
670.79661538
 20
178.4510697462
 30
0.0
 10
670.3579084216
 20
177.729217226
 30
0.0
 10
670.2259984553
 20
176.8579811048
 30
0.0
 10
670.2259984553
 20
176.2069423845
 30
0.0
  0
SPLINE
  5
339
100
AcDbEntity
  8
0
100
AcDbSpline
 62
7
  6
CONTINUOUS
 70
0
 71
3
 72
8
 73
4
 74
0
 42
0.0000001
 43
0.0000001
 44
0.0000000001
 40
0.0
 40
0.0
 40
0.0
 40
0.0
 40
1.0
 40
1.0
 40
1.0
 40
1.0
 10
670.5116205151
 20
811.3594714558
 30
0.0
 10
670.7010445458
 20
811.4686904828
 30
0.0
 10
670.9094845126
 20
811.5490621811
 30
0.0
 10
671.1224646982
 20
811.5985566232
 30
0.0
  0
SPLINE
  5
33A
100
AcDbEntity
  8
0
100
AcDbSpline
 62
7
  6
CONTINUOUS
 70
0
 71
3
 72
11
 73
7
 74
0
 42
0.0000001
 43
0.0000001
 44
0.0000000001
 40
0.0
 40
0.0
 40
0.0
 40
0.0
 40
0.1980795881
 40
0.4559222641
 40
0.7401060645
 40
1.0
 40
1.0
 40
1.0
 40
1.0
 10
671.3504078872
 20
811.6401903963
 30
0.0
 10
672.1352840948
 20
811.7459798765
 30
0.0
 10
674.0079654829
 20
811.1374971055
 30
0.0
 10
676.1884858044
 20
809.0847107753
 30
0.0
 10
677.8390463096
 20
806.2896137671
 30
0.0
 10
678.3577691264
 20
804.1159429345
 30
0.0
 10
678.3577691264
 20
803.0768196204
 30
0.0
  0
SPLINE
  5
33B
100
AcDbEntity
  8
0
100
AcDbSpline
 62
7
  6
CONTINUOUS
 70
0
 71
3
 72
9
 73
5
 74
0
 42
0.0000001
 43
0.0000001
 44
0.0000000001
 40
0.0
 40
0.0
 40
0.0
 40
0.0
 40
0.2236097662
 40
1.0
 40
1.0
 40
1.0
 40
1.0
 10
670.9113866859
 20
811.3887212345
 30
0.0
 10
670.79661538
 20
811.2404430217
 30
0.0
 10
670.3579084216
 20
810.5185905015
 30
0.0
 10
670.2259984553
 20
809.6473543803
 30
0.0
 10
670.2259984553
 20
808.9963156599
 30
0.0
  0
SPLINE
  5
33C
100
AcDbEntity
  8
0
100
AcDbSpline
 62
7
  6
CONTINUOUS
 70
0
 71
3
 72
8
 73
4
 74
0
 42
0.0000001
 43
0.0000001
 44
0.0000000001
 40
0.0
 40
0.0
 40
0.0
 40
0.0
 40
1.0
 40
1.0
 40
1.0
 40
1.0
 10
670.5116205151
 20
382.6957024628
 30
0.0
 10
670.7010445458
 20
382.8049214898
 30
0.0
 10
670.9094845126
 20
382.885293188
 30
0.0
 10
671.1224646982
 20
382.9347876301
 30
0.0
  0
SPLINE
  5
33D
100
AcDbEntity
  8
0
100
AcDbSpline
 62
7
  6
CONTINUOUS
 70
0
 71
3
 72
11
 73
7
 74
0
 42
0.0000001
 43
0.0000001
 44
0.0000000001
 40
0.0
 40
0.0
 40
0.0
 40
0.0
 40
0.1980795881
 40
0.4559222641
 40
0.7401060645
 40
1.0
 40
1.0
 40
1.0
 40
1.0
 10
671.3504078872
 20
382.9764214033
 30
0.0
 10
672.1352840948
 20
383.0822108835
 30
0.0
 10
674.0079654829
 20
382.4737281125
 30
0.0
 10
676.1884858044
 20
380.4209417823
 30
0.0
 10
677.8390463096
 20
377.6258447741
 30
0.0
 10
678.3577691264
 20
375.4521739415
 30
0.0
 10
678.3577691264
 20
374.4130506273
 30
0.0
  0
SPLINE
  5
33E
100
AcDbEntity
  8
0
100
AcDbSpline
 62
7
  6
CONTINUOUS
 70
0
 71
3
 72
9
 73
5
 74
0
 42
0.0000001
 43
0.0000001
 44
0.0000000001
 40
0.0
 40
0.0
 40
0.0
 40
0.0
 40
0.2236097662
 40
1.0
 40
1.0
 40
1.0
 40
1.0
 10
670.9113866859
 20
382.7249522415
 30
0.0
 10
670.79661538
 20
382.5766740286
 30
0.0
 10
670.3579084216
 20
381.8548215084
 30
0.0
 10
670.2259984553
 20
380.9835853872
 30
0.0
 10
670.2259984553
 20
380.3325466669
 30
0.0
  0
SPLINE
  5
33F
100
AcDbEntity
  8
0
100
AcDbSpline
 62
7
  6
CONTINUOUS
 70
0
 71
3
 72
8
 73
4
 74
0
 42
0.0000001
 43
0.0000001
 44
0.0000000001
 40
0.0
 40
0.0
 40
0.0
 40
0.0
 40
1.0
 40
1.0
 40
1.0
 40
1.0
 10
630.9993963274
 20
1098.9047708065
 30
0.0
 10
631.1535994595
 20
1098.9132047644
 30
0.0
 10
631.308513483
 20
1098.9190311909
 30
0.0
 10
631.4626700072
 20
1098.9097843732
 30
0.0
  0
SPLINE
  5
340
100
AcDbEntity
  8
0
100
AcDbSpline
 62
7
  6
CONTINUOUS
 70
0
 71
3
 72
9
 73
5
 74
0
 42
0.0000001
 43
0.0000001
 44
0.0000000001
 40
0.0
 40
0.0
 40
0.0
 40
0.0
 40
0.2293766236
 40
1.0
 40
1.0
 40
1.0
 40
1.0
 10
347.2889133815
 20
1264.6404963177
 30
0.0
 10
347.0246422029
 20
1264.7930699022
 30
0.0
 10
345.7945290227
 20
1265.3178894051
 30
0.0
 10
344.3959525252
 20
1265.3949032595
 30
0.0
 10
343.3838303644
 20
1265.2316571689
 30
0.0
  0
SPLINE
  5
341
100
AcDbEntity
  8
0
100
AcDbSpline
 62
7
  6
CONTINUOUS
 70
0
 71
3
 72
9
 73
5
 74
0
 42
0.0000001
 43
0.0000001
 44
0.0000000001
 40
0.0
 40
0.0
 40
0.0
 40
0.0
 40
0.2293766236
 40
1.0
 40
1.0
 40
1.0
 40
1.0
 10
635.3654154064
 20
1098.3232129262
 30
0.0
 10
635.1011442278
 20
1098.4757865106
 30
0.0
 10
633.8710310475
 20
1099.0006060136
 30
0.0
 10
632.4724545501
 20
1099.077619868
 30
0.0
 10
631.4603323893
 20
1098.9143737773
 30
0.0
  0
SPLINE
  5
342
100
AcDbEntity
  8
0
100
AcDbSpline
 62
7
  6
CONTINUOUS
 70
0
 71
3
 72
9
 73
5
 74
0
 42
0.0000001
 43
0.0000001
 44
0.0000000001
 40
0.0
 40
0.0
 40
0.0
 40
0.0
 40
0.2208390513
 40
1.0
 40
1.0
 40
1.0
 40
1.0
 10
691.7976496061
 20
1033.042888644
 30
0.0
 10
691.7976854979
 20
1033.1380596465
 30
0.0
 10
691.7207526215
 20
1033.5720027212
 30
0.0
 10
691.3560847327
 20
1033.8956137692
 30
0.0
 10
691.0652883046
 20
1034.0635013671
 30
0.0
  0
SPLINE
  5
343
100
AcDbEntity
  8
0
100
AcDbSpline
 62
7
  6
CONTINUOUS
 70
0
 71
3
 72
8
 73
4
 74
0
 42
0.0000001
 43
0.0000001
 44
0.0000000001
 40
0.0
 40
0.0
 40
0.0
 40
0.0
 40
1.0
 40
1.0
 40
1.0
 40
1.0
 10
691.7976495812
 20
156.3095617056
 30
0.0
 10
691.797541861
 20
156.0248790038
 30
0.0
 10
691.6267494152
 20
155.737900533
 30
0.0
 10
691.4176544676
 20
155.5447074815
 30
0.0
  0
SPLINE
  5
344
100
AcDbEntity
  8
0
100
AcDbSpline
 62
7
  6
CONTINUOUS
 70
0
 71
3
 72
8
 73
4
 74
0
 42
0.0000001
 43
0.0000001
 44
0.0000000001
 40
0.0
 40
0.0
 40
0.0
 40
0.0
 40
1.0
 40
1.0
 40
1.0
 40
1.0
 10
342.9228865943
 20
1265.2220538693
 30
0.0
 10
343.0770922919
 20
1265.2304879675
 30
0.0
 10
343.2320088859
 20
1265.2363146987
 30
0.0
 10
343.3861679789
 20
1265.2270677936
 30
0.0
  0
SPLINE
  5
345
100
AcDbEntity
  8
0
100
AcDbSpline
 62
7
  6
CONTINUOUS
 70
0
 71
3
 72
8
 73
4
 74
0
 42
0.0000001
 43
0.0000001
 44
0.0000000001
 40
0.0
 40
0.0
 40
0.0
 40
0.0
 40
1.0
 40
1.0
 40
1.0
 40
1.0
 10
670.5116205151
 20
1015.4850757382
 30
0.0
 10
670.7010445458
 20
1015.5942947652
 30
0.0
 10
670.9094845126
 20
1015.6746664635
 30
0.0
 10
671.1224646982
 20
1015.7241609056
 30
0.0
  0
SPLINE
  5
346
100
AcDbEntity
  8
0
100
AcDbSpline
 62
7
  6
CONTINUOUS
 70
0
 71
3
 72
11
 73
7
 74
0
 42
0.0000001
 43
0.0000001
 44
0.0000000001
 40
0.0
 40
0.0
 40
0.0
 40
0.0
 40
0.1980795881
 40
0.4559222641
 40
0.7401060645
 40
1.0
 40
1.0
 40
1.0
 40
1.0
 10
671.3504078872
 20
1015.7657946787
 30
0.0
 10
672.1352840948
 20
1015.8715841589
 30
0.0
 10
674.0079654829
 20
1015.2631013879
 30
0.0
 10
676.1884858044
 20
1013.2103150577
 30
0.0
 10
677.8390463096
 20
1010.4152180495
 30
0.0
 10
678.3577691264
 20
1008.2415472169
 30
0.0
 10
678.3577691264
 20
1007.2024239027
 30
0.0
  0
SPLINE
  5
347
100
AcDbEntity
  8
0
100
AcDbSpline
 62
7
  6
CONTINUOUS
 70
0
 71
3
 72
9
 73
5
 74
0
 42
0.0000001
 43
0.0000001
 44
0.0000000001
 40
0.0
 40
0.0
 40
0.0
 40
0.0
 40
0.2236097662
 40
1.0
 40
1.0
 40
1.0
 40
1.0
 10
670.9113866859
 20
1015.5143255169
 30
0.0
 10
670.79661538
 20
1015.366047304
 30
0.0
 10
670.3579084216
 20
1014.6441947839
 30
0.0
 10
670.2259984553
 20
1013.7729586627
 30
0.0
 10
670.2259984553
 20
1013.1219199423
 30
0.0
  0
SPLINE
  5
348
100
AcDbEntity
  8
0
100
AcDbSpline
 62
7
  6
CONTINUOUS
 70
0
 71
3
 72
8
 73
4
 74
0
 42
0.0000001
 43
0.0000001
 44
0.0000000001
 40
0.0
 40
0.0
 40
0.0
 40
0.0
 40
1.0
 40
1.0
 40
1.0
 40
1.0
 10
349.5070078737
 20
1263.1581772068
 30
0.0
 10
349.2896115765
 20
1263.4298396699
 30
0.0
 10
349.0044586686
 20
1263.6500481913
 30
0.0
 10
348.7031328318
 20
1263.8240148087
 30
0.0
  0
SPLINE
  5
349
100
AcDbEntity
  8
0
100
AcDbSpline
 62
7
  6
CONTINUOUS
 70
0
 71
3
 72
8
 73
4
 74
0
 42
0.0000001
 43
0.0000001
 44
0.0000000001
 40
0.0
 40
0.0
 40
0.0
 40
0.0
 40
1.0
 40
1.0
 40
1.0
 40
1.0
 10
637.5835098986
 20
1096.8408938152
 30
0.0
 10
637.3661136013
 20
1097.1125562783
 30
0.0
 10
637.0809606935
 20
1097.3327647998
 30
0.0
 10
636.7796348567
 20
1097.5067314171
 30
0.0
  0
SPLINE
  5
34A
100
AcDbEntity
  8
0
100
AcDbSpline
 62
7
  6
CONTINUOUS
 70
0
 71
3
 72
11
 73
7
 74
0
 42
0.0000001
 43
0.0000001
 44
0.0000000001
 40
0.0
 40
0.0
 40
0.0
 40
0.0
 40
0.2599631815
 40
0.5441993056
 40
0.8020240112
 40
1.0
 40
1.0
 40
1.0
 40
1.0
 10
670.2259984553
 20
1013.1219199423
 30
0.0
 10
670.2259984553
 20
1012.0819950138
 30
0.0
 10
670.745443183
 20
1009.9067405806
 30
0.0
 10
672.3979410953
 20
1007.1103825083
 30
0.0
 10
674.5804434776
 20
1005.0576852136
 30
0.0
 10
676.4550769418
 20
1004.4517447639
 30
0.0
 10
677.2396778879
 20
1004.5594495442
 30
0.0
  0
SPLINE
  5
34B
100
AcDbEntity
  8
0
100
AcDbSpline
 62
7
  6
CONTINUOUS
 70
0
 71
3
 72
11
 73
7
 74
0
 42
0.0000001
 43
0.0000001
 44
0.0000000001
 40
0.0
 40
0.0
 40
0.0
 40
0.0
 40
0.2599631815
 40
0.5441993056
 40
0.8020240112
 40
1.0
 40
1.0
 40
1.0
 40
1.0
 10
670.2259984553
 20
380.3325466669
 30
0.0
 10
670.2259984553
 20
379.2926217383
 30
0.0
 10
670.745443183
 20
377.1173673052
 30
0.0
 10
672.3979410953
 20
374.3210092328
 30
0.0
 10
674.5804434776
 20
372.2683119381
 30
0.0
 10
676.4550769418
 20
371.6623714885
 30
0.0
 10
677.2396778879
 20
371.7700762688
 30
0.0
  0
SPLINE
  5
34C
100
AcDbEntity
  8
0
100
AcDbSpline
 62
7
  6
CONTINUOUS
 70
0
 71
3
 72
11
 73
7
 74
0
 42
0.0000001
 43
0.0000001
 44
0.0000000001
 40
0.0
 40
0.0
 40
0.0
 40
0.0
 40
0.2599631815
 40
0.5441993056
 40
0.8020240112
 40
1.0
 40
1.0
 40
1.0
 40
1.0
 10
670.2259984553
 20
808.9963156599
 30
0.0
 10
670.2259984553
 20
807.9563907314
 30
0.0
 10
670.745443183
 20
805.7811362982
 30
0.0
 10
672.3979410953
 20
802.9847782259
 30
0.0
 10
674.5804434776
 20
800.9320809312
 30
0.0
 10
676.4550769418
 20
800.3261404815
 30
0.0
 10
677.2396778879
 20
800.4338452618
 30
0.0
  0
SPLINE
  5
34D
100
AcDbEntity
  8
0
100
AcDbSpline
 62
7
  6
CONTINUOUS
 70
0
 71
3
 72
11
 73
7
 74
0
 42
0.0000001
 43
0.0000001
 44
0.0000000001
 40
0.0
 40
0.0
 40
0.0
 40
0.0
 40
0.2599631815
 40
0.5441993056
 40
0.8020240112
 40
1.0
 40
1.0
 40
1.0
 40
1.0
 10
670.2259984553
 20
176.2069423845
 30
0.0
 10
670.2259984553
 20
175.1670174559
 30
0.0
 10
670.745443183
 20
172.9917630228
 30
0.0
 10
672.3979410953
 20
170.1954049504
 30
0.0
 10
674.5804434776
 20
168.1427076557
 30
0.0
 10
676.4550769418
 20
167.5367672061
 30
0.0
 10
677.2396778879
 20
167.6444719864
 30
0.0
  0
SPLINE
  5
34E
100
AcDbEntity
  8
0
100
AcDbSpline
 62
7
  6
CONTINUOUS
 70
0
 71
3
 72
11
 73
7
 74
0
 42
0.0000001
 43
0.0000001
 44
0.0000000001
 40
0.0
 40
0.0
 40
0.0
 40
0.0
 40
0.2599631815
 40
0.5441993056
 40
0.8020240112
 40
1.0
 40
1.0
 40
1.0
 40
1.0
 10
286.9725274256
 20
1234.3884088923
 30
0.0
 10
286.9725274256
 20
1233.3484839638
 30
0.0
 10
287.4919721534
 20
1231.1732295306
 30
0.0
 10
289.1444700656
 20
1228.3768714583
 30
0.0
 10
291.326972448
 20
1226.3241741636
 30
0.0
 10
293.2016059121
 20
1225.7182337139
 30
0.0
 10
293.9862068582
 20
1225.8259384942
 30
0.0
  0
SPLINE
  5
34F
100
AcDbEntity
  8
0
100
AcDbSpline
 62
7
  6
CONTINUOUS
 70
0
 71
3
 72
11
 73
7
 74
0
 42
0.0000001
 43
0.0000001
 44
0.0000000001
 40
0.0
 40
0.0
 40
0.0
 40
0.0
 40
0.2599631815
 40
0.5441993056
 40
0.8020240112
 40
1.0
 40
1.0
 40
1.0
 40
1.0
 10
286.9725274256
 20
601.5990356169
 30
0.0
 10
286.9725274256
 20
600.5591106883
 30
0.0
 10
287.4919721534
 20
598.3838562552
 30
0.0
 10
289.1444700656
 20
595.5874981828
 30
0.0
 10
291.326972448
 20
593.5348008881
 30
0.0
 10
293.2016059121
 20
592.9288604385
 30
0.0
 10
293.9862068582
 20
593.0365652188
 30
0.0
  0
SPLINE
  5
350
100
AcDbEntity
  8
0
100
AcDbSpline
 62
7
  6
CONTINUOUS
 70
0
 71
3
 72
11
 73
7
 74
0
 42
0.0000001
 43
0.0000001
 44
0.0000000001
 40
0.0
 40
0.0
 40
0.0
 40
0.0
 40
0.2599631815
 40
0.5441993056
 40
0.8020240112
 40
1.0
 40
1.0
 40
1.0
 40
1.0
 10
286.9725274256
 20
1030.2628046099
 30
0.0
 10
286.9725274256
 20
1029.2228796814
 30
0.0
 10
287.4919721534
 20
1027.0476252482
 30
0.0
 10
289.1444700656
 20
1024.2512671759
 30
0.0
 10
291.326972448
 20
1022.1985698812
 30
0.0
 10
293.2016059121
 20
1021.5926294315
 30
0.0
 10
293.9862068582
 20
1021.7003342119
 30
0.0
  0
SPLINE
  5
351
100
AcDbEntity
  8
0
100
AcDbSpline
 62
7
  6
CONTINUOUS
 70
0
 71
3
 72
11
 73
7
 74
0
 42
0.0000001
 43
0.0000001
 44
0.0000000001
 40
0.0
 40
0.0
 40
0.0
 40
0.0
 40
0.2599631815
 40
0.5441993056
 40
0.8020240112
 40
1.0
 40
1.0
 40
1.0
 40
1.0
 10
286.9725274256
 20
397.4734313345
 30
0.0
 10
286.9725274256
 20
396.433506406
 30
0.0
 10
287.4919721534
 20
394.2582519728
 30
0.0
 10
289.1444700656
 20
391.4618939004
 30
0.0
 10
291.326972448
 20
389.4091966058
 30
0.0
 10
293.2016059121
 20
388.8032561561
 30
0.0
 10
293.9862068582
 20
388.9109609364
 30
0.0
  0
SPLINE
  5
352
100
AcDbEntity
  8
0
100
AcDbSpline
 62
7
  6
CONTINUOUS
 70
0
 71
3
 72
9
 73
5
 74
0
 42
0.0000001
 43
0.0000001
 44
0.0000000001
 40
0.0
 40
0.0
 40
0.0
 40
0.0
 40
0.2807306068
 40
1.0
 40
1.0
 40
1.0
 40
1.0
 10
678.3577691264
 20
1007.2024239027
 30
0.0
 10
678.3577691264
 20
1006.9674165975
 30
0.0
 10
678.3103638586
 20
1006.1350613567
 30
0.0
 10
678.0409625685
 20
1005.2862349211
 30
0.0
 10
677.6724412922
 20
1004.810061872
 30
0.0
  0
SPLINE
  5
353
100
AcDbEntity
  8
0
100
AcDbSpline
 62
7
  6
CONTINUOUS
 70
0
 71
3
 72
8
 73
4
 74
0
 42
0.0000001
 43
0.0000001
 44
0.0000000001
 40
0.0
 40
0.0
 40
0.0
 40
0.0
 40
1.0
 40
1.0
 40
1.0
 40
1.0
 10
677.52446672
 20
1004.6361138116
 30
0.0
 10
677.3750309645
 20
1004.4763853011
 30
0.0
 10
677.2009826493
 20
1004.3361597118
 30
0.0
 10
677.0114913108
 20
1004.2269018761
 30
0.0
  0
SPLINE
  5
354
100
AcDbEntity
  8
0
100
AcDbSpline
 62
7
  6
CONTINUOUS
 70
0
 71
3
 72
9
 73
5
 74
0
 42
0.0000001
 43
0.0000001
 44
0.0000000001
 40
0.0
 40
0.0
 40
0.0
 40
0.0
 40
0.2807306068
 40
1.0
 40
1.0
 40
1.0
 40
1.0
 10
678.3577691264
 20
374.4130506273
 30
0.0
 10
678.3577691264
 20
374.1780433221
 30
0.0
 10
678.3103638586
 20
373.3456880813
 30
0.0
 10
678.0409625685
 20
372.4968616457
 30
0.0
 10
677.6724412922
 20
372.0206885965
 30
0.0
  0
SPLINE
  5
355
100
AcDbEntity
  8
0
100
AcDbSpline
 62
7
  6
CONTINUOUS
 70
0
 71
3
 72
8
 73
4
 74
0
 42
0.0000001
 43
0.0000001
 44
0.0000000001
 40
0.0
 40
0.0
 40
0.0
 40
0.0
 40
1.0
 40
1.0
 40
1.0
 40
1.0
 10
677.52446672
 20
371.8467405362
 30
0.0
 10
677.3750309645
 20
371.6870120257
 30
0.0
 10
677.2009826493
 20
371.5467864364
 30
0.0
 10
677.0114913108
 20
371.4375286006
 30
0.0
  0
SPLINE
  5
356
100
AcDbEntity
  8
0
100
AcDbSpline
 62
7
  6
CONTINUOUS
 70
0
 71
3
 72
9
 73
5
 74
0
 42
0.0000001
 43
0.0000001
 44
0.0000000001
 40
0.0
 40
0.0
 40
0.0
 40
0.0
 40
0.2807306068
 40
1.0
 40
1.0
 40
1.0
 40
1.0
 10
678.3577691264
 20
803.0768196204
 30
0.0
 10
678.3577691264
 20
802.8418123151
 30
0.0
 10
678.3103638586
 20
802.0094570744
 30
0.0
 10
678.0409625685
 20
801.1606306387
 30
0.0
 10
677.6724412922
 20
800.6844575896
 30
0.0
  0
SPLINE
  5
357
100
AcDbEntity
  8
0
100
AcDbSpline
 62
7
  6
CONTINUOUS
 70
0
 71
3
 72
8
 73
4
 74
0
 42
0.0000001
 43
0.0000001
 44
0.0000000001
 40
0.0
 40
0.0
 40
0.0
 40
0.0
 40
1.0
 40
1.0
 40
1.0
 40
1.0
 10
677.52446672
 20
800.5105095292
 30
0.0
 10
677.3750309645
 20
800.3507810187
 30
0.0
 10
677.2009826493
 20
800.2105554294
 30
0.0
 10
677.0114913108
 20
800.1012975937
 30
0.0
  0
SPLINE
  5
358
100
AcDbEntity
  8
0
100
AcDbSpline
 62
7
  6
CONTINUOUS
 70
0
 71
3
 72
9
 73
5
 74
0
 42
0.0000001
 43
0.0000001
 44
0.0000000001
 40
0.0
 40
0.0
 40
0.0
 40
0.0
 40
0.2807306068
 40
1.0
 40
1.0
 40
1.0
 40
1.0
 10
678.3577691264
 20
170.2874463449
 30
0.0
 10
678.3577691264
 20
170.0524390397
 30
0.0
 10
678.3103638586
 20
169.2200837989
 30
0.0
 10
678.0409625685
 20
168.3712573633
 30
0.0
 10
677.6724412922
 20
167.8950843142
 30
0.0
  0
SPLINE
  5
359
100
AcDbEntity
  8
0
100
AcDbSpline
 62
7
  6
CONTINUOUS
 70
0
 71
3
 72
8
 73
4
 74
0
 42
0.0000001
 43
0.0000001
 44
0.0000000001
 40
0.0
 40
0.0
 40
0.0
 40
0.0
 40
1.0
 40
1.0
 40
1.0
 40
1.0
 10
677.52446672
 20
167.7211362538
 30
0.0
 10
677.3750309645
 20
167.5614077433
 30
0.0
 10
677.2009826493
 20
167.421182154
 30
0.0
 10
677.0114913108
 20
167.3119243182
 30
0.0
  0
SPLINE
  5
35A
100
AcDbEntity
  8
0
100
AcDbSpline
 62
7
  6
CONTINUOUS
 70
0
 71
3
 72
9
 73
5
 74
0
 42
0.0000001
 43
0.0000001
 44
0.0000000001
 40
0.0
 40
0.0
 40
0.0
 40
0.0
 40
0.2807306068
 40
1.0
 40
1.0
 40
1.0
 40
1.0
 10
295.1042980967
 20
1228.4689128528
 30
0.0
 10
295.1042980967
 20
1228.2339055475
 30
0.0
 10
295.0568928289
 20
1227.4015503068
 30
0.0
 10
294.7874915389
 20
1226.5527238711
 30
0.0
 10
294.4189702625
 20
1226.076550822
 30
0.0
  0
SPLINE
  5
35B
100
AcDbEntity
  8
0
100
AcDbSpline
 62
7
  6
CONTINUOUS
 70
0
 71
3
 72
8
 73
4
 74
0
 42
0.0000001
 43
0.0000001
 44
0.0000000001
 40
0.0
 40
0.0
 40
0.0
 40
0.0
 40
1.0
 40
1.0
 40
1.0
 40
1.0
 10
294.2709956903
 20
1225.9026027616
 30
0.0
 10
294.1215599348
 20
1225.7428742511
 30
0.0
 10
293.9475116197
 20
1225.6026486618
 30
0.0
 10
293.7580202811
 20
1225.4933908261
 30
0.0
  0
SPLINE
  5
35C
100
AcDbEntity
  8
0
100
AcDbSpline
 62
7
  6
CONTINUOUS
 70
0
 71
3
 72
9
 73
5
 74
0
 42
0.0000001
 43
0.0000001
 44
0.0000000001
 40
0.0
 40
0.0
 40
0.0
 40
0.0
 40
0.2807306068
 40
1.0
 40
1.0
 40
1.0
 40
1.0
 10
295.1042980967
 20
595.6795395773
 30
0.0
 10
295.1042980967
 20
595.4445322721
 30
0.0
 10
295.0568928289
 20
594.6121770313
 30
0.0
 10
294.7874915389
 20
593.7633505957
 30
0.0
 10
294.4189702625
 20
593.2871775466
 30
0.0
  0
SPLINE
  5
35D
100
AcDbEntity
  8
0
100
AcDbSpline
 62
7
  6
CONTINUOUS
 70
0
 71
3
 72
8
 73
4
 74
0
 42
0.0000001
 43
0.0000001
 44
0.0000000001
 40
0.0
 40
0.0
 40
0.0
 40
0.0
 40
1.0
 40
1.0
 40
1.0
 40
1.0
 10
294.2709956903
 20
593.1132294862
 30
0.0
 10
294.1215599348
 20
592.9535009757
 30
0.0
 10
293.9475116197
 20
592.8132753864
 30
0.0
 10
293.7580202811
 20
592.7040175506
 30
0.0
  0
SPLINE
  5
35E
100
AcDbEntity
  8
0
100
AcDbSpline
 62
7
  6
CONTINUOUS
 70
0
 71
3
 72
9
 73
5
 74
0
 42
0.0000001
 43
0.0000001
 44
0.0000000001
 40
0.0
 40
0.0
 40
0.0
 40
0.0
 40
0.2807306068
 40
1.0
 40
1.0
 40
1.0
 40
1.0
 10
295.1042980967
 20
1024.3433085704
 30
0.0
 10
295.1042980967
 20
1024.1083012651
 30
0.0
 10
295.0568928289
 20
1023.2759460244
 30
0.0
 10
294.7874915389
 20
1022.4271195887
 30
0.0
 10
294.4189702625
 20
1021.9509465396
 30
0.0
  0
SPLINE
  5
35F
100
AcDbEntity
  8
0
100
AcDbSpline
 62
7
  6
CONTINUOUS
 70
0
 71
3
 72
8
 73
4
 74
0
 42
0.0000001
 43
0.0000001
 44
0.0000000001
 40
0.0
 40
0.0
 40
0.0
 40
0.0
 40
1.0
 40
1.0
 40
1.0
 40
1.0
 10
294.2709956903
 20
1021.7769984792
 30
0.0
 10
294.1215599348
 20
1021.6172699687
 30
0.0
 10
293.9475116197
 20
1021.4770443794
 30
0.0
 10
293.7580202811
 20
1021.3677865437
 30
0.0
  0
SPLINE
  5
360
100
AcDbEntity
  8
0
100
AcDbSpline
 62
7
  6
CONTINUOUS
 70
0
 71
3
 72
9
 73
5
 74
0
 42
0.0000001
 43
0.0000001
 44
0.0000000001
 40
0.0
 40
0.0
 40
0.0
 40
0.0
 40
0.2807306068
 40
1.0
 40
1.0
 40
1.0
 40
1.0
 10
295.1042980967
 20
391.5539352949
 30
0.0
 10
295.1042980967
 20
391.3189279897
 30
0.0
 10
295.0568928289
 20
390.4865727489
 30
0.0
 10
294.7874915389
 20
389.6377463133
 30
0.0
 10
294.4189702625
 20
389.1615732642
 30
0.0
  0
SPLINE
  5
361
100
AcDbEntity
  8
0
100
AcDbSpline
 62
7
  6
CONTINUOUS
 70
0
 71
3
 72
8
 73
4
 74
0
 42
0.0000001
 43
0.0000001
 44
0.0000000001
 40
0.0
 40
0.0
 40
0.0
 40
0.0
 40
1.0
 40
1.0
 40
1.0
 40
1.0
 10
294.2709956903
 20
388.9876252038
 30
0.0
 10
294.1215599348
 20
388.8278966933
 30
0.0
 10
293.9475116197
 20
388.687671104
 30
0.0
 10
293.7580202811
 20
388.5784132683
 30
0.0
  0
SPLINE
  5
362
100
AcDbEntity
  8
0
100
AcDbSpline
 62
7
  6
CONTINUOUS
 70
0
 71
3
 72
8
 73
4
 74
0
 42
0.0000001
 43
0.0000001
 44
0.0000000001
 40
0.0
 40
0.0
 40
0.0
 40
0.0
 40
1.0
 40
1.0
 40
1.0
 40
1.0
 10
684.5206366593
 20
111.4303365384
 30
0.0
 10
684.3234584786
 20
111.3291003687
 30
0.0
 10
684.1025491415
 20
111.2637485913
 30
0.0
 10
683.8815595193
 20
111.2466727637
 30
0.0
  0
SPLINE
  5
363
100
AcDbEntity
  8
0
100
AcDbSpline
 62
7
  6
CONTINUOUS
 70
0
 71
3
 72
8
 73
4
 74
0
 42
0.0000001
 43
0.0000001
 44
0.0000000001
 40
0.0
 40
0.0
 40
0.0
 40
0.0
 40
1.0
 40
1.0
 40
1.0
 40
1.0
 10
683.8815595193
 20
111.2466727637
 30
0.0
 10
683.3789753085
 20
111.2078381738
 30
0.0
 10
682.8612420784
 20
111.3996398088
 30
0.0
 10
682.4244276113
 20
111.6512190917
 30
0.0
  0
SPLINE
  5
364
100
AcDbEntity
  8
0
100
AcDbSpline
 62
7
  6
CONTINUOUS
 70
0
 71
3
 72
8
 73
4
 74
0
 42
0.0000001
 43
0.0000001
 44
0.0000000001
 40
0.0
 40
0.0
 40
0.0
 40
0.0
 40
1.0
 40
1.0
 40
1.0
 40
1.0
 10
684.5206366593
 20
111.4303365384
 30
0.0
 10
684.6842092302
 20
111.5217172869
 30
0.0
 10
684.8308097792
 20
111.649458438
 30
0.0
 10
684.947490302
 20
111.7960602209
 30
0.0
  0
SPLINE
  5
365
100
AcDbEntity
  8
0
100
AcDbSpline
 62
7
  6
CONTINUOUS
 70
0
 71
3
 72
11
 73
7
 74
0
 42
0.0000001
 43
0.0000001
 44
0.0000000001
 40
0.0
 40
0.0
 40
0.0
 40
0.0
 40
0.4066212082
 40
0.7190624239
 40
0.9242195871
 40
1.0
 40
1.0
 40
1.0
 40
1.0
 10
283.9825258976
 20
342.6761289118
 30
0.0
 10
283.8517141999
 20
342.6390041773
 30
0.0
 10
283.6469974645
 20
342.5131580341
 30
0.0
 10
283.3591229864
 20
342.3693877846
 30
0.0
 10
283.2318495712
 20
342.2433544502
 30
0.0
 10
283.1045815046
 20
342.2189355134
 30
0.0
 10
283.1043938785
 20
342.1935945653
 30
0.0
  0
SPLINE
  5
366
100
AcDbEntity
  8
0
100
AcDbSpline
 62
7
  6
CONTINUOUS
 70
0
 71
3
 72
9
 73
5
 74
0
 42
0.0000001
 43
0.0000001
 44
0.0000000001
 40
0.0
 40
0.0
 40
0.0
 40
0.0
 40
0.4936693101
 40
1.0
 40
1.0
 40
1.0
 40
1.0
 10
283.1043934792
 20
1293.116525851
 30
0.0
 10
283.1044050592
 20
1292.6091477203
 30
0.0
 10
283.3007851522
 20
1291.5891859621
 30
0.0
 10
283.6846522373
 20
1290.6154557164
 30
0.0
 10
283.9825258976
 20
1290.188749509
 30
0.0
  0
SPLINE
  5
367
100
AcDbEntity
  8
0
100
AcDbSpline
 62
7
  6
CONTINUOUS
 70
0
 71
3
 72
12
 73
8
 74
0
 42
0.0000001
 43
0.0000001
 44
0.0000000001
 40
0.0
 40
0.0
 40
0.0
 40
0.0
 40
0.1832755849
 40
0.3014564547
 40
0.4361795015
 40
0.7288632917
 40
1.0
 40
1.0
 40
1.0
 40
1.0
 10
293.7580202811
 20
592.7040175506
 30
0.0
 10
293.077965729
 20
592.3119083962
 30
0.0
 10
291.5896614563
 20
592.3880175217
 30
0.0
 10
289.9709178115
 20
593.3049520612
 30
0.0
 10
288.1983499393
 20
594.861541372
 30
0.0
 10
286.5522502686
 20
597.4188677723
 30
0.0
 10
285.9118716698
 20
599.8253466384
 30
0.0
 10
285.9118716698
 20
600.9866693861
 30
0.0
  0
SPLINE
  5
368
100
AcDbEntity
  8
0
100
AcDbSpline
 62
7
  6
CONTINUOUS
 70
0
 71
3
 72
8
 73
4
 74
0
 42
0.0000001
 43
0.0000001
 44
0.0000000001
 40
0.0
 40
0.0
 40
0.0
 40
0.0
 40
1.0
 40
1.0
 40
1.0
 40
1.0
 10
682.4244276113
 20
111.6512190917
 30
0.0
 10
681.5335591537
 20
112.1643066029
 30
0.0
 10
680.8747057614
 20
113.0311505092
 30
0.0
 10
680.2871148987
 20
113.8747394974
 30
0.0
  0
SPLINE
  5
369
100
AcDbEntity
  8
0
100
AcDbSpline
 62
7
  6
CONTINUOUS
 70
0
 71
3
 72
12
 73
8
 74
0
 42
0.0000001
 43
0.0000001
 44
0.0000000001
 40
0.0
 40
0.0
 40
0.0
 40
0.0
 40
0.1832755849
 40
0.3014564547
 40
0.4361795015
 40
0.7288632917
 40
1.0
 40
1.0
 40
1.0
 40
1.0
 10
677.0114913108
 20
167.3119243182
 30
0.0
 10
676.3314367587
 20
166.9198151638
 30
0.0
 10
674.8431324859
 20
166.9959242893
 30
0.0
 10
673.2243888412
 20
167.9128588288
 30
0.0
 10
671.451820969
 20
169.4694481396
 30
0.0
 10
669.8057212983
 20
172.0267745399
 30
0.0
 10
669.1653426995
 20
174.433253406
 30
0.0
 10
669.1653426995
 20
175.5945761537
 30
0.0
  0
SPLINE
  5
36A
100
AcDbEntity
  8
0
100
AcDbSpline
 62
7
  6
CONTINUOUS
 70
0
 71
3
 72
12
 73
8
 74
0
 42
0.0000001
 43
0.0000001
 44
0.0000000001
 40
0.0
 40
0.0
 40
0.0
 40
0.0
 40
0.1832755849
 40
0.3014564547
 40
0.4361795015
 40
0.7288632917
 40
1.0
 40
1.0
 40
1.0
 40
1.0
 10
677.0114913108
 20
1004.2269018761
 30
0.0
 10
676.3314367587
 20
1003.8347927216
 30
0.0
 10
674.8431324859
 20
1003.9109018472
 30
0.0
 10
673.2243888412
 20
1004.8278363867
 30
0.0
 10
671.451820969
 20
1006.3844256974
 30
0.0
 10
669.8057212983
 20
1008.9417520977
 30
0.0
 10
669.1653426995
 20
1011.3482309639
 30
0.0
 10
669.1653426995
 20
1012.5095537115
 30
0.0
  0
SPLINE
  5
36B
100
AcDbEntity
  8
0
100
AcDbSpline
 62
7
  6
CONTINUOUS
 70
0
 71
3
 72
8
 73
4
 74
0
 42
0.0000001
 43
0.0000001
 44
0.0000000001
 40
0.0
 40
0.0
 40
0.0
 40
0.0
 40
1.0
 40
1.0
 40
1.0
 40
1.0
 10
669.1653426995
 20
1012.5095537115
 30
0.0
 10
669.1653426995
 20
1012.8950819932
 30
0.0
 10
669.2022991737
 20
1013.2839094781
 30
0.0
 10
669.2894299905
 20
1013.6594627723
 30
0.0
  0
SPLINE
  5
36C
100
AcDbEntity
  8
0
100
AcDbSpline
 62
7
  6
CONTINUOUS
 70
0
 71
3
 72
9
 73
5
 74
0
 42
0.0000001
 43
0.0000001
 44
0.0000000001
 40
0.0
 40
0.0
 40
0.0
 40
0.0
 40
0.2787808137
 40
1.0
 40
1.0
 40
1.0
 40
1.0
 10
669.2894299905
 20
1013.6594627723
 30
0.0
 10
669.3362832396
 20
1013.8614107479
 30
0.0
 10
669.550838136
 20
1014.5711605635
 30
0.0
 10
670.0469949682
 20
1015.2171796852
 30
0.0
 10
670.5116205151
 20
1015.4850757382
 30
0.0
  0
SPLINE
  5
36D
100
AcDbEntity
  8
0
100
AcDbSpline
 62
7
  6
CONTINUOUS
 70
0
 71
3
 72
8
 73
4
 74
0
 42
0.0000001
 43
0.0000001
 44
0.0000000001
 40
0.0
 40
0.0
 40
0.0
 40
0.0
 40
1.0
 40
1.0
 40
1.0
 40
1.0
 10
669.1653426995
 20
379.7201804361
 30
0.0
 10
669.1653426995
 20
380.1057087178
 30
0.0
 10
669.2022991737
 20
380.4945362027
 30
0.0
 10
669.2894299905
 20
380.8700894969
 30
0.0
  0
SPLINE
  5
36E
100
AcDbEntity
  8
0
100
AcDbSpline
 62
7
  6
CONTINUOUS
 70
0
 71
3
 72
9
 73
5
 74
0
 42
0.0000001
 43
0.0000001
 44
0.0000000001
 40
0.0
 40
0.0
 40
0.0
 40
0.0
 40
0.2787808137
 40
1.0
 40
1.0
 40
1.0
 40
1.0
 10
669.2894299905
 20
380.8700894969
 30
0.0
 10
669.3362832396
 20
381.0720374725
 30
0.0
 10
669.550838136
 20
381.7817872881
 30
0.0
 10
670.0469949682
 20
382.4278064097
 30
0.0
 10
670.5116205151
 20
382.6957024628
 30
0.0
  0
SPLINE
  5
36F
100
AcDbEntity
  8
0
100
AcDbSpline
 62
7
  6
CONTINUOUS
 70
0
 71
3
 72
8
 73
4
 74
0
 42
0.0000001
 43
0.0000001
 44
0.0000000001
 40
0.0
 40
0.0
 40
0.0
 40
0.0
 40
1.0
 40
1.0
 40
1.0
 40
1.0
 10
669.1653426995
 20
808.3839494291
 30
0.0
 10
669.1653426995
 20
808.7694777108
 30
0.0
 10
669.2022991737
 20
809.1583051957
 30
0.0
 10
669.2894299905
 20
809.5338584899
 30
0.0
  0
SPLINE
  5
370
100
AcDbEntity
  8
0
100
AcDbSpline
 62
7
  6
CONTINUOUS
 70
0
 71
3
 72
9
 73
5
 74
0
 42
0.0000001
 43
0.0000001
 44
0.0000000001
 40
0.0
 40
0.0
 40
0.0
 40
0.0
 40
0.2787808137
 40
1.0
 40
1.0
 40
1.0
 40
1.0
 10
669.2894299905
 20
809.5338584899
 30
0.0
 10
669.3362832396
 20
809.7358064655
 30
0.0
 10
669.550838136
 20
810.4455562811
 30
0.0
 10
670.0469949682
 20
811.0915754028
 30
0.0
 10
670.5116205151
 20
811.3594714558
 30
0.0
  0
SPLINE
  5
371
100
AcDbEntity
  8
0
100
AcDbSpline
 62
7
  6
CONTINUOUS
 70
0
 71
3
 72
8
 73
4
 74
0
 42
0.0000001
 43
0.0000001
 44
0.0000000001
 40
0.0
 40
0.0
 40
0.0
 40
0.0
 40
1.0
 40
1.0
 40
1.0
 40
1.0
 10
669.1653426995
 20
175.5945761537
 30
0.0
 10
669.1653426995
 20
175.9801044354
 30
0.0
 10
669.2022991737
 20
176.3689319203
 30
0.0
 10
669.2894299905
 20
176.7444852145
 30
0.0
  0
SPLINE
  5
372
100
AcDbEntity
  8
0
100
AcDbSpline
 62
7
  6
CONTINUOUS
 70
0
 71
3
 72
9
 73
5
 74
0
 42
0.0000001
 43
0.0000001
 44
0.0000000001
 40
0.0
 40
0.0
 40
0.0
 40
0.0
 40
0.2787808137
 40
1.0
 40
1.0
 40
1.0
 40
1.0
 10
669.2894299905
 20
176.7444852145
 30
0.0
 10
669.3362832396
 20
176.9464331901
 30
0.0
 10
669.550838136
 20
177.6561830057
 30
0.0
 10
670.0469949682
 20
178.3022021273
 30
0.0
 10
670.5116205151
 20
178.5700981804
 30
0.0
  0
SPLINE
  5
373
100
AcDbEntity
  8
0
100
AcDbSpline
 62
7
  6
CONTINUOUS
 70
0
 71
3
 72
8
 73
4
 74
0
 42
0.0000001
 43
0.0000001
 44
0.0000000001
 40
0.0
 40
0.0
 40
0.0
 40
0.0
 40
1.0
 40
1.0
 40
1.0
 40
1.0
 10
285.9118716698
 20
1233.7760426615
 30
0.0
 10
285.9118716698
 20
1234.1615709432
 30
0.0
 10
285.9488281441
 20
1234.5503984281
 30
0.0
 10
286.0359589608
 20
1234.9259517223
 30
0.0
  0
SPLINE
  5
374
100
AcDbEntity
  8
0
100
AcDbSpline
 62
7
  6
CONTINUOUS
 70
0
 71
3
 72
9
 73
5
 74
0
 42
0.0000001
 43
0.0000001
 44
0.0000000001
 40
0.0
 40
0.0
 40
0.0
 40
0.0
 40
0.2787808137
 40
1.0
 40
1.0
 40
1.0
 40
1.0
 10
286.0359589608
 20
1234.9259517223
 30
0.0
 10
286.0828122099
 20
1235.1278996979
 30
0.0
 10
286.2973671063
 20
1235.8376495135
 30
0.0
 10
286.7935239385
 20
1236.4836686352
 30
0.0
 10
287.2581494855
 20
1236.7515646882
 30
0.0
  0
SPLINE
  5
375
100
AcDbEntity
  8
0
100
AcDbSpline
 62
7
  6
CONTINUOUS
 70
0
 71
3
 72
12
 73
8
 74
0
 42
0.0000001
 43
0.0000001
 44
0.0000000001
 40
0.0
 40
0.0
 40
0.0
 40
0.0
 40
0.1832755849
 40
0.3014564547
 40
0.4361795015
 40
0.7288632917
 40
1.0
 40
1.0
 40
1.0
 40
1.0
 10
293.7580202811
 20
388.5784132683
 30
0.0
 10
293.077965729
 20
388.1863041138
 30
0.0
 10
291.5896614563
 20
388.2624132393
 30
0.0
 10
289.9709178115
 20
389.1793477788
 30
0.0
 10
288.1983499393
 20
390.7359370896
 30
0.0
 10
286.5522502686
 20
393.2932634899
 30
0.0
 10
285.9118716698
 20
395.699742356
 30
0.0
 10
285.9118716698
 20
396.8610651037
 30
0.0
  0
SPLINE
  5
376
100
AcDbEntity
  8
0
100
AcDbSpline
 62
7
  6
CONTINUOUS
 70
0
 71
3
 72
8
 73
4
 74
0
 42
0.0000001
 43
0.0000001
 44
0.0000000001
 40
0.0
 40
0.0
 40
0.0
 40
0.0
 40
1.0
 40
1.0
 40
1.0
 40
1.0
 10
285.9118716698
 20
600.9866693861
 30
0.0
 10
285.9118716698
 20
601.3721976678
 30
0.0
 10
285.9488281441
 20
601.7610251527
 30
0.0
 10
286.0359589608
 20
602.1365784469
 30
0.0
  0
SPLINE
  5
377
100
AcDbEntity
  8
0
100
AcDbSpline
 62
7
  6
CONTINUOUS
 70
0
 71
3
 72
9
 73
5
 74
0
 42
0.0000001
 43
0.0000001
 44
0.0000000001
 40
0.0
 40
0.0
 40
0.0
 40
0.0
 40
0.2787808137
 40
1.0
 40
1.0
 40
1.0
 40
1.0
 10
286.0359589608
 20
602.1365784469
 30
0.0
 10
286.0828122099
 20
602.3385264225
 30
0.0
 10
286.2973671063
 20
603.0482762381
 30
0.0
 10
286.7935239385
 20
603.6942953597
 30
0.0
 10
287.2581494855
 20
603.9621914128
 30
0.0
  0
SPLINE
  5
378
100
AcDbEntity
  8
0
100
AcDbSpline
 62
7
  6
CONTINUOUS
 70
0
 71
3
 72
8
 73
4
 74
0
 42
0.0000001
 43
0.0000001
 44
0.0000000001
 40
0.0
 40
0.0
 40
0.0
 40
0.0
 40
1.0
 40
1.0
 40
1.0
 40
1.0
 10
285.9118716698
 20
1029.6504383791
 30
0.0
 10
285.9118716698
 20
1030.0359666608
 30
0.0
 10
285.9488281441
 20
1030.4247941457
 30
0.0
 10
286.0359589608
 20
1030.8003474399
 30
0.0
  0
SPLINE
  5
379
100
AcDbEntity
  8
0
100
AcDbSpline
 62
7
  6
CONTINUOUS
 70
0
 71
3
 72
9
 73
5
 74
0
 42
0.0000001
 43
0.0000001
 44
0.0000000001
 40
0.0
 40
0.0
 40
0.0
 40
0.0
 40
0.2787808137
 40
1.0
 40
1.0
 40
1.0
 40
1.0
 10
286.0359589608
 20
1030.8003474399
 30
0.0
 10
286.0828122099
 20
1031.0022954155
 30
0.0
 10
286.2973671063
 20
1031.7120452311
 30
0.0
 10
286.7935239385
 20
1032.3580643528
 30
0.0
 10
287.2581494855
 20
1032.6259604058
 30
0.0
  0
SPLINE
  5
37A
100
AcDbEntity
  8
0
100
AcDbSpline
 62
7
  6
CONTINUOUS
 70
0
 71
3
 72
8
 73
4
 74
0
 42
0.0000001
 43
0.0000001
 44
0.0000000001
 40
0.0
 40
0.0
 40
0.0
 40
0.0
 40
1.0
 40
1.0
 40
1.0
 40
1.0
 10
285.9118716698
 20
396.8610651037
 30
0.0
 10
285.9118716698
 20
397.2465933854
 30
0.0
 10
285.9488281441
 20
397.6354208703
 30
0.0
 10
286.0359589608
 20
398.0109741645
 30
0.0
  0
SPLINE
  5
37B
100
AcDbEntity
  8
0
100
AcDbSpline
 62
7
  6
CONTINUOUS
 70
0
 71
3
 72
9
 73
5
 74
0
 42
0.0000001
 43
0.0000001
 44
0.0000000001
 40
0.0
 40
0.0
 40
0.0
 40
0.0
 40
0.2787808137
 40
1.0
 40
1.0
 40
1.0
 40
1.0
 10
286.0359589608
 20
398.0109741645
 30
0.0
 10
286.0828122099
 20
398.2129221401
 30
0.0
 10
286.2973671063
 20
398.9226719557
 30
0.0
 10
286.7935239385
 20
399.5686910773
 30
0.0
 10
287.2581494855
 20
399.8365871304
 30
0.0
  0
SPLINE
  5
37C
100
AcDbEntity
  8
0
100
AcDbSpline
 62
7
  6
CONTINUOUS
 70
0
 71
3
 72
10
 73
6
 74
0
 42
0.0000001
 43
0.0000001
 44
0.0000000001
 40
0.0
 40
0.0
 40
0.0
 40
0.0
 40
0.1961269852
 40
0.44096139
 40
1.0
 40
1.0
 40
1.0
 40
1.0
 10
680.2871148987
 20
1061.3873600946
 30
0.0
 10
680.5945805233
 20
1061.4744775129
 30
0.0
 10
681.1937500334
 20
1061.9027993449
 30
0.0
 10
682.6082903313
 20
1062.692506571
 30
0.0
 10
683.7537890962
 20
1063.3382550355
 30
0.0
 10
684.5206366593
 20
1063.8298638049
 30
0.0
  0
SPLINE
  5
37D
100
AcDbEntity
  8
0
100
AcDbSpline
 62
7
  6
CONTINUOUS
 70
0
 71
3
 72
12
 73
8
 74
0
 42
0.0000001
 43
0.0000001
 44
0.0000000001
 40
0.0
 40
0.0
 40
0.0
 40
0.0
 40
0.1832755849
 40
0.3014564547
 40
0.4361795015
 40
0.7288632917
 40
1.0
 40
1.0
 40
1.0
 40
1.0
 10
677.0114913108
 20
800.1012975937
 30
0.0
 10
676.3314367587
 20
799.7091884392
 30
0.0
 10
674.8431324859
 20
799.7852975648
 30
0.0
 10
673.2243888412
 20
800.7022321043
 30
0.0
 10
671.451820969
 20
802.258821415
 30
0.0
 10
669.8057212983
 20
804.8161478153
 30
0.0
 10
669.1653426995
 20
807.2226266815
 30
0.0
 10
669.1653426995
 20
808.3839494291
 30
0.0
  0
SPLINE
  5
37E
100
AcDbEntity
  8
0
100
AcDbSpline
 62
7
  6
CONTINUOUS
 70
0
 71
3
 72
8
 73
4
 74
0
 42
0.0000001
 43
0.0000001
 44
0.0000000001
 40
0.0
 40
0.0
 40
0.0
 40
0.0
 40
1.0
 40
1.0
 40
1.0
 40
1.0
 10
691.4176544676
 20
1032.2780344385
 30
0.0
 10
691.6267494138
 20
1032.4712274887
 30
0.0
 10
691.797542244
 20
1032.758205944
 30
0.0
 10
691.7976496061
 20
1033.042888644
 30
0.0
  0
SPLINE
  5
37F
100
AcDbEntity
  8
0
100
AcDbSpline
 62
7
  6
CONTINUOUS
 70
0
 71
3
 72
12
 73
8
 74
0
 42
0.0000001
 43
0.0000001
 44
0.0000000001
 40
0.0
 40
0.0
 40
0.0
 40
0.0
 40
0.1832755849
 40
0.3014564547
 40
0.4361795015
 40
0.7288632917
 40
1.0
 40
1.0
 40
1.0
 40
1.0
 10
293.7580202811
 20
1021.3677865437
 30
0.0
 10
293.077965729
 20
1020.9756773892
 30
0.0
 10
291.5896614563
 20
1021.0517865148
 30
0.0
 10
289.9709178115
 20
1021.9687210543
 30
0.0
 10
288.1983499393
 20
1023.5253103651
 30
0.0
 10
286.5522502686
 20
1026.0826367653
 30
0.0
 10
285.9118716698
 20
1028.4891156315
 30
0.0
 10
285.9118716698
 20
1029.6504383791
 30
0.0
  0
SPLINE
  5
380
100
AcDbEntity
  8
0
100
AcDbSpline
 62
7
  6
CONTINUOUS
 70
0
 71
3
 72
12
 73
8
 74
0
 42
0.0000001
 43
0.0000001
 44
0.0000000001
 40
0.0
 40
0.0
 40
0.0
 40
0.0
 40
0.1832755849
 40
0.3014564547
 40
0.4361795015
 40
0.7288632917
 40
1.0
 40
1.0
 40
1.0
 40
1.0
 10
293.7580202811
 20
1225.4933908261
 30
0.0
 10
293.077965729
 20
1225.1012816716
 30
0.0
 10
291.5896614563
 20
1225.1773907972
 30
0.0
 10
289.9709178115
 20
1226.0943253367
 30
0.0
 10
288.1983499393
 20
1227.6509146474
 30
0.0
 10
286.5522502686
 20
1230.2082410477
 30
0.0
 10
285.9118716698
 20
1232.6147199139
 30
0.0
 10
285.9118716698
 20
1233.7760426615
 30
0.0
  0
SPLINE
  5
381
100
AcDbEntity
  8
0
100
AcDbSpline
 62
7
  6
CONTINUOUS
 70
0
 71
3
 72
12
 73
8
 74
0
 42
0.0000001
 43
0.0000001
 44
0.0000000001
 40
0.0
 40
0.0
 40
0.0
 40
0.0
 40
0.1832755849
 40
0.3014564547
 40
0.4361795015
 40
0.7288632917
 40
1.0
 40
1.0
 40
1.0
 40
1.0
 10
677.0114913108
 20
371.4375286006
 30
0.0
 10
676.3314367587
 20
371.0454194462
 30
0.0
 10
674.8431324859
 20
371.1215285717
 30
0.0
 10
673.2243888412
 20
372.0384631112
 30
0.0
 10
671.451820969
 20
373.595052422
 30
0.0
 10
669.8057212983
 20
376.1523788223
 30
0.0
 10
669.1653426995
 20
378.5588576884
 30
0.0
 10
669.1653426995
 20
379.7201804361
 30
0.0
  0
ELLIPSE
  5
382
100
AcDbEntity
  8
0
100
AcDbEllipse
 62
7
  6
CONTINUOUS
 10
690.5195264849
 20
180.2539186293
 30
0.0
 11
3.9897363519
 21
-0.659194334
 31
0.0
 40
0.4344138212
 41
0.6352989396
 42
0.857054404
  0
ELLIPSE
  5
383
100
AcDbEntity
  8
0
100
AcDbEllipse
 62
7
  6
CONTINUOUS
 10
689.1053070346
 20
1130.9762346824
 30
0.0
 11
3.9374589769
 21
1.02581769
 31
0.0
 40
0.6868360053
 41
6.8915217137
 42
10.0331143673
  0
ELLIPSE
  5
384
100
AcDbEntity
  8
0
100
AcDbEllipse
 62
7
  6
CONTINUOUS
 10
401.0288050098
 20
1297.293518074
 30
0.0
 11
3.9374589769
 21
1.02581769
 31
0.0
 40
0.6868360053
 41
0.6083364066
 42
3.7499290601
  0
ELLIPSE
  5
385
100
AcDbEntity
  8
0
100
AcDbEllipse
 62
7
  6
CONTINUOUS
 10
690.5195264849
 20
1130.1597531734
 30
0.0
 11
3.9374589769
 21
1.02581769
 31
0.0
 40
0.6868360053
 41
3.7499290601
 42
6.8915217137
  0
ELLIPSE
  5
386
100
AcDbEntity
  8
0
100
AcDbEllipse
 62
7
  6
CONTINUOUS
 10
402.4430244601
 20
1296.4770365649
 30
0.0
 11
3.9374589769
 21
1.02581769
 31
0.0
 40
0.6868360053
 41
3.7499290601
 42
6.8915217137
  0
ELLIPSE
  5
387
100
AcDbEntity
  8
0
100
AcDbEllipse
 62
7
  6
CONTINUOUS
 10
633.9512195078
 20
1097.5002208637
 30
0.0
 11
3.9897363519
 21
-0.659194334
 31
0.0
 40
0.4344138212
 41
3.9986470576
 42
7.1402397112
  0
ELLIPSE
  5
388
100
AcDbEntity
  8
0
100
AcDbEllipse
 62
7
  6
CONTINUOUS
 10
632.5370000575
 20
1098.3167023727
 30
0.0
 11
3.9897363519
 21
-0.659194334
 31
0.0
 40
0.4344138212
 41
7.1402397112
 42
10.2818323648
  0
ELLIPSE
  5
389
100
AcDbEntity
  8
0
100
AcDbEllipse
 62
7
  6
CONTINUOUS
 10
344.4604980327
 20
1264.6339857643
 30
0.0
 11
3.9897363519
 21
-0.659194334
 31
0.0
 40
0.4344138212
 41
7.1402397112
 42
10.2818323648
  0
ELLIPSE
  5
38A
100
AcDbEntity
  8
0
100
AcDbEllipse
 62
7
  6
CONTINUOUS
 10
345.874717483
 20
1263.8175042552
 30
0.0
 11
3.9897363519
 21
-0.659194334
 31
0.0
 40
0.4344138212
 41
3.9986470576
 42
7.1402397112
  0
ENDSEC
  0
SECTION
  2
OBJECTS
  0
DICTIONARY
  5
C
100
AcDbDictionary
280
0
281
1
  3
ACAD_GROUP
350
D
  3
ACAD_MLINESTYLE
350
17
  3
ACAD_LAYOUT
350
1A
  3
ACAD_PLOTSETTINGS
350
19
  3
ACAD_PLOTSTYLENAME
350
E
  0
DICTIONARY
  5
D
102
{ACAD_REACTORS
330
C
102
}
100
AcDbDictionary
280
0
281
1
  0
ACDBDICTIONARYWDFLT
  5
E
102
{ACAD_REACTORS
330
C
102
}
100
AcDbDictionary
281
1
  3
Normal
350
F
100
AcDbDictionaryWithDefault
340
F
  0
DICTIONARY
  5
17
102
{ACAD_REACTORS
330
C
102
}
100
AcDbDictionary
280
0
281
1
  3
Standard
350
18
  0
DICTIONARY
  5
19
102
{ACAD_REACTORS
330
C
102
}
100
AcDbDictionary
281
1
  0
DICTIONARY
  5
1A
102
{ACAD_REACTORS
330
C
102
}
100
AcDbDictionary
281
1
  3
Model
350
38B
  3
Layout1
350
38C
  0
ACDBPLACEHOLDER
  5
F
102
{ACAD_REACTORS
330
E
102
}
  0
MLINESTYLE
  5
18
102
{ACAD_REACTORS
330
17
102
}
100
AcDbMlineStyle
  2
STANDARD
 70
0
  3

 62
256
 51
90.0
 52
90.0
 71
2
 49
0.5
 62
256
  6
BYLAYER
 49
-0.5
 62
256
  6
BYLAYER
  0
LAYOUT
  5
38B
102
{ACAD_REACTORS
330
1A
102
}
100
AcDbPlotSettings
  1

  2
none_device
  4

  6

 40
0.0
 41
0.0
 42
0.0
 43
0.0
 44
210.0
 45
297.0
 46
0.0
 47
0.0
 48
0.0
 49
0.0
140
0.0
141
0.0
142
1.0
143
1.0
 70
1024
 72
1
 73
0
 74
0
  7

 75
0
147
1.0
148
0.0
149
0.0
100
AcDbLayout
  1
Model
 70
0
 71
0
 10
0.0
 20
0.0
 11
210.0
 21
297.0
 12
0.0
 22
0.0
 32
0.0
 14
0.0
 24
0.0
 34
0.0
 15
0.0
 25
0.0
 35
0.0
146
0.0
 13
0.0
 23
0.0
 33
0.0
 16
1.0
 26
0.0
 36
0.0
 17
0.0
 27
1.0
 37
0.0
 76
0
330
210
345
0
346
0
  0
LAYOUT
  5
38C
102
{ACAD_REACTORS
330
1A
102
}
100
AcDbPlotSettings
  1

  2
none_device
  4

  6

 40
0.0
 41
0.0
 42
0.0
 43
0.0
 44
210.0
 45
297.0
 46
0.0
 47
0.0
 48
0.0
 49
0.0
140
0.0
141
0.0
142
1.0
143
1.0
 70
0
 72
1
 73
0
 74
0
  7

 75
0
147
1.0
148
0.0
149
0.0
100
AcDbLayout
  1
Layout1
 70
0
 71
1
 10
0.0
 20
0.0
 11
210.0
 21
297.0
 12
0.0
 22
0.0
 32
0.0
 14
0.0
 24
0.0
 34
0.0
 15
0.0
 25
0.0
 35
0.0
146
0.0
 13
0.0
 23
0.0
 33
0.0
 16
1.0
 26
0.0
 36
0.0
 17
0.0
 27
1.0
 37
0.0
 76
0
330
211
345
0
346
0
  0
ENDSEC
  0
EOF
