999
DXF file: C:\Users\sesa63760\Dev\_Creo\CAD\MCADID0000488_3D-CAD\drw0001_1.dxf
999
Pro/ENGINEER 2019471 by Parametric Technology Corporation
  0
SECTION
  2
HEADER
  9
$ACADVER
  1
AC1024
  9
$DWGCODEPAGE
  3
ANSI_1252
  9
$EXTMAX
 10
308.4975077952
 20
436.3036181675
 30
0.0
  9
$EXTMIN
 10
0.0
 20
0.0
 30
0.0
  9
$LIMMIN
 10
0.0
 20
0.0
  9
$LIMMAX
 10
308.4975077952
 20
436.3036181675
  9
$VIEWCTR
 10
154.2487538976
 20
218.1518090838
  9
$VIEWSIZE
 40
436.3036181675
  9
$CLAYER
  8
0
  9
$LTSCALE
 40
28.4405321472
  9
$CELTYPE
  6
BYLAYER
  9
$DIMSCALE
 40
1.0
  9
$DIMASZ
 40
3.6725893785
  9
$DIMEXO
 40
1.0
  9
$DIMDLI
 40
19.6498222108
  9
$DIMEXE
 40
1.0
  9
$DIMCEN
 40
4.6539052605
  9
$DIMLFAC
 40
1.0
  9
$DIMBLK
  1
_FILLED
  9
$DIMALT
 70
0
  9
$DIMALTF
 40
0.0393700787
  9
$DIMTXT
 40
5.1416251299
  9
$DIMTOL
 70
1
  9
$DIMLIM
 70
0
  9
$DIMTFAC
 40
1.0
  9
$DIMTP
 40
0.01
  9
$DIMTM
 40
0.01
  9
$DIMGAP
 40
0.625
  9
$DIMDSEP
 70
46
  9
$AUNITS
 70
0
  9
$PDMODE
 70
3
  9
$PDSIZE
 40
0.3125
  9
$HANDSEED
  5
3F6
  9
$TILEMODE
 70
1
  9
$MEASUREMENT
 70
1
  9
$INSUNITS
 70
4
  0
ENDSEC
  0
SECTION
  2
CLASSES
  0
CLASS
  1
ACDBDICTIONARYWDFLT
  2
AcDbDictionaryWithDefault
  3
AutoCAD 2000
 90
0
 91
1
280
0
281
0
  0
CLASS
  1
ACDBPLACEHOLDER
  2
AcDbPlaceHolder
  3
AutoCAD 2000
 90
0
 91
1
280
0
281
0
  0
CLASS
  1
LAYOUT
  2
AcDbLayout
  3
AutoCAD 2000
 90
0
 91
0
280
0
281
0
  0
ENDSEC
  0
SECTION
  2
TABLES
  0
TABLE
  2
VPORT
  5
8
100
AcDbSymbolTable
 70
2
  0
VPORT
  5
1F4
100
AcDbSymbolTableRecord
100
AcDbViewportTableRecord
  2
*ACTIVE
 70
0
 10
0.0
 20
0.0
 11
1.0
 21
1.0
 12
154.2487538976
 22
218.1518090838
 13
0.0
 23
0.0
 14
1.0
 24
1.0
 15
0.0
 25
0.0
 16
0.0
 26
0.0
 36
1.0
 17
0.0
 27
0.0
 37
0.0
 40
436.3036181675
 41
0.7070707071
 42
50.0
 43
0.0
 44
0.0
 50
0.0
 51
0.0
 71
0
 72
100
 73
1
 74
1
 75
0
 76
0
 77
0
 78
0
  0
ENDTAB
  0
TABLE
  2
LTYPE
  5
5
100
AcDbSymbolTable
 70
6
  0
LTYPE
  5
14
100
AcDbSymbolTableRecord
100
AcDbLinetypeTableRecord
  2
BYBLOCK
 70
0
  3

 72
65
 73
0
 40
0.0
  0
LTYPE
  5
15
100
AcDbSymbolTableRecord
100
AcDbLinetypeTableRecord
  2
BYLAYER
 70
0
  3

 72
65
 73
0
 40
0.0
  0
LTYPE
  5
16
100
AcDbSymbolTableRecord
100
AcDbLinetypeTableRecord
  2
CONTINUOUS
 70
64
  3
Solid line
 72
65
 73
0
 40
0.0
  0
LTYPE
  5
1F5
100
AcDbSymbolTableRecord
100
AcDbLinetypeTableRecord
  2
CENTER
 70
64
  3
____ _ ____ _ ____ _ ____ _ ____ _ ____ _ ____
 72
65
 73
4
 40
0.6
 49
0.375
 74
0
 49
-0.075
 74
0
 49
0.075
 74
0
 49
-0.075
 74
0
  0
LTYPE
  5
1F6
100
AcDbSymbolTableRecord
100
AcDbLinetypeTableRecord
  2
HIDDEN
 70
64
  3
- - - - - - - - - - - - - - - - - - - -
 72
65
 73
2
 40
0.2
 49
0.1
 74
0
 49
-0.1
 74
0
  0
LTYPE
  5
1F7
100
AcDbSymbolTableRecord
100
AcDbLinetypeTableRecord
  2
PHANTOM
 70
64
  3
_____ _ _ _____ _ _ _____ _ _ _____
 72
65
 73
6
 40
0.8
 49
0.45
 74
0
 49
-0.05
 74
0
 49
0.1
 74
0
 49
-0.05
 74
0
 49
0.1
 74
0
 49
-0.05
 74
0
  0
LTYPE
  5
1F8
100
AcDbSymbolTableRecord
100
AcDbLinetypeTableRecord
  2
DOT
 70
64
  3
. . . . . . . . . . . . . . . . . . . .
 72
65
 73
2
 40
0.2
 49
0.1
 74
0
 49
-0.1
 74
0
  0
LTYPE
  5
1F9
100
AcDbSymbolTableRecord
100
AcDbLinetypeTableRecord
  2
DASHED
 70
64
  3
- - - - - - - - - - - - - - - - - - - -
 72
65
 73
2
 40
0.2
 49
0.1
 74
0
 49
-0.1
 74
0
  0
ENDTAB
  0
TABLE
  2
LAYER
  5
2
100
AcDbSymbolTable
 70
36
  0
LAYER
  5
10
100
AcDbSymbolTableRecord
100
AcDbLayerTableRecord
  2
0
 70
0
 62
7
  6
CONTINUOUS
370
-3
390
F
  0
LAYER
  5
1FA
100
AcDbSymbolTableRecord
100
AcDbLayerTableRecord
  2
DEFAULT_1
 70
0
 62
7
  6
CENTER
370
-3
390
F
  0
LAYER
  5
1FB
100
AcDbSymbolTableRecord
100
AcDbLayerTableRecord
  2
DEFAULT_2
 70
0
 62
8
  6
HIDDEN
370
-3
390
F
  0
LAYER
  5
1FC
100
AcDbSymbolTableRecord
100
AcDbLayerTableRecord
  2
DEFAULT_3
 70
0
 62
7
  6
PHANTOM
370
-3
390
F
  0
LAYER
  5
1FD
100
AcDbSymbolTableRecord
100
AcDbLayerTableRecord
  2
00_COMPONENTS
 70
0
 62
7
  6
CONTINUOUS
370
-3
390
F
  0
LAYER
  5
1FE
100
AcDbSymbolTableRecord
100
AcDbLayerTableRecord
  2
01_1_DEFAULT_DATUMS
 70
0
 62
7
  6
CONTINUOUS
370
-3
390
F
  0
LAYER
  5
1FF
100
AcDbSymbolTableRecord
100
AcDbLayerTableRecord
  2
01_PLANES
 70
0
 62
7
  6
CONTINUOUS
370
-3
390
F
  0
LAYER
  5
200
100
AcDbSymbolTableRecord
100
AcDbLayerTableRecord
  2
02_COORD_SYS
 70
0
 62
7
  6
CONTINUOUS
370
-3
390
F
  0
LAYER
  5
201
100
AcDbSymbolTableRecord
100
AcDbLayerTableRecord
  2
03_AXES
 70
0
 62
7
  6
CONTINUOUS
370
-3
390
F
  0
LAYER
  5
202
100
AcDbSymbolTableRecord
100
AcDbLayerTableRecord
  2
04_POINTS
 70
0
 62
7
  6
CONTINUOUS
370
-3
390
F
  0
LAYER
  5
203
100
AcDbSymbolTableRecord
100
AcDbLayerTableRecord
  2
05_CURVES
 70
0
 62
7
  6
CONTINUOUS
370
-3
390
F
  0
LAYER
  5
204
100
AcDbSymbolTableRecord
100
AcDbLayerTableRecord
  2
06_SURFS
 70
0
 62
7
  6
CONTINUOUS
370
-3
390
F
  0
LAYER
  5
205
100
AcDbSymbolTableRecord
100
AcDbLayerTableRecord
  2
07_COSMETICS
 70
0
 62
7
  6
CONTINUOUS
370
-3
390
F
  0
LAYER
  5
206
100
AcDbSymbolTableRecord
100
AcDbLayerTableRecord
  2
10_NOTES
 70
0
 62
7
  6
CONTINUOUS
370
-3
390
F
  0
LAYER
  5
207
100
AcDbSymbolTableRecord
100
AcDbLayerTableRecord
  2
11_NOTES_PUB
 70
0
 62
7
  6
CONTINUOUS
370
-3
390
F
  0
LAYER
  5
208
100
AcDbSymbolTableRecord
100
AcDbLayerTableRecord
  2
13_REF_GTOL
 70
0
 62
7
  6
CONTINUOUS
370
-3
390
F
  0
LAYER
  5
209
100
AcDbSymbolTableRecord
100
AcDbLayerTableRecord
  2
16_MISC
 70
0
 62
7
  6
CONTINUOUS
370
-3
390
F
  0
LAYER
  5
20A
100
AcDbSymbolTableRecord
100
AcDbLayerTableRecord
  2
17_NO_PRINT
 70
0
 62
7
  6
CONTINUOUS
370
-3
390
F
  0
LAYER
  5
20B
100
AcDbSymbolTableRecord
100
AcDbLayerTableRecord
  2
18_DATUM_CAMS_JOINTS
 70
0
 62
7
  6
CONTINUOUS
370
-3
390
F
  0
LAYER
  5
20C
100
AcDbSymbolTableRecord
100
AcDbLayerTableRecord
  2
19_DATUM_FUNCTIONAL
 70
0
 62
7
  6
CONTINUOUS
370
-3
390
F
  0
LAYER
  5
20D
100
AcDbSymbolTableRecord
100
AcDbLayerTableRecord
  2
20_DATUM_KINEMATIC_SCHEME
 70
0
 62
7
  6
CONTINUOUS
370
-3
390
F
  0
ENDTAB
  0
TABLE
  2
STYLE
  5
3
100
AcDbSymbolTable
 70
1
  0
STYLE
  5
11
100
AcDbSymbolTableRecord
100
AcDbTextStyleTableRecord
  2
STANDARD
 70
0
 40
0.0
 41
0.8
 50
0.0
 71
0
 42
0.2
  3
txt
  4

  0
STYLE
  5
20E
100
AcDbSymbolTableRecord
100
AcDbTextStyleTableRecord
  2
TEXTSTYLE_1
 70
0
 40
0.0
 41
0.8
 50
0.0
 71
0
 42
0.2
  3
gdt
  4

  0
ENDTAB
  0
TABLE
  2
VIEW
  5
6
100
AcDbSymbolTable
 70
0
  0
ENDTAB
  0
TABLE
  2
UCS
  5
7
100
AcDbSymbolTable
 70
0
  0
ENDTAB
  0
TABLE
  2
APPID
  5
9
100
AcDbSymbolTable
 70
1
  0
APPID
  5
20F
100
AcDbSymbolTableRecord
100
AcDbRegAppTableRecord
  2
ACAD
 70
0
  0
ENDTAB
  0
TABLE
  2
BLOCK_RECORD
  5
1
100
AcDbSymbolTable
 70
0
  0
BLOCK_RECORD
  5
210
100
AcDbSymbolTableRecord
100
AcDbBlockTableRecord
  2
*Model_Space
  0
BLOCK_RECORD
  5
211
100
AcDbSymbolTableRecord
100
AcDbBlockTableRecord
  2
*Paper_Space
  0
BLOCK_RECORD
  5
212
100
AcDbSymbolTableRecord
100
AcDbBlockTableRecord
  2
_FILLED
  0
ENDTAB
  0
TABLE
  2
DIMSTYLE
  5
A
100
AcDbSymbolTable
 70
1
100
AcDbDimStyleTable
 71
0
  0
DIMSTYLE
105
213
100
AcDbSymbolTableRecord
100
AcDbDimStyleTableRecord
  2
STANDARD
 70
0
  3

  4

 40
1.0
 41
3.6725893785
 42
1.0
 43
0.38
 44
1.0
 45
0.0
 46
0.0
 47
0.01
 48
0.01
140
5.1416251299
141
0.09
142
0.0
143
25.4
144
1.0
145
0.0
146
1.0
147
0.625
 71
1
 72
0
 73
0
 74
0
 75
0
 76
0
 77
1
 78
8
 79
2
170
0
171
1
172
0
173
0
174
0
175
0
176
0
177
0
178
0
270
2
179
2
271
2
272
2
273
2
274
2
275
0
280
0
281
0
282
0
283
1
284
8
285
0
286
0
287
3
288
0
340
11
278
46
341
212
342
212
343
212
344
212
  0
ENDTAB
  0
ENDSEC
  0
SECTION
  2
BLOCKS
  0
BLOCK
  5
20
100
AcDbEntity
  8
0
100
AcDbBlockBegin
  2
*Model_Space
 70
0
 10
0.0
 20
0.0
 30
0.0
  3
*Model_Space
  1

  0
ENDBLK
  5
21
100
AcDbEntity
  8
0
100
AcDbBlockEnd
  0
BLOCK
  5
1C
100
AcDbEntity
  8
0
100
AcDbBlockBegin
  2
*Paper_Space
 70
0
 10
0.0
 20
0.0
 30
0.0
  3
*Paper_Space
  1

  0
ENDBLK
  5
1D
100
AcDbEntity
  8
0
100
AcDbBlockEnd
  0
BLOCK
  5
214
100
AcDbEntity
  8
0
100
AcDbBlockBegin
  2
_FILLED
 70
64
 10
0.0
 20
0.0
  3
_FILLED
  1

  0
SOLID
  5
215
100
AcDbEntity
  8
0
  6
BYBLOCK
 62
0
100
AcDbTrace
 10
0.0
 20
0.0
 11
-1.0
 21
0.25
 12
-1.0
 22
-0.25
 13
-1.0
 23
-0.25
  0
ENDBLK
  5
216
100
AcDbEntity
  8
0
  6
BYBLOCK
 62
0
100
AcDbBlockEnd
  0
ENDSEC
  0
SECTION
  2
ENTITIES
  0
LINE
  5
217
100
AcDbEntity
  8
0
100
AcDbLine
 62
7
  6
CONTINUOUS
 10
37.0139536576
 20
369.9848249754
 11
41.4408930276
 21
373.2162623393
  0
LINE
  5
218
100
AcDbEntity
  8
0
100
AcDbLine
 62
7
  6
CONTINUOUS
 10
40.6780938238
 20
369.7773655283
 11
45.4156895333
 21
372.9912138843
  0
LINE
  5
219
100
AcDbEntity
  8
0
100
AcDbLine
 62
7
  6
CONTINUOUS
 10
66.9258877989
 20
374.8443906611
 11
66.7139660874
 21
374.7220383343
  0
LINE
  5
21A
100
AcDbEntity
  8
0
100
AcDbLine
 62
7
  6
CONTINUOUS
 10
76.5486369579
 20
372.3436645625
 11
74.8405416365
 21
371.3575011555
  0
LINE
  5
21B
100
AcDbEntity
  8
0
100
AcDbLine
 62
7
  6
CONTINUOUS
 10
62.8381391129
 20
374.8434182007
 11
51.9775997514
 21
369.2027789593
  0
LINE
  5
21C
100
AcDbEntity
  8
0
100
AcDbLine
 62
7
  6
CONTINUOUS
 10
64.5420502467
 20
374.6449796179
 11
52.9654650272
 21
368.632447579
  0
LINE
  5
21D
100
AcDbEntity
  8
0
100
AcDbLine
 62
7
  6
CONTINUOUS
 10
64.9771465581
 20
374.3937823282
 11
65.1132209876
 21
374.464255261
  0
LINE
  5
21E
100
AcDbEntity
  8
0
100
AcDbLine
 62
7
  6
CONTINUOUS
 10
70.6070018762
 20
373.0088851977
 11
72.0794315465
 21
373.7714649091
  0
LINE
  5
21F
100
AcDbEntity
  8
0
100
AcDbLine
 62
7
  6
CONTINUOUS
 10
71.0951816365
 20
372.9530695205
 11
72.5843044394
 21
373.724327204
  0
LINE
  5
220
100
AcDbEntity
  8
0
100
AcDbLine
 62
7
  6
CONTINUOUS
 10
63.7195915371
 20
374.8110655378
 11
64.5300466878
 21
375.2158244839
  0
LINE
  5
221
100
AcDbEntity
  8
0
100
AcDbLine
 62
7
  6
CONTINUOUS
 10
65.1132209876
 20
374.464255261
 11
66.2170880599
 21
375.0089034637
  0
LINE
  5
222
100
AcDbEntity
  8
0
100
AcDbLine
 62
7
  6
CONTINUOUS
 10
70.6069646561
 20
373.0088659111
 11
70.5219903032
 21
372.9792879229
  0
LINE
  5
223
100
AcDbEntity
  8
0
100
AcDbLine
 62
7
  6
CONTINUOUS
 10
40.6185197186
 20
367.853736001
 11
41.1023602468
 21
368.012544599
  0
LINE
  5
224
100
AcDbEntity
  8
0
100
AcDbLine
 62
7
  6
CONTINUOUS
 10
50.5887668432
 20
336.9084417938
 11
50.9682211431
 21
337.2480516391
  0
LINE
  5
225
100
AcDbEntity
  8
0
100
AcDbLine
 62
7
  6
CONTINUOUS
 10
50.1079726337
 20
352.4533828223
 11
50.0514043267
 21
352.42072329
  0
LINE
  5
226
100
AcDbEntity
  8
0
100
AcDbLine
 62
7
  6
CONTINUOUS
 10
51.0513998498
 20
352.321674732
 11
51.1079681568
 21
352.3543342643
  0
LINE
  5
227
100
AcDbEntity
  8
0
100
AcDbLine
 62
7
  6
CONTINUOUS
 10
50.0514260195
 20
352.4206857167
 11
49.6371803995
 21
351.5051514068
  0
LINE
  5
228
100
AcDbEntity
  8
0
100
AcDbLine
 62
7
  6
CONTINUOUS
 10
51.6750633735
 20
336.4333418468
 11
51.8821861835
 21
336.8911090017
  0
LINE
  5
229
100
AcDbEntity
  8
0
100
AcDbLine
 62
7
  6
CONTINUOUS
 10
84.9888407085
 20
361.6611334743
 11
78.7589682567
 21
355.6843416546
  0
LINE
  5
22A
100
AcDbEntity
  8
0
100
AcDbLine
 62
7
  6
CONTINUOUS
 10
78.7589682567
 20
355.5405985589
 11
84.9888407085
 21
361.4272813104
  0
LINE
  5
22B
100
AcDbEntity
  8
0
100
AcDbLine
 62
7
  6
CONTINUOUS
 10
51.6750633735
 20
336.4333418468
 11
51.7457737572
 21
336.4741662621
  0
LINE
  5
22C
100
AcDbEntity
  8
0
100
AcDbLine
 62
7
  6
CONTINUOUS
 10
74.7961439492
 20
338.6782689879
 11
74.7395756422
 21
338.6456094555
  0
LINE
  5
22D
100
AcDbEntity
  8
0
100
AcDbLine
 62
7
  6
CONTINUOUS
 10
40.4770989513
 20
367.0151669194
 11
40.6185197187
 21
367.8537360009
  0
LINE
  5
22E
100
AcDbEntity
  8
0
100
AcDbLine
 62
7
  6
CONTINUOUS
 10
50.7254523271
 20
337.3120512562
 11
50.5887668432
 21
336.9084417938
  0
LINE
  5
22F
100
AcDbEntity
  8
0
100
AcDbLine
 62
7
  6
CONTINUOUS
 10
76.1537950925
 20
336.1961231122
 11
76.2103633995
 21
336.2287826446
  0
LINE
  5
230
100
AcDbEntity
  8
0
100
AcDbLine
 62
7
  6
CONTINUOUS
 10
76.2103633995
 20
326.0225024304
 11
76.1537950925
 21
325.9898428981
  0
LINE
  5
231
100
AcDbEntity
  8
0
100
AcDbLine
 62
7
  6
CONTINUOUS
 10
75.7961394723
 20
325.1069305472
 11
75.7395711654
 21
325.0742710149
  0
LINE
  5
232
100
AcDbEntity
  8
0
100
AcDbLine
 62
7
  6
CONTINUOUS
 10
35.7892602526
 20
190.9984445583
 11
35.7892602526
 21
366.9547154483
  0
LINE
  5
233
100
AcDbEntity
  8
0
100
AcDbLine
 62
7
  6
CONTINUOUS
 10
36.3758613677
 20
365.4041660253
 11
36.3758613677
 21
190.590998518
  0
LINE
  5
234
100
AcDbEntity
  8
0
100
AcDbLine
 62
7
  6
CONTINUOUS
 10
36.8899508097
 20
364.9440667603
 11
36.8899508097
 21
190.1308992531
  0
LINE
  5
235
100
AcDbEntity
  8
0
100
AcDbLine
 62
7
  6
CONTINUOUS
 10
36.9832048801
 20
190.0627873136
 11
36.9832048801
 21
364.8775486425
  0
LINE
  5
236
100
AcDbEntity
  8
0
100
AcDbLine
 62
7
  6
CONTINUOUS
 10
75.7395494725
 20
325.0743085882
 11
76.1537950925
 21
325.9898428981
  0
LINE
  5
237
100
AcDbEntity
  8
0
100
AcDbLine
 62
7
  6
CONTINUOUS
 10
76.2103633995
 20
326.0225024304
 11
75.7961177795
 21
325.1069681205
  0
LINE
  5
238
100
AcDbEntity
  8
0
100
AcDbLine
 62
7
  6
CONTINUOUS
 10
78.7589682567
 20
355.6843416546
 11
78.4915147992
 21
355.1258471681
  0
LINE
  5
239
100
AcDbEntity
  8
0
100
AcDbLine
 62
7
  6
CONTINUOUS
 10
85.2562947211
 20
362.2196279515
 11
84.9888407084
 21
361.6611334743
  0
LINE
  5
23A
100
AcDbEntity
  8
0
100
AcDbLine
 62
7
  6
CONTINUOUS
 10
85.2564794194
 20
361.9790617052
 11
84.9887754409
 21
361.4272196383
  0
LINE
  5
23B
100
AcDbEntity
  8
0
100
AcDbLine
 62
7
  6
CONTINUOUS
 10
40.6185197186
 20
183.242539488
 11
40.4770989512
 21
183.9178109079
  0
LINE
  5
23C
100
AcDbEntity
  8
0
100
AcDbLine
 62
7
  6
CONTINUOUS
 10
49.6371803995
 20
341.2988711926
 11
49.6371803995
 21
351.5051514068
  0
LINE
  5
23D
100
AcDbEntity
  8
0
100
AcDbLine
 62
7
  6
CONTINUOUS
 10
49.6763174802
 20
337.2592296421
 11
49.6763174802
 21
203.0260497394
  0
LINE
  5
23E
100
AcDbEntity
  8
0
100
AcDbLine
 62
7
  6
CONTINUOUS
 10
49.7918358663
 20
202.9722460211
 11
49.7918358663
 21
337.2052433972
  0
LINE
  5
23F
100
AcDbEntity
  8
0
100
AcDbLine
 62
7
  6
CONTINUOUS
 10
50.5887668432
 20
202.6754444177
 11
50.5887668432
 21
336.9084417938
  0
LINE
  5
240
100
AcDbEntity
  8
0
100
AcDbLine
 62
7
  6
CONTINUOUS
 10
50.9682211431
 20
203.015054263
 11
50.9682211431
 21
337.2480516391
  0
LINE
  5
241
100
AcDbEntity
  8
0
100
AcDbLine
 62
7
  6
CONTINUOUS
 10
51.6750633735
 20
336.4333418468
 11
51.6750633735
 21
203.4250980963
  0
LINE
  5
242
100
AcDbEntity
  8
0
100
AcDbLine
 62
7
  6
CONTINUOUS
 10
51.7457737572
 20
203.4659225117
 11
51.7457737572
 21
336.4741662621
  0
LINE
  5
243
100
AcDbEntity
  8
0
100
AcDbLine
 62
7
  6
CONTINUOUS
 10
133.4860980501
 20
333.8613171853
 11
134.1932018874
 21
334.2695613392
  0
LINE
  5
244
100
AcDbEntity
  8
0
100
AcDbLine
 62
7
  6
CONTINUOUS
 10
135.6074213377
 20
333.4530798301
 11
134.9003175004
 21
333.0448356763
  0
LINE
  5
245
100
AcDbEntity
  8
0
100
AcDbLine
 62
7
  6
CONTINUOUS
 10
133.4003472973
 20
325.9734707123
 11
137.0216525638
 21
328.0642198026
  0
LINE
  5
246
100
AcDbEntity
  8
0
100
AcDbLine
 62
7
  6
CONTINUOUS
 10
135.2284925707
 20
330.0159779003
 11
139.4343717899
 21
332.2746331872
  0
LINE
  5
247
100
AcDbEntity
  8
0
100
AcDbLine
 62
7
  6
CONTINUOUS
 10
237.2256653596
 20
95.7224847289
 11
236.7256784444
 21
95.7719902212
  0
LINE
  5
248
100
AcDbEntity
  8
0
100
AcDbLine
 62
7
  6
CONTINUOUS
 10
236.4879135843
 20
94.5324476372
 11
236.9057797235
 21
94.4490209018
  0
LINE
  5
249
100
AcDbEntity
  8
0
100
AcDbLine
 62
7
  6
CONTINUOUS
 10
251.4079287849
 20
66.4449850682
 11
250.610997808
 21
66.7417866717
  0
LINE
  5
24A
100
AcDbEntity
  8
0
100
AcDbLine
 62
7
  6
CONTINUOUS
 10
51.1544558009
 20
200.6121321645
 11
51.2958765683
 21
201.450701246
  0
LINE
  5
24B
100
AcDbEntity
  8
0
100
AcDbLine
 62
7
  6
CONTINUOUS
 10
139.7643348236
 20
322.2993039216
 11
143.3856400901
 21
324.390053012
  0
LINE
  5
24C
100
AcDbEntity
  8
0
100
AcDbLine
 62
7
  6
CONTINUOUS
 10
146.9211828279
 20
326.1047428494
 11
147.6282866652
 21
326.5129870033
  0
LINE
  5
24D
100
AcDbEntity
  8
0
100
AcDbLine
 62
7
  6
CONTINUOUS
 10
149.0425061154
 20
325.6965054942
 11
148.3354022782
 21
325.2882613404
  0
LINE
  5
24E
100
AcDbEntity
  8
0
100
AcDbLine
 62
7
  6
CONTINUOUS
 10
139.7643348236
 20
322.2081537266
 11
143.3856400901
 21
324.1528791596
  0
LINE
  5
24F
100
AcDbEntity
  8
0
100
AcDbLine
 62
7
  6
CONTINUOUS
 10
148.6635773485
 20
322.2594035645
 11
152.8694565677
 21
324.5180588513
  0
LINE
  5
250
100
AcDbEntity
  8
0
100
AcDbLine
 62
7
  6
CONTINUOUS
 10
144.3829365431
 20
317.7971830212
 11
155.1734440295
 21
321.1409505429
  0
LINE
  5
251
100
AcDbEntity
  8
0
100
AcDbLine
 62
7
  6
CONTINUOUS
 10
268.0298405686
 20
118.2527589268
 11
268.6391074182
 21
118.2079504581
  0
LINE
  5
252
100
AcDbEntity
  8
0
100
AcDbLine
 62
7
  6
CONTINUOUS
 10
259.3215073978
 20
115.7961416314
 11
259.9363579923
 21
115.7477785847
  0
LINE
  5
253
100
AcDbEntity
  8
0
100
AcDbLine
 62
7
  6
CONTINUOUS
 10
268.2324886388
 20
118.1358524518
 11
268.8473389626
 21
118.0874889176
  0
LINE
  5
254
100
AcDbEntity
  8
0
100
AcDbLine
 62
7
  6
CONTINUOUS
 10
36.8899508097
 20
190.1308992531
 11
36.3758613677
 21
190.590998518
  0
LINE
  5
255
100
AcDbEntity
  8
0
100
AcDbLine
 62
7
  6
CONTINUOUS
 10
76.1537950925
 20
336.1961231122
 11
76.1537950925
 21
325.9898428981
  0
LINE
  5
256
100
AcDbEntity
  8
0
100
AcDbLine
 62
7
  6
CONTINUOUS
 10
76.2103633995
 20
336.2287826446
 11
76.2103633995
 21
326.0225024304
  0
LINE
  5
257
100
AcDbEntity
  8
0
100
AcDbLine
 62
7
  6
CONTINUOUS
 10
78.7589682567
 20
355.5405985589
 11
78.7589682567
 21
355.6843416546
  0
LINE
  5
258
100
AcDbEntity
  8
0
100
AcDbLine
 62
7
  6
CONTINUOUS
 10
248.2147981527
 20
62.7121219795
 11
40.6780938254
 21
182.5307834293
  0
LINE
  5
259
100
AcDbEntity
  8
0
100
AcDbLine
 62
7
  6
CONTINUOUS
 10
40.6185197186
 20
183.242539488
 11
247.1652704339
 21
63.9954150927
  0
LINE
  5
25A
100
AcDbEntity
  8
0
100
AcDbLine
 62
7
  6
CONTINUOUS
 10
40.4770989512
 20
183.9178109079
 11
247.0238496664
 21
64.6706865126
  0
LINE
  5
25B
100
AcDbEntity
  8
0
100
AcDbLine
 62
7
  6
CONTINUOUS
 10
247.0139467781
 20
64.7840848874
 11
40.4658160227
 21
184.0320060312
  0
LINE
  5
25C
100
AcDbEntity
  8
0
100
AcDbLine
 62
7
  6
CONTINUOUS
 10
51.2958765683
 20
337.3167034564
 11
51.1544558009
 21
337.9919748764
  0
LINE
  5
25D
100
AcDbEntity
  8
0
100
AcDbLine
 62
7
  6
CONTINUOUS
 10
84.9888407085
 20
361.6611334743
 11
84.9888407085
 21
361.4272813104
  0
LINE
  5
25E
100
AcDbEntity
  8
0
100
AcDbLine
 62
7
  6
CONTINUOUS
 10
51.1431960305
 20
200.4852435303
 11
236.3353912554
 21
93.5668985816
  0
LINE
  5
25F
100
AcDbEntity
  8
0
100
AcDbLine
 62
7
  6
CONTINUOUS
 10
236.3464928169
 20
93.6938785556
 11
51.1544558009
 21
200.6121321645
  0
LINE
  5
260
100
AcDbEntity
  8
0
100
AcDbLine
 62
7
  6
CONTINUOUS
 10
236.4879135843
 20
94.5324476372
 11
51.2958765683
 21
201.450701246
  0
LINE
  5
261
100
AcDbEntity
  8
0
100
AcDbLine
 62
7
  6
CONTINUOUS
 10
236.9717541125
 20
94.6912562352
 11
51.7797170965
 21
201.6095098441
  0
LINE
  5
262
100
AcDbEntity
  8
0
100
AcDbLine
 62
7
  6
CONTINUOUS
 10
52.3821730986
 20
202.2003549247
 11
236.7256784444
 21
95.7719902212
  0
LINE
  5
263
100
AcDbEntity
  8
0
100
AcDbLine
 62
7
  6
CONTINUOUS
 10
236.7963888281
 20
95.8128146366
 11
52.4528834823
 21
202.2411793401
  0
LINE
  5
264
100
AcDbEntity
  8
0
100
AcDbLine
 62
7
  6
CONTINUOUS
 10
174.0493105907
 20
310.2432104424
 11
167.8194381389
 21
304.2664186228
  0
LINE
  5
265
100
AcDbEntity
  8
0
100
AcDbLine
 62
7
  6
CONTINUOUS
 10
167.8194381389
 20
304.1226755271
 11
174.0493105907
 21
310.0093582786
  0
LINE
  5
266
100
AcDbEntity
  8
0
100
AcDbLine
 62
7
  6
CONTINUOUS
 10
50.9682211431
 20
203.015054263
 11
50.5887668432
 21
202.6754444177
  0
LINE
  5
267
100
AcDbEntity
  8
0
100
AcDbLine
 62
7
  6
CONTINUOUS
 10
50.5887668432
 20
202.6754444177
 11
49.7918358663
 21
202.9722460211
  0
LINE
  5
268
100
AcDbEntity
  8
0
100
AcDbLine
 62
7
  6
CONTINUOUS
 10
51.7457737572
 20
203.4659225117
 11
51.6750633735
 21
203.4250980963
  0
LINE
  5
269
100
AcDbEntity
  8
0
100
AcDbLine
 62
7
  6
CONTINUOUS
 10
52.3821730986
 20
202.2003549247
 11
52.4528834823
 21
202.2411793401
  0
LINE
  5
26A
100
AcDbEntity
  8
0
100
AcDbLine
 62
7
  6
CONTINUOUS
 10
216.6471190538
 20
294.2973053859
 11
214.3367252818
 21
293.1847814851
  0
LINE
  5
26B
100
AcDbEntity
  8
0
100
AcDbLine
 62
7
  6
CONTINUOUS
 10
217.1058829763
 20
294.2266994772
 11
214.79582252
 21
293.1143232278
  0
LWPOLYLINE
  5
26C
100
AcDbEntity
  8
0
100
AcDbPolyline
 62
7
  6
CONTINUOUS
 90
5
 70
0
 10
214.3364247092
 20
293.184653702
 10
214.1192986565
 20
293.1040059403
 10
213.2721504835
 20
293.034306179
 10
212.8591787794
 20
293.1082881247
 10
212.5183733599
 20
293.2453283564
  0
LINE
  5
26D
100
AcDbEntity
  8
0
100
AcDbLine
 62
7
  6
CONTINUOUS
 10
237.7091127515
 20
94.4806100348
 11
237.1950233095
 21
94.9407092998
  0
LINE
  5
26E
100
AcDbEntity
  8
0
100
AcDbLine
 62
7
  6
CONTINUOUS
 10
167.8194381389
 20
304.2664186228
 11
167.5519846815
 21
303.7079241363
  0
LINE
  5
26F
100
AcDbEntity
  8
0
100
AcDbLine
 62
7
  6
CONTINUOUS
 10
259.9363579923
 20
115.7477785847
 11
259.8118971406
 21
115.8196344653
  0
LINE
  5
270
100
AcDbEntity
  8
0
100
AcDbLine
 62
7
  6
CONTINUOUS
 10
268.0299433792
 20
118.2527893664
 11
268.2324886388
 21
118.1358524518
  0
LINE
  5
271
100
AcDbEntity
  8
0
100
AcDbLine
 62
7
  6
CONTINUOUS
 10
133.4003472973
 20
325.8823205173
 11
133.4003472973
 21
325.9734707123
  0
LINE
  5
272
100
AcDbEntity
  8
0
100
AcDbLine
 62
7
  6
CONTINUOUS
 10
133.4860980501
 20
333.371415735
 11
133.4860980501
 21
333.8613171853
  0
LINE
  5
273
100
AcDbEntity
  8
0
100
AcDbLine
 62
7
  6
CONTINUOUS
 10
134.9003175004
 20
333.0448356763
 11
134.9003175004
 21
332.554934226
  0
LINE
  5
274
100
AcDbEntity
  8
0
100
AcDbLine
 62
7
  6
CONTINUOUS
 10
139.7643348236
 20
322.2993039216
 11
139.7643348236
 21
322.2081537266
  0
LINE
  5
275
100
AcDbEntity
  8
0
100
AcDbLine
 62
7
  6
CONTINUOUS
 10
143.3856400901
 20
324.390053012
 11
143.3856400901
 21
324.1528791596
  0
LINE
  5
276
100
AcDbEntity
  8
0
100
AcDbLine
 62
7
  6
CONTINUOUS
 10
174.3167646034
 20
310.8017049196
 11
174.0493105907
 21
310.2432104424
  0
LINE
  5
277
100
AcDbEntity
  8
0
100
AcDbLine
 62
7
  6
CONTINUOUS
 10
174.3169493017
 20
310.5611386733
 11
174.0492453233
 21
310.0092966066
  0
LINE
  5
278
100
AcDbEntity
  8
0
100
AcDbLine
 62
7
  6
CONTINUOUS
 10
51.2958765683
 20
201.450701246
 11
51.7797170965
 21
201.6095098441
  0
LINE
  5
279
100
AcDbEntity
  8
0
100
AcDbLine
 62
7
  6
CONTINUOUS
 10
233.4434064254
 20
266.3792599894
 11
244.2339139118
 21
269.7230275111
  0
LINE
  5
27A
100
AcDbEntity
  8
0
100
AcDbLine
 62
7
  6
CONTINUOUS
 10
146.9211828279
 20
325.6148413991
 11
146.9211828279
 21
326.1047428494
  0
LINE
  5
27B
100
AcDbEntity
  8
0
100
AcDbLine
 62
7
  6
CONTINUOUS
 10
148.3354022782
 20
324.7983598901
 11
148.3354022782
 21
325.2882613404
  0
LINE
  5
27C
100
AcDbEntity
  8
0
100
AcDbLine
 62
7
  6
CONTINUOUS
 10
247.6491109623
 20
248.7654202036
 11
247.165270434
 21
248.6066116056
  0
LINE
  5
27D
100
AcDbEntity
  8
0
100
AcDbLine
 62
7
  6
CONTINUOUS
 10
133.8142731204
 20
330.8324594094
 11
133.4860980501
 21
333.371415735
  0
LINE
  5
27E
100
AcDbEntity
  8
0
100
AcDbLine
 62
7
  6
CONTINUOUS
 10
134.9003175004
 20
332.554934226
 11
135.2284925707
 21
330.0159779003
  0
LINE
  5
27F
100
AcDbEntity
  8
0
100
AcDbLine
 62
7
  6
CONTINUOUS
 10
167.8194381389
 20
304.1226755271
 11
167.8194381389
 21
304.2664186228
  0
LINE
  5
280
100
AcDbEntity
  8
0
100
AcDbLine
 62
7
  6
CONTINUOUS
 10
225.1176296075
 20
246.1065303672
 11
225.0610613006
 21
246.0738708349
  0
LINE
  5
281
100
AcDbEntity
  8
0
100
AcDbLine
 62
7
  6
CONTINUOUS
 10
260.3971654961
 20
266.2010683872
 11
258.6890701747
 21
265.2149049802
  0
LINE
  5
282
100
AcDbEntity
  8
0
100
AcDbLine
 62
7
  6
CONTINUOUS
 10
226.0610568237
 20
245.9748222769
 11
226.1176251307
 21
246.0074818092
  0
LINE
  5
283
100
AcDbEntity
  8
0
100
AcDbLine
 62
7
  6
CONTINUOUS
 10
147.2493578982
 20
323.0758850735
 11
146.9211828279
 21
325.6148413991
  0
LINE
  5
284
100
AcDbEntity
  8
0
100
AcDbLine
 62
7
  6
CONTINUOUS
 10
148.3354022782
 20
324.7983598901
 11
148.6635773485
 21
322.2594035645
  0
LINE
  5
285
100
AcDbEntity
  8
0
100
AcDbLine
 62
7
  6
CONTINUOUS
 10
174.0493105907
 20
310.2432104424
 11
174.0493105907
 21
310.0093582786
  0
LINE
  5
286
100
AcDbEntity
  8
0
100
AcDbLine
 62
7
  6
CONTINUOUS
 10
252.9523938604
 20
253.1725524346
 11
248.2147981513
 21
249.9587040785
  0
LINE
  5
287
100
AcDbEntity
  8
0
100
AcDbLine
 62
7
  6
CONTINUOUS
 10
269.2488355827
 20
253.6058413156
 11
269.3802084756
 21
253.6844334841
  0
LINE
  5
288
100
AcDbEntity
  8
0
100
AcDbLine
 62
7
  6
CONTINUOUS
 10
270.0236629089
 20
260.3134772258
 11
267.4966901656
 21
258.8027009485
  0
LINE
  5
289
100
AcDbEntity
  8
0
100
AcDbLine
 62
7
  6
CONTINUOUS
 10
267.9304485586
 20
258.5522760889
 11
266.913005613
 21
257.9577312947
  0
LINE
  5
28A
100
AcDbEntity
  8
0
100
AcDbLine
 62
7
  6
CONTINUOUS
 10
267.8157607132
 20
258.8631923019
 11
267.6038389701
 21
258.7408399568
  0
LINE
  5
28B
100
AcDbEntity
  8
0
100
AcDbLine
 62
7
  6
CONTINUOUS
 10
255.1832665651
 20
251.1935362083
 11
266.7770719626
 21
257.8871768051
  0
LINE
  5
28C
100
AcDbEntity
  8
0
100
AcDbLine
 62
7
  6
CONTINUOUS
 10
236.3707161453
 20
240.0879908686
 11
236.3141478383
 21
240.0553313363
  0
LINE
  5
28D
100
AcDbEntity
  8
0
100
AcDbLine
 62
7
  6
CONTINUOUS
 10
237.7283672886
 20
237.605844993
 11
237.7849355956
 21
237.6385045253
  0
LINE
  5
28E
100
AcDbEntity
  8
0
100
AcDbLine
 62
7
  6
CONTINUOUS
 10
269.2511358387
 20
253.60199626
 11
257.6572551195
 21
246.9083121755
  0
LINE
  5
28F
100
AcDbEntity
  8
0
100
AcDbLine
 62
7
  6
CONTINUOUS
 10
270.6157481779
 20
254.0134428035
 11
270.4038249905
 21
253.8910896245
  0
LINE
  5
290
100
AcDbEntity
  8
0
100
AcDbLine
 62
7
  6
CONTINUOUS
 10
269.3802084756
 20
253.6844334841
 11
270.4038242372
 21
254.268285853
  0
LINE
  5
291
100
AcDbEntity
  8
0
100
AcDbLine
 62
7
  6
CONTINUOUS
 10
270.4038249905
 20
253.7673012094
 11
272.9757433408
 21
255.200351538
  0
LINE
  5
292
100
AcDbEntity
  8
0
100
AcDbLine
 62
7
  6
CONTINUOUS
 10
264.4172174461
 20
261.3410657328
 11
269.3292334443
 21
264.0762181043
  0
LINE
  5
293
100
AcDbEntity
  8
0
100
AcDbLine
 62
7
  6
CONTINUOUS
 10
270.0236629089
 20
262.8447839468
 11
265.173354983
 21
260.1440487962
  0
LINE
  5
294
100
AcDbEntity
  8
0
100
AcDbLine
 62
7
  6
CONTINUOUS
 10
266.913005613
 20
257.9577312947
 11
266.7792553823
 21
257.8832556204
  0
LINE
  5
295
100
AcDbEntity
  8
0
100
AcDbLine
 62
7
  6
CONTINUOUS
 10
253.1036317239
 20
241.4910429487
 11
258.2557168015
 21
243.9869786449
  0
LINE
  5
296
100
AcDbEntity
  8
0
100
AcDbLine
 62
7
  6
CONTINUOUS
 10
272.9757433385
 20
255.2003515393
 11
273.4633945327
 21
255.2428791285
  0
LINE
  5
297
100
AcDbEntity
  8
0
100
AcDbLine
 62
7
  6
CONTINUOUS
 10
275.6566816358
 20
253.9766099843
 11
275.1679127185
 21
253.9347305898
  0
LINE
  5
298
100
AcDbEntity
  8
0
100
AcDbLine
 62
7
  6
CONTINUOUS
 10
236.3141478383
 20
231.890307165
 11
237.3141216686
 21
231.7912961803
  0
LINE
  5
299
100
AcDbEntity
  8
0
100
AcDbLine
 62
7
  6
CONTINUOUS
 10
270.4038249905
 20
251.0846226036
 11
275.1679127286
 21
253.934730584
  0
LINE
  5
29A
100
AcDbEntity
  8
0
100
AcDbLine
 62
7
  6
CONTINUOUS
 10
275.8869289373
 20
252.7174833275
 11
271.0624210748
 21
249.8312904435
  0
LINE
  5
29B
100
AcDbEntity
  8
0
100
AcDbLine
 62
7
  6
CONTINUOUS
 10
237.7849355956
 20
232.7394900225
 11
237.7283672886
 21
232.7068304902
  0
LINE
  5
29C
100
AcDbEntity
  8
0
100
AcDbLine
 62
7
  6
CONTINUOUS
 10
237.3707116684
 20
231.8239181393
 11
237.3141433614
 21
231.791258607
  0
LINE
  5
29D
100
AcDbEntity
  8
0
100
AcDbLine
 62
7
  6
CONTINUOUS
 10
269.8008673394
 20
264.1138292978
 11
269.3292334019
 21
264.0762180355
  0
LINE
  5
29E
100
AcDbEntity
  8
0
100
AcDbLine
 62
7
  6
CONTINUOUS
 10
226.0610568237
 20
245.9748222769
 11
225.0610829934
 21
246.0738332616
  0
LINE
  5
29F
100
AcDbEntity
  8
0
100
AcDbLine
 62
7
  6
CONTINUOUS
 10
225.1176513004
 20
246.1064927939
 11
226.1176251307
 21
246.0074818092
  0
LINE
  5
2A0
100
AcDbEntity
  8
0
100
AcDbLine
 62
7
  6
CONTINUOUS
 10
36.3758613677
 20
365.4041660253
 11
36.8899508097
 21
364.9440667603
  0
LINE
  5
2A1
100
AcDbEntity
  8
0
100
AcDbLine
 62
7
  6
CONTINUOUS
 10
225.0610829934
 20
246.0738332616
 11
224.6468373734
 21
245.1582989516
  0
LINE
  5
2A2
100
AcDbEntity
  8
0
100
AcDbLine
 62
7
  6
CONTINUOUS
 10
251.4079287849
 20
241.2581525757
 11
251.7873830849
 21
241.597762421
  0
LINE
  5
2A3
100
AcDbEntity
  8
0
100
AcDbLine
 62
7
  6
CONTINUOUS
 10
277.4998675105
 20
258.8367053201
 11
270.6589495895
 21
259.0030808499
  0
LINE
  5
2A4
100
AcDbEntity
  8
0
100
AcDbLine
 62
7
  6
CONTINUOUS
 10
267.3669740516
 20
265.5269481711
 11
274.0482811509
 21
265.3644481597
  0
LINE
  5
2A5
100
AcDbEntity
  8
0
100
AcDbLine
 62
7
  6
CONTINUOUS
 10
250.610997808
 20
241.5549541791
 11
251.4079287849
 21
241.2581525757
  0
LINE
  5
2A6
100
AcDbEntity
  8
0
100
AcDbLine
 62
7
  6
CONTINUOUS
 10
51.2958765683
 20
337.3167034564
 11
236.4879135843
 21
230.3984498475
  0
LINE
  5
2A7
100
AcDbEntity
  8
0
100
AcDbLine
 62
7
  6
CONTINUOUS
 10
51.1544558009
 20
337.9919748764
 11
236.3464928169
 21
231.0737212675
  0
LINE
  5
2A8
100
AcDbEntity
  8
0
100
AcDbLine
 62
7
  6
CONTINUOUS
 10
236.3354882719
 20
231.1877556696
 11
51.1432930691
 21
338.1061006056
  0
LINE
  5
2A9
100
AcDbEntity
  8
0
100
AcDbLine
 62
7
  6
CONTINUOUS
 10
74.7395756422
 20
325.1733195729
 11
51.0513998498
 21
338.8493848493
  0
LINE
  5
2AA
100
AcDbEntity
  8
0
100
AcDbLine
 62
7
  6
CONTINUOUS
 10
226.0610568237
 20
237.8097981056
 11
236.3141478383
 21
231.890307165
  0
LINE
  5
2AB
100
AcDbEntity
  8
0
100
AcDbLine
 62
7
  6
CONTINUOUS
 10
270.3043202164
 20
263.2459712328
 11
270.0236629089
 21
262.8447839467
  0
LINE
  5
2AC
100
AcDbEntity
  8
0
100
AcDbLine
 62
7
  6
CONTINUOUS
 10
236.3141478383
 20
240.0553313363
 11
226.0610568237
 21
245.9748222769
  0
LINE
  5
2AD
100
AcDbEntity
  8
0
100
AcDbLine
 62
7
  6
CONTINUOUS
 10
226.1176251307
 20
246.0074818092
 11
236.3707161453
 21
240.0879908686
  0
LINE
  5
2AE
100
AcDbEntity
  8
0
100
AcDbLine
 62
7
  6
CONTINUOUS
 10
51.0513998498
 20
352.321674732
 11
74.7395756422
 21
338.6456094555
  0
LINE
  5
2AF
100
AcDbEntity
  8
0
100
AcDbLine
 62
7
  6
CONTINUOUS
 10
51.1079681568
 20
352.3543342643
 11
74.7961439492
 21
338.6782689879
  0
LINE
  5
2B0
100
AcDbEntity
  8
0
100
AcDbLine
 62
7
  6
CONTINUOUS
 10
237.1950233095
 20
229.1737066759
 11
237.7091127515
 21
228.7136074109
  0
LINE
  5
2B1
100
AcDbEntity
  8
0
100
AcDbLine
 62
7
  6
CONTINUOUS
 10
247.0238496664
 20
64.6706865126
 11
247.1652704339
 21
63.9954150927
  0
LINE
  5
2B2
100
AcDbEntity
  8
0
100
AcDbLine
 62
7
  6
CONTINUOUS
 10
224.6468373734
 20
245.1582989516
 11
224.6468373734
 21
240.2592844489
  0
LINE
  5
2B3
100
AcDbEntity
  8
0
100
AcDbLine
 62
7
  6
CONTINUOUS
 10
237.1950233095
 20
229.1737066759
 11
237.1950233095
 21
94.9407092998
  0
LINE
  5
2B4
100
AcDbEntity
  8
0
100
AcDbLine
 62
7
  6
CONTINUOUS
 10
237.3141216686
 20
231.7912961803
 11
237.7283672886
 21
232.7068304902
  0
LINE
  5
2B5
100
AcDbEntity
  8
0
100
AcDbLine
 62
7
  6
CONTINUOUS
 10
237.7849355956
 20
232.7394900225
 11
237.3706899756
 21
231.8239557126
  0
LINE
  5
2B6
100
AcDbEntity
  8
0
100
AcDbLine
 62
7
  6
CONTINUOUS
 10
275.8869289373
 20
252.7174833275
 11
276.1555723963
 21
253.1112278772
  0
LINE
  5
2B7
100
AcDbEntity
  8
0
100
AcDbLine
 62
7
  6
CONTINUOUS
 10
270.3043202164
 20
260.7145309603
 11
270.0236629089
 21
260.3134772258
  0
LINE
  5
2B8
100
AcDbEntity
  8
0
100
AcDbLine
 62
7
  6
CONTINUOUS
 10
268.2324886388
 20
217.9953384323
 11
259.9363579923
 21
210.2975181228
  0
LINE
  5
2B9
100
AcDbEntity
  8
0
100
AcDbLine
 62
7
  6
CONTINUOUS
 10
212.0463537994
 20
293.2110659506
 11
212.5156483731
 21
293.2468005148
  0
LINE
  5
2BA
100
AcDbEntity
  8
0
100
AcDbLine
 62
7
  6
CONTINUOUS
 10
217.105883071
 20
294.2266992858
 11
217.5809624978
 21
294.2623506267
  0
LINE
  5
2BB
100
AcDbEntity
  8
0
100
AcDbLine
 62
7
  6
CONTINUOUS
 10
239.9168473569
 20
285.069794854
 11
232.5553719336
 21
285.6542991594
  0
LINE
  5
2BC
100
AcDbEntity
  8
0
100
AcDbLine
 62
7
  6
CONTINUOUS
 10
238.6789381883
 20
285.4878909664
 11
231.913145194
 21
286.0250978316
  0
LINE
  5
2BD
100
AcDbEntity
  8
0
100
AcDbLine
 62
7
  6
CONTINUOUS
 10
49.7918358663
 20
337.2052433972
 11
50.5887668432
 21
336.9084417938
  0
LINE
  5
2BE
100
AcDbEntity
  8
0
100
AcDbLine
 62
7
  6
CONTINUOUS
 10
40.4647373795
 20
366.8889143961
 11
247.0128682804
 21
247.6409931683
  0
LINE
  5
2BF
100
AcDbEntity
  8
0
100
AcDbLine
 62
7
  6
CONTINUOUS
 10
247.0238496666
 20
247.7680425241
 11
40.4770989513
 21
367.0151669194
  0
LINE
  5
2C0
100
AcDbEntity
  8
0
100
AcDbLine
 62
7
  6
CONTINUOUS
 10
247.165270434
 20
248.6066116056
 11
40.6185197187
 21
367.8537360009
  0
LINE
  5
2C1
100
AcDbEntity
  8
0
100
AcDbLine
 62
7
  6
CONTINUOUS
 10
247.6491109623
 20
248.7654202036
 11
41.1023602468
 21
368.012544599
  0
LINE
  5
2C2
100
AcDbEntity
  8
0
100
AcDbLine
 62
7
  6
CONTINUOUS
 10
41.1023483076
 20
368.7905801129
 11
247.7905323173
 21
249.4618010145
  0
LINE
  5
2C3
100
AcDbEntity
  8
0
100
AcDbLine
 62
7
  6
CONTINUOUS
 10
40.6780938238
 20
369.7773655283
 11
248.2147981513
 21
249.9587040785
  0
LINE
  5
2C4
100
AcDbEntity
  8
0
100
AcDbLine
 62
7
  6
CONTINUOUS
 10
45.4156895346
 20
372.9912138836
 11
252.9523938598
 21
253.172552435
  0
LINE
  5
2C5
100
AcDbEntity
  8
0
100
AcDbLine
 62
7
  6
CONTINUOUS
 10
79.0768155532
 20
354.3216833595
 11
141.9687216575
 21
318.0118458786
  0
LINE
  5
2C6
100
AcDbEntity
  8
0
100
AcDbLine
 62
7
  6
CONTINUOUS
 10
168.1372854354
 20
302.9037603277
 11
231.0291915398
 21
266.5939228468
  0
LINE
  5
2C7
100
AcDbEntity
  8
0
100
AcDbLine
 62
7
  6
CONTINUOUS
 10
236.3464928169
 20
231.0737212675
 11
236.4879135843
 21
230.3984498475
  0
LINE
  5
2C8
100
AcDbEntity
  8
0
100
AcDbLine
 62
7
  6
CONTINUOUS
 10
237.7091127515
 20
228.7136074109
 11
237.7091127515
 21
94.4806100348
  0
LINE
  5
2C9
100
AcDbEntity
  8
0
100
AcDbLine
 62
7
  6
CONTINUOUS
 10
237.7283672886
 20
232.7068304902
 11
237.7283672886
 21
237.605844993
  0
LINE
  5
2CA
100
AcDbEntity
  8
0
100
AcDbLine
 62
7
  6
CONTINUOUS
 10
237.7849355956
 20
237.6385045253
 11
237.7849355956
 21
232.7394900225
  0
LINE
  5
2CB
100
AcDbEntity
  8
0
100
AcDbLine
 62
7
  6
CONTINUOUS
 10
237.8023668219
 20
94.4137695684
 11
237.8023668219
 21
228.6469494613
  0
LINE
  5
2CC
100
AcDbEntity
  8
0
100
AcDbLine
 62
7
  6
CONTINUOUS
 10
250.4954794219
 20
241.6102118875
 11
250.4954794219
 21
66.7954509022
  0
LINE
  5
2CD
100
AcDbEntity
  8
0
100
AcDbLine
 62
7
  6
CONTINUOUS
 10
250.610997808
 20
66.7417866717
 11
250.610997808
 21
241.5549541791
  0
LINE
  5
2CE
100
AcDbEntity
  8
0
100
AcDbLine
 62
7
  6
CONTINUOUS
 10
247.165270434
 20
248.6066116056
 11
247.0238496666
 21
247.7680425241
  0
LINE
  5
2CF
100
AcDbEntity
  8
0
100
AcDbLine
 62
7
  6
CONTINUOUS
 10
216.6472402483
 20
294.2973637447
 11
217.1058887246
 21
294.2266958186
  0
LINE
  5
2D0
100
AcDbEntity
  8
0
100
AcDbLine
 62
7
  6
CONTINUOUS
 10
214.3367252818
 20
293.1847814851
 11
214.7952640838
 21
293.1140607475
  0
LINE
  5
2D1
100
AcDbEntity
  8
0
100
AcDbLine
 62
7
  6
CONTINUOUS
 10
238.6799836022
 20
285.4844889006
 11
239.9168473569
 21
285.069794854
  0
LINE
  5
2D2
100
AcDbEntity
  8
0
100
AcDbLine
 62
7
  6
CONTINUOUS
 10
146.1838413221
 20
331.6010517895
 11
79.4492874012
 21
370.0702453582
  0
LINE
  5
2D3
100
AcDbEntity
  8
0
100
AcDbLine
 62
7
  6
CONTINUOUS
 10
133.4003472973
 20
325.8823205173
 11
139.7643348236
 21
322.2081537266
  0
LINE
  5
2D4
100
AcDbEntity
  8
0
100
AcDbLine
 62
7
  6
CONTINUOUS
 10
133.4003472973
 20
325.9734707123
 11
139.7643348236
 21
322.2993039216
  0
LINE
  5
2D5
100
AcDbEntity
  8
0
100
AcDbLine
 62
7
  6
CONTINUOUS
 10
143.3856400901
 20
324.390053012
 11
137.0216525638
 21
328.0642198026
  0
LINE
  5
2D6
100
AcDbEntity
  8
0
100
AcDbLine
 62
7
  6
CONTINUOUS
 10
133.8142731204
 20
330.8324594094
 11
135.2284925707
 21
330.0159779003
  0
LINE
  5
2D7
100
AcDbEntity
  8
0
100
AcDbLine
 62
7
  6
CONTINUOUS
 10
147.2493578982
 20
323.0758850735
 11
148.6635773485
 21
322.2594035645
  0
LINE
  5
2D8
100
AcDbEntity
  8
0
100
AcDbLine
 62
7
  6
CONTINUOUS
 10
133.4860980501
 20
333.371415735
 11
134.9003175004
 21
332.554934226
  0
LINE
  5
2D9
100
AcDbEntity
  8
0
100
AcDbLine
 62
7
  6
CONTINUOUS
 10
146.9211828279
 20
325.6148413991
 11
148.3354022782
 21
324.7983598901
  0
LINE
  5
2DA
100
AcDbEntity
  8
0
100
AcDbLine
 62
7
  6
CONTINUOUS
 10
133.4860980501
 20
333.8613171853
 11
134.9003175004
 21
333.0448356763
  0
LINE
  5
2DB
100
AcDbEntity
  8
0
100
AcDbLine
 62
7
  6
CONTINUOUS
 10
146.9211828279
 20
326.1047428494
 11
148.3354022782
 21
325.2882613404
  0
LINE
  5
2DC
100
AcDbEntity
  8
0
100
AcDbLine
 62
7
  6
CONTINUOUS
 10
149.0425061154
 20
325.6965054942
 11
147.6282866652
 21
326.5129870033
  0
LINE
  5
2DD
100
AcDbEntity
  8
0
100
AcDbLine
 62
7
  6
CONTINUOUS
 10
135.6074213377
 20
333.4530798301
 11
134.1932018874
 21
334.2695613392
  0
LINE
  5
2DE
100
AcDbEntity
  8
0
100
AcDbLine
 62
7
  6
CONTINUOUS
 10
64.5420502467
 20
374.6449796179
 11
84.6709934119
 21
363.0237917694
  0
LINE
  5
2DF
100
AcDbEntity
  8
0
100
AcDbLine
 62
7
  6
CONTINUOUS
 10
157.5876589152
 20
320.9262876855
 11
173.7314632942
 21
311.6058687375
  0
LINE
  5
2E0
100
AcDbEntity
  8
0
100
AcDbLine
 62
7
  6
CONTINUOUS
 10
246.6481287974
 20
269.5083646536
 11
266.7770719628
 21
257.887176805
  0
LINE
  5
2E1
100
AcDbEntity
  8
0
100
AcDbLine
 62
7
  6
CONTINUOUS
 10
73.0117612899
 20
370.2981181822
 11
75.8730400557
 21
368.6461954881
  0
LINE
  5
2E2
100
AcDbEntity
  8
0
100
AcDbLine
 62
7
  6
CONTINUOUS
 10
256.8602898281
 20
264.155522007
 11
259.7215685939
 21
262.5035993128
  0
LINE
  5
2E3
100
AcDbEntity
  8
0
100
AcDbLine
 62
7
  6
CONTINUOUS
 10
152.8694565677
 20
324.5180588513
 11
151.4552371174
 21
325.3345403604
  0
LINE
  5
2E4
100
AcDbEntity
  8
0
100
AcDbLine
 62
7
  6
CONTINUOUS
 10
139.4343717899
 20
332.2746331872
 11
138.0201523396
 21
333.0911146962
  0
LINE
  5
2E5
100
AcDbEntity
  8
0
100
AcDbLine
 62
7
  6
CONTINUOUS
 10
272.9757433408
 20
255.200351538
 11
275.1679127286
 21
253.934730584
  0
LINE
  5
2E6
100
AcDbEntity
  8
0
100
AcDbLine
 62
7
  6
CONTINUOUS
 10
275.6555639128
 20
253.9772581789
 11
273.4633945327
 21
255.2428791285
  0
LINE
  5
2E7
100
AcDbEntity
  8
0
100
AcDbLine
 62
7
  6
CONTINUOUS
 10
66.2171274406
 20
375.0088817715
 11
69.2028527616
 21
373.2851114506
  0
LINE
  5
2E8
100
AcDbEntity
  8
0
100
AcDbLine
 62
7
  6
CONTINUOUS
 10
264.9446848084
 20
260.2760685964
 11
267.930410175
 21
258.5522982492
  0
LINE
  5
2E9
100
AcDbEntity
  8
0
100
AcDbLine
 62
7
  6
CONTINUOUS
 10
78.828218954
 20
370.1194957043
 11
80.5267458625
 21
369.1388484402
  0
LINE
  5
2EA
100
AcDbEntity
  8
0
100
AcDbLine
 62
7
  6
CONTINUOUS
 10
212.5187903231
 20
293.2449991668
 11
146.1838413221
 21
331.6010517895
  0
LINE
  5
2EB
100
AcDbEntity
  8
0
100
AcDbLine
 62
7
  6
CONTINUOUS
 10
73.0701414064
 20
373.7533410239
 11
73.0787932972
 21
373.7482036973
  0
LWPOLYLINE
  5
2EC
100
AcDbEntity
  8
0
100
AcDbPolyline
 62
7
  6
CONTINUOUS
 90
4
 70
0
 10
76.0318771019
 20
372.0453149015
 10
75.1686600055
 20
372.587027424
 10
73.4449765123
 20
373.5055419974
 10
73.0783419869
 20
373.7478190394
  0
LINE
  5
2ED
100
AcDbEntity
  8
0
100
AcDbLine
 62
7
  6
CONTINUOUS
 10
251.4079287849
 20
66.4449850682
 11
251.4079287849
 21
241.2581525757
  0
LINE
  5
2EE
100
AcDbEntity
  8
0
100
AcDbLine
 62
7
  6
CONTINUOUS
 10
251.7873830849
 20
66.7845949136
 11
251.7873830849
 21
241.597762421
  0
LINE
  5
2EF
100
AcDbEntity
  8
0
100
AcDbLine
 62
7
  6
CONTINUOUS
 10
252.4611748463
 20
241.3720557607
 11
252.4611748462
 21
66.3955746601
  0
LINE
  5
2F0
100
AcDbEntity
  8
0
100
AcDbLine
 62
7
  6
CONTINUOUS
 10
253.1036317239
 20
241.4910429487
 11
253.1036317239
 21
65.534772061
  0
LINE
  5
2F1
100
AcDbEntity
  8
0
100
AcDbLine
 62
7
  6
CONTINUOUS
 10
258.2557168015
 20
243.9869786437
 11
258.2557168015
 21
68.0307077565
  0
LINE
  5
2F2
100
AcDbEntity
  8
0
100
AcDbLine
 62
7
  6
CONTINUOUS
 10
258.9177107924
 20
208.101765373
 11
258.9177107924
 21
116.7051265528
  0
LINE
  5
2F3
100
AcDbEntity
  8
0
100
AcDbLine
 62
7
  6
CONTINUOUS
 10
236.4879135843
 20
94.5324476372
 11
236.3464928169
 21
93.6938785556
  0
LINE
  5
2F4
100
AcDbEntity
  8
0
100
AcDbLine
 62
7
  6
CONTINUOUS
 10
74.7395756422
 20
325.1733195729
 11
75.7395494725
 21
325.0743085882
  0
LINE
  5
2F5
100
AcDbEntity
  8
0
100
AcDbLine
 62
7
  6
CONTINUOUS
 10
152.8694565677
 20
324.5180588513
 11
149.0425061154
 21
325.6965054942
  0
LINE
  5
2F6
100
AcDbEntity
  8
0
100
AcDbLine
 62
7
  6
CONTINUOUS
 10
147.6282866652
 20
326.5129870033
 11
151.4552371174
 21
325.3345403604
  0
LINE
  5
2F7
100
AcDbEntity
  8
0
100
AcDbLine
 62
7
  6
CONTINUOUS
 10
139.4343717899
 20
332.2746331872
 11
135.6074213377
 21
333.4530798301
  0
LINE
  5
2F8
100
AcDbEntity
  8
0
100
AcDbLine
 62
7
  6
CONTINUOUS
 10
134.1932018874
 20
334.2695613392
 11
138.0201523396
 21
333.0911146962
  0
LWPOLYLINE
  5
2F9
100
AcDbEntity
  8
0
100
AcDbPolyline
 62
7
  6
CONTINUOUS
 90
11
 70
0
 10
73.0701414064
 20
373.7533410239
 10
73.0286104814
 20
373.7766216201
 10
72.9419332434
 20
373.8175075632
 10
72.8423697061
 20
373.8527274017
 10
72.7893274092
 20
373.8668011508
 10
72.6777932328
 20
373.8864860034
 10
72.5606736819
 20
373.8933086799
 10
72.4392006532
 20
373.8857135549
 10
72.3132571181
 20
373.8617632169
 10
72.185090193
 20
373.8194211617
 10
72.0664972084
 20
373.7619458338
  0
LINE
  5
2FA
100
AcDbEntity
  8
0
100
AcDbLine
 62
7
  6
CONTINUOUS
 10
269.8040046372
 20
264.1120450599
 11
269.8008673394
 21
264.1138292978
  0
LWPOLYLINE
  5
2FB
100
AcDbEntity
  8
0
100
AcDbPolyline
 62
7
  6
CONTINUOUS
 90
3
 70
0
 10
258.4958456003
 20
270.6779320821
 10
226.1540969642
 20
289.3501656068
 10
217.5836921841
 20
294.2606150329
  0
LINE
  5
2FC
100
AcDbEntity
  8
0
100
AcDbLine
 62
7
  6
CONTINUOUS
 10
239.9168473569
 20
285.069794854
 11
274.0482811509
 21
265.3644481597
  0
LINE
  5
2FD
100
AcDbEntity
  8
0
100
AcDbLine
 62
7
  6
CONTINUOUS
 10
269.8010037419
 20
264.1136389351
 11
258.4958456003
 21
270.6779320821
  0
LINE
  5
2FE
100
AcDbEntity
  8
0
100
AcDbLine
 62
7
  6
CONTINUOUS
 10
269.2511358387
 20
117.1785044836
 11
269.2511358387
 21
83.7675994071
  0
LINE
  5
2FF
100
AcDbEntity
  8
0
100
AcDbLine
 62
7
  6
CONTINUOUS
 10
270.0236629089
 20
262.8447839468
 11
270.0236629089
 21
260.3134772258
  0
LINE
  5
300
100
AcDbEntity
  8
0
100
AcDbLine
 62
7
  6
CONTINUOUS
 10
270.3043202164
 20
260.7145309603
 11
270.3043202164
 21
263.2458376812
  0
LINE
  5
301
100
AcDbEntity
  8
0
100
AcDbLine
 62
7
  6
CONTINUOUS
 10
270.4038249905
 20
254.2682418342
 11
270.4038249905
 21
250.8206129422
  0
LINE
  5
302
100
AcDbEntity
  8
0
100
AcDbLine
 62
7
  6
CONTINUOUS
 10
270.4038249642
 20
88.4839280904
 11
270.4038249642
 21
85.0363943385
  0
LINE
  5
303
100
AcDbEntity
  8
0
100
AcDbLine
 62
7
  6
CONTINUOUS
 10
275.8869289373
 20
252.7174833275
 11
275.8869289373
 21
93.3765515852
  0
LINE
  5
304
100
AcDbEntity
  8
0
100
AcDbLine
 62
7
  6
CONTINUOUS
 10
276.1555723963
 20
93.770296135
 11
276.1555723963
 21
253.1112278772
  0
LINE
  5
305
100
AcDbEntity
  8
0
100
AcDbLine
 62
7
  6
CONTINUOUS
 10
269.2471827178
 20
219.9995717762
 11
269.2511358387
 21
253.60199626
  0
LINE
  5
306
100
AcDbEntity
  8
0
100
AcDbLine
 62
7
  6
CONTINUOUS
 10
277.4998675105
 20
258.8367053199
 11
277.4998675105
 21
126.4068644466
  0
LINE
  5
307
100
AcDbEntity
  8
0
100
AcDbLine
 62
7
  6
CONTINUOUS
 10
268.0299433792
 20
118.2527893664
 11
259.8118971406
 21
115.8196344653
  0
LINE
  5
308
100
AcDbEntity
  8
0
100
AcDbLine
 62
7
  6
CONTINUOUS
 10
259.9363579923
 20
115.7477785847
 11
268.2324886388
 21
118.1358524518
  0
LINE
  5
309
100
AcDbEntity
  8
0
100
AcDbLine
 62
7
  6
CONTINUOUS
 10
51.0513998498
 20
352.321674732
 11
50.0514260195
 21
352.4206857167
  0
LINE
  5
30A
100
AcDbEntity
  8
0
100
AcDbLine
 62
7
  6
CONTINUOUS
 10
50.1079943265
 20
352.453345249
 11
51.1079681568
 21
352.3543342643
  0
LWPOLYLINE
  5
30B
100
AcDbEntity
  8
0
100
AcDbPolyline
 62
7
  6
CONTINUOUS
 90
4
 70
0
 10
276.1555695159
 20
253.1122656364
 10
276.0614351085
 20
253.5347552771
 10
275.9362084891
 20
253.7361353771
 10
275.6564537737
 20
253.9765474922
  0
LINE
  5
30C
100
AcDbEntity
  8
0
100
AcDbLine
 62
7
  6
CONTINUOUS
 10
236.7963888281
 20
95.8128146366
 11
236.7256784444
 21
95.7719902212
  0
LINE
  5
30D
100
AcDbEntity
  8
0
100
AcDbLine
 62
7
  6
CONTINUOUS
 10
236.9717541125
 20
94.6912562352
 11
236.4879135843
 21
94.5324476372
  0
LINE
  5
30E
100
AcDbEntity
  8
0
100
AcDbLine
 62
7
  6
CONTINUOUS
 10
72.0794315465
 20
373.7714649091
 11
72.5843200504
 21
373.7243189954
  0
LINE
  5
30F
100
AcDbEntity
  8
0
100
AcDbLine
 62
7
  6
CONTINUOUS
 10
70.6071914144
 20
373.0089834395
 11
71.095157347
 21
372.9530732306
  0
LINE
  5
310
100
AcDbEntity
  8
0
100
AcDbLine
 62
7
  6
CONTINUOUS
 10
275.8869292744
 20
93.3765286403
 11
275.6946342219
 21
92.928029937
  0
LINE
  5
311
100
AcDbEntity
  8
0
100
AcDbLine
 62
7
  6
CONTINUOUS
 10
271.0624217063
 20
90.28877816
 11
270.8668639856
 21
89.8381913047
  0
LINE
  5
312
100
AcDbEntity
  8
0
100
AcDbLine
 62
7
  6
CONTINUOUS
 10
276.1849822273
 20
124.6886532976
 11
277.4998675105
 21
126.4068644467
  0
LINE
  5
313
100
AcDbEntity
  8
0
100
AcDbLine
 62
7
  6
CONTINUOUS
 10
276.8800905004
 20
124.1567116169
 11
276.1555723963
 21
123.209955425
  0
LINE
  5
314
100
AcDbEntity
  8
0
100
AcDbLine
 62
7
  6
CONTINUOUS
 10
72.5676068311
 20
373.7224264912
 11
73.0701414064
 21
373.7533410239
  0
LINE
  5
315
100
AcDbEntity
  8
0
100
AcDbLine
 62
7
  6
CONTINUOUS
 10
70.4995861142
 20
372.9763875732
 11
70.4826693313
 21
372.9760548743
  0
LINE
  5
316
100
AcDbEntity
  8
0
100
AcDbLine
 62
7
  6
CONTINUOUS
 10
276.1555723963
 20
93.770296135
 11
275.8869289373
 21
93.3765515852
  0
LINE
  5
317
100
AcDbEntity
  8
0
100
AcDbLine
 62
7
  6
CONTINUOUS
 10
271.0624216716
 20
90.2887549766
 11
275.8869289373
 21
93.3765515852
  0
LINE
  5
318
100
AcDbEntity
  8
0
100
AcDbLine
 62
7
  6
CONTINUOUS
 10
275.6946342219
 20
92.928029937
 11
270.8668187415
 21
89.8381623479
  0
LINE
  5
319
100
AcDbEntity
  8
0
100
AcDbLine
 62
7
  6
CONTINUOUS
 10
270.6157481779
 20
85.7322946331
 11
270.4038249642
 21
85.6099414389
  0
LINE
  5
31A
100
AcDbEntity
  8
0
100
AcDbLine
 62
7
  6
CONTINUOUS
 10
251.7873830849
 20
66.7845949136
 11
251.4079287849
 21
66.4449850682
  0
LINE
  5
31B
100
AcDbEntity
  8
0
100
AcDbLine
 62
7
  6
CONTINUOUS
 10
270.403824964
 20
85.0362547892
 11
269.3802090306
 21
84.3526072906
  0
LINE
  5
31C
100
AcDbEntity
  8
0
100
AcDbLine
 62
7
  6
CONTINUOUS
 10
268.9836992124
 20
82.9722136891
 11
269.7394942349
 21
83.4717271295
  0
LINE
  5
31D
100
AcDbEntity
  8
0
100
AcDbLine
 62
7
  6
CONTINUOUS
 10
269.3802090306
 20
84.3526072906
 11
269.2511358387
 21
84.2699978577
  0
LINE
  5
31E
100
AcDbEntity
  8
0
100
AcDbLine
 62
7
  6
CONTINUOUS
 10
258.2557168015
 20
76.748251028
 11
269.2511358387
 21
83.7675994071
  0
LINE
  5
31F
100
AcDbEntity
  8
0
100
AcDbLine
 62
7
  6
CONTINUOUS
 10
268.5710250154
 20
82.1927039564
 11
258.2557168015
 21
75.6075304631
  0
LINE
  5
320
100
AcDbEntity
  8
0
100
AcDbLine
 62
7
  6
CONTINUOUS
 10
258.2557168015
 20
68.0307077572
 11
253.1036317239
 21
65.534772061
  0
LINE
  5
321
100
AcDbEntity
  8
0
100
AcDbLine
 62
7
  6
CONTINUOUS
 10
251.4512098514
 20
62.2577148607
 11
256.4631978506
 21
64.4758122249
  0
ARC
  5
322
100
AcDbEntity
  8
0
100
AcDbCircle
 62
7
  6
CONTINUOUS
 10
71.0096205575
 20
380.7914082954
 40
7.8331274661
100
AcDbArc
 50
266.1426516367
 51
267.0411855112
  0
ARC
  5
323
100
AcDbEntity
  8
0
100
AcDbCircle
 62
7
  6
CONTINUOUS
 10
42.6803481368
 20
191.0035585592
 40
6.8910897818
100
AcDbArc
 50
180.0425202428
 51
183.9027741836
  0
ARC
  5
324
100
AcDbEntity
  8
0
100
AcDbCircle
 62
7
  6
CONTINUOUS
 10
44.1279310801
 20
188.495982538
 40
6.8909344425
100
AcDbArc
 50
236.097515435
 51
239.9580346533
  0
ARC
  5
325
100
AcDbEntity
  8
0
100
AcDbCircle
 62
7
  6
CONTINUOUS
 10
38.4578934381
 20
363.4344535131
 40
5.2869767064
100
AcDbArc
 50
59.9877551759
 51
62.4214042645
  0
ARC
  5
326
100
AcDbEntity
  8
0
100
AcDbCircle
 62
7
  6
CONTINUOUS
 10
65.5297488569
 20
370.8041206361
 40
4.8457605875
100
AcDbArc
 50
27.9238124293
 51
34.5377564266
  0
ARC
  5
327
100
AcDbEntity
  8
0
100
AcDbCircle
 62
7
  6
CONTINUOUS
 10
38.9061997879
 20
367.2027183467
 40
2.2116143379
100
AcDbArc
 50
120.0189080854
 51
127.4245465623
  0
ARC
  5
328
100
AcDbEntity
  8
0
100
AcDbCircle
 62
7
  6
CONTINUOUS
 10
38.8588918177
 20
365.5291749838
 40
1.974413957
100
AcDbArc
 50
93.9686974831
 51
100.9350653359
  0
ARC
  5
329
100
AcDbEntity
  8
0
100
AcDbCircle
 62
7
  6
CONTINUOUS
 10
38.8874711162
 20
365.4959116491
 40
1.8660295467
100
AcDbArc
 50
95.8255049619
 51
103.163550329
  0
ARC
  5
32A
100
AcDbEntity
  8
0
100
AcDbCircle
 62
7
  6
CONTINUOUS
 10
38.8372580964
 20
365.6505257534
 40
1.8511635937
100
AcDbArc
 50
100.9901240795
 51
103.5430282568
  0
ARC
  5
32B
100
AcDbEntity
  8
0
100
AcDbCircle
 62
7
  6
CONTINUOUS
 10
38.8661377458
 20
365.5954269658
 40
1.7642718295
100
AcDbArc
 50
103.2249277474
 51
104.735489233
  0
ARC
  5
32C
100
AcDbEntity
  8
0
100
AcDbCircle
 62
7
  6
CONTINUOUS
 10
50.3173762308
 20
336.5447284508
 40
1.6718924676
100
AcDbArc
 50
59.955141922
 51
64.7322232122
  0
ARC
  5
32D
100
AcDbEntity
  8
0
100
AcDbCircle
 62
7
  6
CONTINUOUS
 10
65.0678153447
 20
374.1368088441
 40
1.2053610565
100
AcDbArc
 50
104.6868389969
 51
116.4906395036
  0
ARC
  5
32E
100
AcDbEntity
  8
0
100
AcDbCircle
 62
7
  6
CONTINUOUS
 10
-290.5481891459
 20
1107.3226175871
 40
824.5649603122
100
AcDbArc
 50
296.3837597776
 51
296.613208113
  0
ARC
  5
32F
100
AcDbEntity
  8
0
100
AcDbCircle
 62
7
  6
CONTINUOUS
 10
434.7740543641
 20
-252.0879117401
 40
719.8863291749
100
AcDbArc
 50
119.9991136644
 51
120.1673240416
  0
ARC
  5
330
100
AcDbEntity
  8
0
100
AcDbCircle
 62
7
  6
CONTINUOUS
 10
237.5835084723
 20
323.6612594637
 40
35.8570281472
100
AcDbArc
 50
235.1736615094
 51
235.7705146474
  0
ARC
  5
331
100
AcDbEntity
  8
0
100
AcDbCircle
 62
7
  6
CONTINUOUS
 10
277.8165639269
 20
86.2911696596
 40
7.8428560205
100
AcDbArc
 50
152.9582491184
 51
153.8569921984
  0
ARC
  5
332
100
AcDbEntity
  8
0
100
AcDbCircle
 62
7
  6
CONTINUOUS
 10
245.9960509942
 20
241.3694970963
 40
6.4651243585
100
AcDbArc
 50
0.0226756162
 51
2.8299334243
  0
ARC
  5
333
100
AcDbEntity
  8
0
100
AcDbCircle
 62
7
  6
CONTINUOUS
 10
244.5558844734
 20
243.8642173509
 40
6.464974056
100
AcDbArc
 50
57.1705537999
 51
59.977884774
  0
ARC
  5
334
100
AcDbEntity
  8
0
100
AcDbCircle
 62
7
  6
CONTINUOUS
 10
245.5924526158
 20
241.2566887261
 40
5.8154763534
100
AcDbArc
 50
0.0144222756
 51
2.2496492086
  0
ARC
  5
335
100
AcDbEntity
  8
0
100
AcDbCircle
 62
7
  6
CONTINUOUS
 10
244.2563835993
 20
243.5710858048
 40
5.8153368525
100
AcDbArc
 50
57.750797112
 51
59.9861375378
  0
ARC
  5
336
100
AcDbEntity
  8
0
100
AcDbCircle
 62
7
  6
CONTINUOUS
 10
75.1393676564
 20
368.0599700715
 40
5.0942185969
100
AcDbArc
 50
24.3217483262
 51
27.3361106754
  0
ARC
  5
337
100
AcDbEntity
  8
0
100
AcDbCircle
 62
7
  6
CONTINUOUS
 10
75.271405273
 20
368.1187344202
 40
4.9496970826
100
AcDbArc
 50
20.709201524
 51
24.3313816988
  0
ARC
  5
338
100
AcDbEntity
  8
0
100
AcDbCircle
 62
7
  6
CONTINUOUS
 10
266.4226860854
 20
86.5433544486
 40
4.8423097569
100
AcDbArc
 50
27.3401002505
 51
31.5940100921
  0
ARC
  5
339
100
AcDbEntity
  8
0
100
AcDbCircle
 62
7
  6
CONTINUOUS
 10
266.4582156615
 20
86.5671125282
 40
4.7995998049
100
AcDbArc
 50
31.5746369612
 51
36.2410221343
  0
ARC
  5
33A
100
AcDbEntity
  8
0
100
AcDbCircle
 62
7
  6
CONTINUOUS
 10
266.4931883196
 20
86.5803305705
 40
4.762700852
100
AcDbArc
 50
25.0015080806
 51
27.3344932105
  0
ARC
  5
33B
100
AcDbEntity
  8
0
100
AcDbCircle
 62
7
  6
CONTINUOUS
 10
249.2625714204
 20
68.5430577736
 40
4.4729335176
100
AcDbArc
 50
239.9666405927
 51
243.9878400437
  0
ARC
  5
33C
100
AcDbEntity
  8
0
100
AcDbCircle
 62
7
  6
CONTINUOUS
 10
249.1680723753
 20
68.5085437626
 40
4.302540064
100
AcDbArc
 50
239.9560807098
 51
244.5557517733
  0
ARC
  5
33D
100
AcDbEntity
  8
0
100
AcDbCircle
 62
7
  6
CONTINUOUS
 10
249.9879628332
 20
65.2875129792
 40
2.2116231849
100
AcDbArc
 50
292.5758770733
 51
299.9807651205
  0
ARC
  5
33E
100
AcDbEntity
  8
0
100
AcDbCircle
 62
7
  6
CONTINUOUS
 10
248.5227593792
 20
66.077165926
 40
1.9644939296
100
AcDbArc
 50
318.454327574
 51
325.6659894003
  0
ARC
  5
33F
100
AcDbEntity
  8
0
100
AcDbCircle
 62
7
  6
CONTINUOUS
 10
248.500234983
 20
66.1246093912
 40
1.8660821085
100
AcDbArc
 50
316.842938166
 51
324.1784805483
  0
ARC
  5
340
100
AcDbEntity
  8
0
100
AcDbCircle
 62
7
  6
CONTINUOUS
 10
248.6055110151
 20
66.0065426056
 40
1.8557228767
100
AcDbArc
 50
317.1212799998
 51
318.3917787749
  0
ARC
  5
341
100
AcDbEntity
  8
0
100
AcDbCircle
 62
7
  6
CONTINUOUS
 10
235.9667554875
 20
94.4131038053
 40
1.8356114551
100
AcDbArc
 50
356.7823142799
 51
0.0207807695
  0
ARC
  5
342
100
AcDbEntity
  8
0
100
AcDbCircle
 62
7
  6
CONTINUOUS
 10
248.6390962938
 20
65.9750239857
 40
1.8096649407
100
AcDbArc
 50
313.8131816396
 51
317.1289941141
  0
ARC
  5
343
100
AcDbEntity
  8
0
100
AcDbCircle
 62
7
  6
CONTINUOUS
 10
248.5758169735
 20
66.0563328934
 40
1.7642462975
100
AcDbArc
 50
315.2765882362
 51
316.7815034801
  0
ARC
  5
344
100
AcDbEntity
  8
0
100
AcDbCircle
 62
7
  6
CONTINUOUS
 10
269.32182896
 20
249.6625900891
 40
1.7591486688
100
AcDbArc
 50
25.4330595296
 51
29.4194928854
  0
ARC
  5
345
100
AcDbEntity
  8
0
100
AcDbCircle
 62
7
  6
CONTINUOUS
 10
236.0211573402
 20
94.4796178569
 40
1.6879557028
100
AcDbArc
 50
355.9321443239
 51
0.0336783771
  0
ARC
  5
346
100
AcDbEntity
  8
0
100
AcDbCircle
 62
7
  6
CONTINUOUS
 10
275.1555723963
 20
93.770296135
 40
1.0
100
AcDbArc
 50
302.6197960622
 51
360.0
  0
ARC
  5
347
100
AcDbEntity
  8
0
100
AcDbCircle
 62
7
  6
CONTINUOUS
 10
269.3043202164
 20
263.2458376812
 40
1.0
100
AcDbArc
 50
0.0000000077
 51
60.0208721131
  0
ARC
  5
348
100
AcDbEntity
  8
0
100
AcDbCircle
 62
7
  6
CONTINUOUS
 10
217.0809701559
 20
293.3963208015
 40
1.0
100
AcDbArc
 50
60.0005066558
 51
115.7530440313
  0
ARC
  5
349
100
AcDbEntity
  8
0
100
AcDbCircle
 62
7
  6
CONTINUOUS
 10
270.1440291266
 20
254.8307082452
 40
0.9435128396
100
AcDbArc
 50
299.9932012929
 51
310.790073466
  0
ARC
  5
34A
100
AcDbEntity
  8
0
100
AcDbCircle
 62
7
  6
CONTINUOUS
 10
268.2858600029
 20
258.0473456162
 40
0.9414746179
100
AcDbArc
 50
114.1602547959
 51
119.9509894059
  0
SPLINE
  5
34B
100
AcDbEntity
  8
0
100
AcDbSpline
 62
7
  6
CONTINUOUS
 70
0
 71
3
 72
13
 73
9
 74
0
 42
0.0000001
 43
0.0000001
 44
0.0000000001
 40
0.0
 40
0.0
 40
0.0
 40
0.0
 40
0.0903666498
 40
0.1874882994
 40
0.2957415249
 40
0.417054318
 40
0.694324834
 40
1.0
 40
1.0
 40
1.0
 40
1.0
 10
260.3971802407
 20
266.2010376053
 30
0.0
 10
260.4986857977
 20
266.2595223528
 30
0.0
 10
260.7329004199
 20
266.343248395
 30
0.0
 10
261.1216655202
 20
266.3486832713
 30
0.0
 10
261.5356720015
 20
266.2421341007
 30
0.0
 10
262.1271676809
 20
265.9478185196
 30
0.0
 10
262.8256763509
 20
265.3386549489
 30
0.0
 10
263.2641641777
 20
264.7146228018
 30
0.0
 10
263.4545186302
 20
264.3670683044
 30
0.0
  0
SPLINE
  5
34C
100
AcDbEntity
  8
0
100
AcDbSpline
 62
7
  6
CONTINUOUS
 70
0
 71
3
 72
11
 73
7
 74
0
 42
0.0000001
 43
0.0000001
 44
0.0000000001
 40
0.0
 40
0.0
 40
0.0
 40
0.0
 40
0.1898770801
 40
0.4172247943
 40
0.6915380173
 40
1.0
 40
1.0
 40
1.0
 40
1.0
 10
66.9259473914
 20
374.8442872801
 30
0.0
 10
67.097587929
 20
374.9432217277
 30
0.0
 10
67.5539115987
 20
375.0288470428
 30
0.0
 10
68.2549093662
 20
374.7913464635
 30
0.0
 10
68.9426814988
 20
374.2853298315
 30
0.0
 10
69.3389666613
 20
373.8165213423
 30
0.0
 10
69.5214575285
 20
373.5514206839
 30
0.0
  0
SPLINE
  5
34D
100
AcDbEntity
  8
0
100
AcDbSpline
 62
7
  6
CONTINUOUS
 70
0
 71
3
 72
9
 73
5
 74
0
 42
0.0000001
 43
0.0000001
 44
0.0000000001
 40
0.0
 40
0.0
 40
0.0
 40
0.0
 40
0.4770372227
 40
1.0
 40
1.0
 40
1.0
 40
1.0
 10
69.2028524065
 20
373.2851106119
 30
0.0
 10
69.3852169858
 20
373.1798161985
 30
0.0
 10
69.8136708372
 20
373.042681694
 30
0.0
 10
70.2523402157
 20
372.9916150125
 30
0.0
 10
70.4826658302
 20
372.9760257318
 30
0.0
  0
SPLINE
  5
34E
100
AcDbEntity
  8
0
100
AcDbSpline
 62
7
  6
CONTINUOUS
 70
0
 71
3
 72
9
 73
5
 74
0
 42
0.0000001
 43
0.0000001
 44
0.0000000001
 40
0.0
 40
0.0
 40
0.0
 40
0.0
 40
0.2672445631
 40
1.0
 40
1.0
 40
1.0
 40
1.0
 10
270.8096082086
 20
88.5932485388
 30
0.0
 10
270.8710597148
 20
88.4614636648
 30
0.0
 10
271.0778440671
 20
87.9587697201
 30
0.0
 10
271.195661676
 20
87.4127886531
 30
0.0
 10
271.195661676
 20
87.0140952696
 30
0.0
  0
SPLINE
  5
34F
100
AcDbEntity
  8
0
100
AcDbSpline
 62
7
  6
CONTINUOUS
 70
0
 71
3
 72
9
 73
5
 74
0
 42
0.0000001
 43
0.0000001
 44
0.0000000001
 40
0.0
 40
0.0
 40
0.0
 40
0.0
 40
0.4661949234
 40
1.0
 40
1.0
 40
1.0
 40
1.0
 10
267.9005236574
 20
258.9063510626
 30
0.0
 10
268.0398415786
 20
258.9688605287
 30
0.0
 10
268.3748203357
 20
259.0271721164
 30
0.0
 10
268.700408827
 20
258.9515892109
 30
0.0
 10
268.8644327457
 20
258.8910369499
 30
0.0
  0
SPLINE
  5
350
100
AcDbEntity
  8
0
100
AcDbSpline
 62
7
  6
CONTINUOUS
 70
0
 71
3
 72
11
 73
7
 74
0
 42
0.0000001
 43
0.0000001
 44
0.0000000001
 40
0.0
 40
0.0
 40
0.0
 40
0.0
 40
0.2253715532
 40
0.4875906548
 40
0.756687809
 40
1.0
 40
1.0
 40
1.0
 40
1.0
 10
268.8644327457
 20
258.8910369499
 30
0.0
 10
269.1807313485
 20
258.7742698607
 30
0.0
 10
269.8018666389
 20
258.3555126262
 30
0.0
 10
270.5309995851
 20
257.4766414929
 30
0.0
 10
271.0439384209
 20
256.4259916773
 30
0.0
 10
271.195661676
 20
255.6592469576
 30
0.0
 10
271.195661676
 20
255.29524344
 30
0.0
  0
SPLINE
  5
351
100
AcDbEntity
  8
0
100
AcDbSpline
 62
7
  6
CONTINUOUS
 70
0
 71
3
 72
9
 73
5
 74
0
 42
0.0000001
 43
0.0000001
 44
0.0000000001
 40
0.0
 40
0.0
 40
0.0
 40
0.0
 40
0.5229613031
 40
1.0
 40
1.0
 40
1.0
 40
1.0
 10
270.7760548824
 20
89.746835001
 30
0.0
 10
270.6743919927
 20
89.5395734053
 30
0.0
 10
270.4992790715
 20
89.1341418422
 30
0.0
 10
270.4038183518
 20
88.6945210449
 30
0.0
 10
270.403824964
 20
88.4839406347
 30
0.0
  0
SPLINE
  5
352
100
AcDbEntity
  8
0
100
AcDbSpline
 62
7
  6
CONTINUOUS
 70
0
 71
3
 72
11
 73
7
 74
0
 42
0.0000001
 43
0.0000001
 44
0.0000000001
 40
0.0
 40
0.0
 40
0.0
 40
0.0
 40
0.2325158465
 40
0.499992077
 40
0.7674738956
 40
1.0
 40
1.0
 40
1.0
 40
1.0
 10
273.4633945327
 20
255.2428791285
 30
0.0
 10
273.0243356325
 20
255.4963641681
 30
0.0
 10
272.1813781587
 20
256.2156096229
 30
0.0
 10
271.1877874302
 20
257.5767800285
 30
0.0
 10
270.5057473064
 20
259.1178522556
 30
0.0
 10
270.3043202164
 20
260.2075299159
 30
0.0
 10
270.3043202164
 20
260.7145309635
 30
0.0
  0
SPLINE
  5
353
100
AcDbEntity
  8
0
100
AcDbSpline
 62
7
  6
CONTINUOUS
 70
0
 71
3
 72
9
 73
5
 74
0
 42
0.0000001
 43
0.0000001
 44
0.0000000001
 40
0.0
 40
0.0
 40
0.0
 40
0.0
 40
0.2260901986
 40
1.0
 40
1.0
 40
1.0
 40
1.0
 10
264.5596028441
 20
260.6430066658
 30
0.0
 10
264.5802097482
 20
260.6083323846
 30
0.0
 10
264.681673092
 20
260.461078455
 30
0.0
 10
264.8250992316
 20
260.3451047934
 30
0.0
 10
264.944673219
 20
260.2760752874
 30
0.0
  0
SPLINE
  5
354
100
AcDbEntity
  8
0
100
AcDbSpline
 62
7
  6
CONTINUOUS
 70
0
 71
3
 72
9
 73
5
 74
0
 42
0.0000001
 43
0.0000001
 44
0.0000000001
 40
0.0
 40
0.0
 40
0.0
 40
0.0
 40
0.4562473697
 40
1.0
 40
1.0
 40
1.0
 40
1.0
 10
64.7622132207
 20
375.3027859529
 30
0.0
 10
64.9846586904
 20
375.3612480344
 30
0.0
 10
65.5094186253
 20
375.3496285531
 30
0.0
 10
65.9797381581
 20
375.1459354371
 30
0.0
 10
66.2171274406
 20
375.0088817715
 30
0.0
  0
SPLINE
  5
355
100
AcDbEntity
  8
0
100
AcDbSpline
 62
7
  6
CONTINUOUS
 70
0
 71
3
 72
8
 73
4
 74
0
 42
0.0000001
 43
0.0000001
 44
0.0000000001
 40
0.0
 40
0.0
 40
0.0
 40
0.0
 40
1.0
 40
1.0
 40
1.0
 40
1.0
 10
51.8821861835
 20
336.8911090017
 30
0.0
 10
51.929707001
 20
336.9185449871
 30
0.0
 10
51.9854530164
 20
336.9338356835
 30
0.0
 10
52.0402228955
 20
336.9371855702
 30
0.0
  0
SPLINE
  5
356
100
AcDbEntity
  8
0
100
AcDbSpline
 62
7
  6
CONTINUOUS
 70
0
 71
3
 72
8
 73
4
 74
0
 42
0.0000001
 43
0.0000001
 44
0.0000000001
 40
0.0
 40
0.0
 40
0.0
 40
0.0
 40
1.0
 40
1.0
 40
1.0
 40
1.0
 10
237.0764598478
 20
94.6387335338
 30
0.0
 10
237.0405378307
 20
94.6540393183
 30
0.0
 10
237.0055698884
 20
94.6717331296
 30
0.0
 10
236.9717541125
 20
94.6912562352
 30
0.0
  0
SPLINE
  5
357
100
AcDbEntity
  8
0
100
AcDbSpline
 62
7
  6
CONTINUOUS
 70
0
 71
3
 72
9
 73
5
 74
0
 42
0.0000001
 43
0.0000001
 44
0.0000000001
 40
0.0
 40
0.0
 40
0.0
 40
0.0
 40
0.740033457
 40
1.0
 40
1.0
 40
1.0
 40
1.0
 10
236.9057668393
 20
94.4490486522
 30
0.0
 10
236.9660038413
 20
94.4652178801
 30
0.0
 10
237.0431166841
 20
94.5118870503
 30
0.0
 10
237.0948389723
 20
94.5786239577
 30
0.0
 10
237.1069241721
 20
94.5968992259
 30
0.0
  0
SPLINE
  5
358
100
AcDbEntity
  8
0
100
AcDbSpline
 62
7
  6
CONTINUOUS
 70
0
 71
3
 72
8
 73
4
 74
0
 42
0.0000001
 43
0.0000001
 44
0.0000000001
 40
0.0
 40
0.0
 40
0.0
 40
0.0
 40
1.0
 40
1.0
 40
1.0
 40
1.0
 10
237.1069241721
 20
94.5968992259
 30
0.0
 10
237.1285708846
 20
94.6296334365
 30
0.0
 10
237.1455893751
 20
94.665682258
 30
0.0
 10
237.1584397092
 20
94.7027629487
 30
0.0
  0
SPLINE
  5
359
100
AcDbEntity
  8
0
100
AcDbSpline
 62
7
  6
CONTINUOUS
 70
0
 71
3
 72
9
 73
5
 74
0
 42
0.0000001
 43
0.0000001
 44
0.0000000001
 40
0.0
 40
0.0
 40
0.0
 40
0.0
 40
0.2342967697
 40
1.0
 40
1.0
 40
1.0
 40
1.0
 10
237.1584397092
 20
94.7027629487
 30
0.0
 10
237.1646127537
 20
94.7205757739
 30
0.0
 10
237.1870641913
 20
94.7979468448
 30
0.0
 10
237.1950233094
 20
94.879098782
 30
0.0
 10
237.1950233094
 20
94.9407092998
 30
0.0
  0
SPLINE
  5
35A
100
AcDbEntity
  8
0
100
AcDbSpline
 62
7
  6
CONTINUOUS
 70
0
 71
3
 72
10
 73
6
 74
0
 42
0.0000001
 43
0.0000001
 44
0.0000000001
 40
0.0
 40
0.0
 40
0.0
 40
0.0
 40
0.5469510532
 40
0.7816725359
 40
1.0
 40
1.0
 40
1.0
 40
1.0
 10
270.4038249642
 20
85.0363943385
 30
0.0
 10
270.4038249749
 20
84.7153071978
 30
0.0
 10
270.3382641495
 20
84.2434821631
 30
0.0
 10
270.0447347019
 20
83.7276504011
 30
0.0
 10
269.8463317162
 20
83.5425471241
 30
0.0
 10
269.7393785743
 20
83.4719191926
 30
0.0
  0
SPLINE
  5
35B
100
AcDbEntity
  8
0
100
AcDbSpline
 62
7
  6
CONTINUOUS
 70
0
 71
3
 72
9
 73
5
 74
0
 42
0.0000001
 43
0.0000001
 44
0.0000000001
 40
0.0
 40
0.0
 40
0.0
 40
0.0
 40
0.459511214
 40
1.0
 40
1.0
 40
1.0
 40
1.0
 10
38.6568881838
 20
368.5007078758
 30
0.0
 10
39.0000697076
 20
368.592895635
 30
0.0
 10
39.8016714036
 20
368.5963688249
 30
0.0
 10
40.5350559493
 20
368.3141264436
 30
0.0
 10
40.9055782885
 20
368.1207059141
 30
0.0
  0
SPLINE
  5
35C
100
AcDbEntity
  8
0
100
AcDbSpline
 62
7
  6
CONTINUOUS
 70
0
 71
3
 72
11
 73
7
 74
0
 42
0.0000001
 43
0.0000001
 44
0.0000000001
 40
0.0
 40
0.0
 40
0.0
 40
0.0
 40
0.2209415878
 40
0.4500111429
 40
0.7066883624
 40
1.0
 40
1.0
 40
1.0
 40
1.0
 10
250.5877630067
 20
64.0234035522
 30
0.0
 10
250.3962464021
 20
63.8321308602
 30
0.0
 10
249.9224259192
 20
63.5156412644
 30
0.0
 10
249.048535819
 20
63.3653443322
 30
0.0
 10
248.0946485494
 20
63.5318496427
 30
0.0
 10
247.4764634114
 20
63.8157518078
 30
0.0
 10
247.165270434
 20
63.9954150926
 30
0.0
  0
SPLINE
  5
35D
100
AcDbEntity
  8
0
100
AcDbSpline
 62
7
  6
CONTINUOUS
 70
0
 71
3
 72
9
 73
5
 74
0
 42
0.0000001
 43
0.0000001
 44
0.0000000001
 40
0.0
 40
0.0
 40
0.0
 40
0.0
 40
0.2447766603
 40
1.0
 40
1.0
 40
1.0
 40
1.0
 10
37.7997606095
 20
369.1176675168
 30
0.0
 10
37.8793319541
 20
369.1636077371
 30
0.0
 10
38.2160588468
 20
369.3309843221
 30
0.0
 10
38.5938948738
 20
369.4101239256
 30
0.0
 10
38.8770486302
 20
369.4238326301
 30
0.0
  0
SPLINE
  5
35E
100
AcDbEntity
  8
0
100
AcDbSpline
 62
7
  6
CONTINUOUS
 70
0
 71
3
 72
9
 73
5
 74
0
 42
0.0000001
 43
0.0000001
 44
0.0000000001
 40
0.0
 40
0.0
 40
0.0
 40
0.0
 40
0.2255062718
 40
1.0
 40
1.0
 40
1.0
 40
1.0
 10
38.8770486302
 20
369.4238326301
 30
0.0
 10
39.0521669613
 20
369.4323108699
 30
0.0
 10
39.8327494271
 20
369.3953559149
 30
0.0
 10
40.5808746627
 20
369.0916462511
 30
0.0
 10
41.1023483076
 20
368.7905801129
 30
0.0
  0
SPLINE
  5
35F
100
AcDbEntity
  8
0
100
AcDbSpline
 62
7
  6
CONTINUOUS
 70
0
 71
3
 72
11
 73
7
 74
0
 42
0.0000001
 43
0.0000001
 44
0.0000000001
 40
0.0
 40
0.0
 40
0.0
 40
0.0
 40
0.2184040236
 40
0.4498667211
 40
0.7084613957
 40
1.0
 40
1.0
 40
1.0
 40
1.0
 10
41.4409432196
 20
373.2161826453
 30
0.0
 10
41.6878637137
 20
373.3965350186
 30
0.0
 10
42.2721080647
 20
373.6741409133
 30
0.0
 10
43.2778708125
 20
373.7568963912
 30
0.0
 10
44.3594726281
 20
373.5248237579
 30
0.0
 10
45.0622080378
 20
373.1952919041
 30
0.0
 10
45.4156895346
 20
372.9912138836
 30
0.0
  0
SPLINE
  5
360
100
AcDbEntity
  8
0
100
AcDbSpline
 62
7
  6
CONTINUOUS
 70
0
 71
3
 72
11
 73
7
 74
0
 42
0.0000001
 43
0.0000001
 44
0.0000000001
 40
0.0
 40
0.0
 40
0.0
 40
0.0
 40
0.2179925722
 40
0.4527845926
 40
0.7125786449
 40
1.0
 40
1.0
 40
1.0
 40
1.0
 10
37.0139999575
 20
369.9847514618
 30
0.0
 10
36.8155029335
 20
369.8397679034
 30
0.0
 10
36.4500295052
 20
369.4702474863
 30
0.0
 10
36.0646738709
 20
368.7554736603
 30
0.0
 10
35.8350641639
 20
367.8975636101
 30
0.0
 10
35.7892602526
 20
367.2788104824
 30
0.0
 10
35.7892602526
 20
366.9547154517
 30
0.0
  0
SPLINE
  5
361
100
AcDbEntity
  8
0
100
AcDbSpline
 62
7
  6
CONTINUOUS
 70
0
 71
3
 72
13
 73
9
 74
0
 42
0.0000001
 43
0.0000001
 44
0.0000000001
 40
0.0
 40
0.0
 40
0.0
 40
0.0
 40
0.0898680143
 40
0.1867094538
 40
0.2951497413
 40
0.416927979
 40
0.6951843282
 40
1.0
 40
1.0
 40
1.0
 40
1.0
 10
76.548700807
 20
372.3435537972
 30
0.0
 10
76.652861969
 20
372.4035928017
 30
0.0
 10
76.8941806856
 20
372.4888612334
 30
0.0
 10
77.2948321538
 20
372.4890036932
 30
0.0
 10
77.7208758388
 20
372.3725257165
 30
0.0
 10
78.3280183692
 20
372.0573432962
 30
0.0
 10
79.0379224764
 20
371.415006582
 30
0.0
 10
79.477466598
 20
370.7615395426
 30
0.0
 10
79.6647046345
 20
370.3992837202
 30
0.0
  0
SPLINE
  5
362
100
AcDbEntity
  8
0
100
AcDbSpline
 62
7
  6
CONTINUOUS
 70
0
 71
3
 72
11
 73
7
 74
0
 42
0.0000001
 43
0.0000001
 44
0.0000000001
 40
0.0
 40
0.0
 40
0.0
 40
0.0
 40
0.2403331921
 40
0.5056627837
 40
0.7653554799
 40
1.0
 40
1.0
 40
1.0
 40
1.0
 10
274.0482811509
 20
265.3644481597
 30
0.0
 10
274.5793344185
 20
265.0578498413
 30
0.0
 10
275.5585977286
 20
264.1749661171
 30
0.0
 10
276.6304957516
 20
262.525357375
 30
0.0
 10
277.3191673225
 20
260.6985015495
 30
0.0
 10
277.4998684698
 20
259.43539558
 30
0.0
 10
277.4998675105
 20
258.8367053199
 30
0.0
  0
SPLINE
  5
363
100
AcDbEntity
  8
0
100
AcDbSpline
 62
7
  6
CONTINUOUS
 70
0
 71
3
 72
11
 73
7
 74
0
 42
0.0000001
 43
0.0000001
 44
0.0000000001
 40
0.0
 40
0.0
 40
0.0
 40
0.0
 40
0.2915396372
 40
0.5501346209
 40
0.7815969178
 40
1.0
 40
1.0
 40
1.0
 40
1.0
 10
258.2557168015
 20
68.0307077565
 30
0.0
 10
258.2557168017
 20
67.6225331315
 30
0.0
 10
258.1897378242
 20
66.8491585548
 30
0.0
 10
257.8499177301
 20
65.796396956
 30
0.0
 10
257.2753590234
 20
64.9667352669
 30
0.0
 10
256.7428103089
 20
64.5995599573
 30
0.0
 10
256.463153891
 20
64.4758956146
 30
0.0
  0
SPLINE
  5
364
100
AcDbEntity
  8
0
100
AcDbSpline
 62
7
  6
CONTINUOUS
 70
0
 71
3
 72
11
 73
7
 74
0
 42
0.0000001
 43
0.0000001
 44
0.0000000001
 40
0.0
 40
0.0
 40
0.0
 40
0.0
 40
0.237239768
 40
0.4999988393
 40
0.7627585384
 40
1.0
 40
1.0
 40
1.0
 40
1.0
 10
252.9523938598
 20
253.172552435
 30
0.0
 10
253.7053163118
 20
252.7378622891
 30
0.0
 10
255.1301196147
 20
251.5387102159
 30
0.0
 10
256.7930587068
 20
249.2662535853
 30
0.0
 10
257.9296087687
 20
246.6898773287
 30
0.0
 10
258.2557168016
 20
244.8563798933
 30
0.0
 10
258.2557168015
 20
243.9869786437
 30
0.0
  0
SPLINE
  5
365
100
AcDbEntity
  8
0
100
AcDbSpline
 62
7
  6
CONTINUOUS
 70
0
 71
3
 72
11
 73
7
 74
0
 42
0.0000001
 43
0.0000001
 44
0.0000000001
 40
0.0
 40
0.0
 40
0.0
 40
0.0
 40
0.2874204079
 40
0.5472140429
 40
0.7820064538
 40
1.0
 40
1.0
 40
1.0
 40
1.0
 10
248.2147981549
 20
62.7121219782
 30
0.0
 10
248.4954652941
 20
62.5500823956
 30
0.0
 10
249.054208204
 20
62.2803867708
 30
0.0
 10
249.9119609785
 20
62.0502933055
 30
0.0
 10
250.7236286863
 20
62.0266386232
 30
0.0
 10
251.2263663331
 20
62.1583835566
 30
0.0
 10
251.4511693538
 20
62.2577916822
 30
0.0
  0
SPLINE
  5
366
100
AcDbEntity
  8
0
100
AcDbSpline
 62
7
  6
CONTINUOUS
 70
0
 71
3
 72
11
 73
7
 74
0
 42
0.0000001
 43
0.0000001
 44
0.0000000001
 40
0.0
 40
0.0
 40
0.0
 40
0.0
 40
0.2397481889
 40
0.5000006706
 40
0.7602527835
 40
1.0
 40
1.0
 40
1.0
 40
1.0
 10
35.8052388993
 20
190.5345262007
 30
0.0
 10
35.8548305619
 20
189.7997859245
 30
0.0
 10
36.1828197161
 20
188.280620093
 30
0.0
 10
37.153088487
 20
186.1407383777
 30
0.0
 10
38.5211482124
 20
184.2305253313
 30
0.0
 10
39.6727905288
 20
183.186901921
 30
0.0
 10
40.28429808
 20
182.7765889642
 30
0.0
  0
SPLINE
  5
367
100
AcDbEntity
  8
0
100
AcDbSpline
 62
7
  6
CONTINUOUS
 70
0
 71
3
 72
9
 73
5
 74
0
 42
0.0000001
 43
0.0000001
 44
0.0000000001
 40
0.0
 40
0.0
 40
0.0
 40
0.0
 40
0.2778687238
 40
1.0
 40
1.0
 40
1.0
 40
1.0
 10
252.4611748462
 20
66.3955746601
 30
0.0
 10
252.4611748462
 20
66.1797734218
 30
0.0
 10
252.4215928367
 20
65.4062552466
 30
0.0
 10
252.2005270787
 20
64.6233184549
 30
0.0
 10
251.8969627873
 20
64.151748918
 30
0.0
  0
SPLINE
  5
368
100
AcDbEntity
  8
0
100
AcDbSpline
 62
7
  6
CONTINUOUS
 70
0
 71
3
 72
9
 73
5
 74
0
 42
0.0000001
 43
0.0000001
 44
0.0000000001
 40
0.0
 40
0.0
 40
0.0
 40
0.0
 40
0.2549198193
 40
1.0
 40
1.0
 40
1.0
 40
1.0
 10
251.8969627873
 20
64.151748918
 30
0.0
 10
251.8741395676
 20
64.1162943687
 30
0.0
 10
251.7814381897
 20
63.9792908567
 30
0.0
 10
251.6757141064
 20
63.8510119486
 30
0.0
 10
251.5901993017
 20
63.7622672514
 30
0.0
  0
SPLINE
  5
369
100
AcDbEntity
  8
0
100
AcDbSpline
 62
7
  6
CONTINUOUS
 70
0
 71
3
 72
8
 73
4
 74
0
 42
0.0000001
 43
0.0000001
 44
0.0000000001
 40
0.0
 40
0.0
 40
0.0
 40
0.0
 40
1.0
 40
1.0
 40
1.0
 40
1.0
 10
251.5901993017
 20
63.7622672514
 30
0.0
 10
251.4440030293
 20
63.6105491487
 30
0.0
 10
251.2755975525
 20
63.4771662007
 30
0.0
 10
251.0931313669
 20
63.3718199912
 30
0.0
  0
SPLINE
  5
36A
100
AcDbEntity
  8
0
100
AcDbSpline
 62
7
  6
CONTINUOUS
 70
0
 71
3
 72
11
 73
7
 74
0
 42
0.0000001
 43
0.0000001
 44
0.0000000001
 40
0.0
 40
0.0
 40
0.0
 40
0.0
 40
0.2390720924
 40
0.499998949
 40
0.7609263603
 40
1.0
 40
1.0
 40
1.0
 40
1.0
 10
248.0608063729
 20
249.2966580568
 30
0.0
 10
248.6673125852
 20
248.9056837272
 30
0.0
 10
249.8107898737
 20
247.8908038001
 30
0.0
 10
251.1622467262
 20
246.0153027869
 30
0.0
 10
252.1107608471
 20
243.9071561349
 30
0.0
 10
252.4179440412
 20
242.4094317918
 30
0.0
 10
252.4532910049
 20
241.6886904762
 30
0.0
  0
SPLINE
  5
36B
100
AcDbEntity
  8
0
100
AcDbSpline
 62
7
  6
CONTINUOUS
 70
0
 71
3
 72
11
 73
7
 74
0
 42
0.0000001
 43
0.0000001
 44
0.0000000001
 40
0.0
 40
0.0
 40
0.0
 40
0.0
 40
0.2372367421
 40
0.4999989081
 40
0.7627616684
 40
1.0
 40
1.0
 40
1.0
 40
1.0
 10
247.6491109623
 20
248.7654202036
 30
0.0
 10
248.2366221295
 20
248.4262281466
 30
0.0
 10
249.348429595
 20
247.4905205797
 30
0.0
 10
250.6460653396
 20
245.7172798608
 30
0.0
 10
251.5329299215
 20
243.706873817
 30
0.0
 10
251.7873830849
 20
242.2761625907
 30
0.0
 10
251.7873830849
 20
241.597762421
 30
0.0
  0
SPLINE
  5
36C
100
AcDbEntity
  8
0
100
AcDbSpline
 62
7
  6
CONTINUOUS
 70
0
 71
3
 72
9
 73
5
 74
0
 42
0.0000001
 43
0.0000001
 44
0.0000000001
 40
0.0
 40
0.0
 40
0.0
 40
0.0
 40
0.5439831254
 40
1.0
 40
1.0
 40
1.0
 40
1.0
 10
251.7873830849
 20
66.7845949136
 30
0.0
 10
251.7873830849
 20
66.3237292408
 30
0.0
 10
251.6881100264
 20
65.4678176526
 30
0.0
 10
251.2607543972
 20
64.6956035247
 30
0.0
 10
250.9873966388
 20
64.4225939105
 30
0.0
  0
SPLINE
  5
36D
100
AcDbEntity
  8
0
100
AcDbSpline
 62
7
  6
CONTINUOUS
 70
0
 71
3
 72
11
 73
7
 74
0
 42
0.0000001
 43
0.0000001
 44
0.0000000001
 40
0.0
 40
0.0
 40
0.0
 40
0.0
 40
0.2372367421
 40
0.4999989081
 40
0.7627616684
 40
1.0
 40
1.0
 40
1.0
 40
1.0
 10
40.6185197186
 20
183.242539488
 30
0.0
 10
40.0161888216
 20
183.5902875264
 30
0.0
 10
38.8763364657
 20
184.5495979354
 30
0.0
 10
37.5459683881
 20
186.367567929
 30
0.0
 10
36.6367330084
 20
188.4286856462
 30
0.0
 10
36.3758613677
 20
189.8954859803
 30
0.0
 10
36.3758613677
 20
190.5909985179
 30
0.0
  0
SPLINE
  5
36E
100
AcDbEntity
  8
0
100
AcDbSpline
 62
7
  6
CONTINUOUS
 70
0
 71
3
 72
11
 73
7
 74
0
 42
0.0000001
 43
0.0000001
 44
0.0000000001
 40
0.0
 40
0.0
 40
0.0
 40
0.0
 40
0.2933127633
 40
0.5499903808
 40
0.7790594417
 40
1.0
 40
1.0
 40
1.0
 40
1.0
 10
36.3758613677
 20
365.4041660253
 30
0.0
 10
36.3758613677
 20
365.7635082747
 30
0.0
 10
36.4390824297
 20
366.4408413616
 30
0.0
 10
36.7718278855
 20
367.3502097747
 30
0.0
 10
37.3389420164
 20
368.031890862
 30
0.0
 10
37.8499512
 20
368.2839911495
 30
0.0
 10
38.1113616191
 20
368.3542129975
 30
0.0
  0
SPLINE
  5
36F
100
AcDbEntity
  8
0
100
AcDbSpline
 62
7
  6
CONTINUOUS
 70
0
 71
3
 72
11
 73
7
 74
0
 42
0.0000001
 43
0.0000001
 44
0.0000000001
 40
0.0
 40
0.0
 40
0.0
 40
0.0
 40
0.2372444228
 40
0.5000010918
 40
0.7627571666
 40
1.0
 40
1.0
 40
1.0
 40
1.0
 10
224.6468373734
 20
240.2592844489
 30
0.0
 10
224.6468373734
 20
240.0274421339
 30
0.0
 10
224.7338190953
 20
239.5385140851
 30
0.0
 10
225.0368969058
 20
238.8514880278
 30
0.0
 10
225.4803418407
 20
238.2455051832
 30
0.0
 10
225.8602756989
 20
237.9257165196
 30
0.0
 10
226.0610568237
 20
237.8097981056
 30
0.0
  0
SPLINE
  5
370
100
AcDbEntity
  8
0
100
AcDbSpline
 62
7
  6
CONTINUOUS
 70
0
 71
3
 72
11
 73
7
 74
0
 42
0.0000001
 43
0.0000001
 44
0.0000000001
 40
0.0
 40
0.0
 40
0.0
 40
0.0
 40
0.2372444228
 40
0.5000010918
 40
0.7627571666
 40
1.0
 40
1.0
 40
1.0
 40
1.0
 10
49.6371803995
 20
341.2988711926
 30
0.0
 10
49.6371803995
 20
341.0670288776
 30
0.0
 10
49.7241621214
 20
340.5781008289
 30
0.0
 10
50.027239932
 20
339.8910747716
 30
0.0
 10
50.4706848668
 20
339.285091927
 30
0.0
 10
50.850618725
 20
338.9653032634
 30
0.0
 10
51.0513998498
 20
338.8493848493
 30
0.0
  0
SPLINE
  5
371
100
AcDbEntity
  8
0
100
AcDbSpline
 62
7
  6
CONTINUOUS
 70
0
 71
3
 72
9
 73
5
 74
0
 42
0.0000001
 43
0.0000001
 44
0.0000000001
 40
0.0
 40
0.0
 40
0.0
 40
0.0
 40
0.5000011284
 40
1.0
 40
1.0
 40
1.0
 40
1.0
 10
237.1950233094
 20
229.1737066759
 30
0.0
 10
237.1950233094
 20
229.4160559445
 30
0.0
 10
237.0294235758
 20
229.8945952171
 30
0.0
 10
236.6977944472
 20
230.2772778161
 30
0.0
 10
236.4879135843
 20
230.3984498475
 30
0.0
  0
SPLINE
  5
372
100
AcDbEntity
  8
0
100
AcDbSpline
 62
7
  6
CONTINUOUS
 70
0
 71
3
 72
9
 73
5
 74
0
 42
0.0000001
 43
0.0000001
 44
0.0000000001
 40
0.0
 40
0.0
 40
0.0
 40
0.0
 40
0.4999988716
 40
1.0
 40
1.0
 40
1.0
 40
1.0
 10
51.7797170965
 20
201.6095098441
 30
0.0
 10
51.5388528221
 20
201.7485697518
 30
0.0
 10
51.1582673396
 20
202.1877454123
 30
0.0
 10
50.9682211431
 20
202.7369284732
 30
0.0
 10
50.9682211431
 20
203.015054263
 30
0.0
  0
SPLINE
  5
373
100
AcDbEntity
  8
0
100
AcDbSpline
 62
7
  6
CONTINUOUS
 70
0
 71
3
 72
9
 73
5
 74
0
 42
0.0000001
 43
0.0000001
 44
0.0000000001
 40
0.0
 40
0.0
 40
0.0
 40
0.0
 40
0.550748605
 40
1.0
 40
1.0
 40
1.0
 40
1.0
 10
51.2958765683
 20
337.3167034564
 30
0.0
 10
51.2131748751
 20
337.364450221
 30
0.0
 10
51.0479075044
 20
337.4331076676
 30
0.0
 10
50.8633342587
 20
337.4051742722
 30
0.0
 10
50.7958744866
 20
337.3662252411
 30
0.0
  0
SPLINE
  5
374
100
AcDbEntity
  8
0
100
AcDbSpline
 62
7
  6
CONTINUOUS
 70
0
 71
3
 72
8
 73
4
 74
0
 42
0.0000001
 43
0.0000001
 44
0.0000000001
 40
0.0
 40
0.0
 40
0.0
 40
0.0
 40
1.0
 40
1.0
 40
1.0
 40
1.0
 10
50.7958744866
 20
337.3662252411
 30
0.0
 10
50.7702258608
 20
337.3514165767
 30
0.0
 10
50.7464215169
 20
337.3329589493
 30
0.0
 10
50.7254699168
 20
337.3120262237
 30
0.0
  0
SPLINE
  5
375
100
AcDbEntity
  8
0
100
AcDbSpline
 62
7
  6
CONTINUOUS
 70
0
 71
3
 72
8
 73
4
 74
0
 42
0.0000001
 43
0.0000001
 44
0.0000000001
 40
0.0
 40
0.0
 40
0.0
 40
0.0
 40
1.0
 40
1.0
 40
1.0
 40
1.0
 10
50.9682211431
 20
337.2480516391
 30
0.0
 10
50.9682211431
 20
337.287104336
 30
0.0
 10
50.9703820269
 20
337.3262402488
 30
0.0
 10
50.975088792
 20
337.3650082703
 30
0.0
  0
SPLINE
  5
376
100
AcDbEntity
  8
0
100
AcDbSpline
 62
7
  6
CONTINUOUS
 70
0
 71
3
 72
11
 73
7
 74
0
 42
0.0000001
 43
0.0000001
 44
0.0000000001
 40
0.0
 40
0.0
 40
0.0
 40
0.0
 40
0.2372441165
 40
0.4999990767
 40
0.7627545404
 40
1.0
 40
1.0
 40
1.0
 40
1.0
 10
267.930410175
 20
258.5522982492
 30
0.0
 10
268.281579015
 20
258.3495554268
 30
0.0
 10
268.9462979689
 20
257.7904849981
 30
0.0
 10
269.721642471
 20
256.7304317068
 30
0.0
 10
270.2520093578
 20
255.5289371702
 30
0.0
 10
270.4038249906
 20
254.6737366775
 30
0.0
 10
270.4038249905
 20
254.2682418342
 30
0.0
  0
SPLINE
  5
377
100
AcDbEntity
  8
0
100
AcDbSpline
 62
7
  6
CONTINUOUS
 70
0
 71
3
 72
9
 73
5
 74
0
 42
0.0000001
 43
0.0000001
 44
0.0000000001
 40
0.0
 40
0.0
 40
0.0
 40
0.0
 40
0.2784001444
 40
1.0
 40
1.0
 40
1.0
 40
1.0
 10
270.4038242372
 20
250.8206109204
 30
0.0
 10
270.4038224894
 20
250.7709383523
 30
0.0
 10
270.4135062814
 20
250.5928030125
 30
0.0
 10
270.466122552
 20
250.4159048694
 30
0.0
 10
270.5290928663
 20
250.3036060539
 30
0.0
  0
SPLINE
  5
378
100
AcDbEntity
  8
0
100
AcDbSpline
 62
7
  6
CONTINUOUS
 70
0
 71
3
 72
9
 73
5
 74
0
 42
0.0000001
 43
0.0000001
 44
0.0000000001
 40
0.0
 40
0.0
 40
0.0
 40
0.0
 40
0.5462360342
 40
1.0
 40
1.0
 40
1.0
 40
1.0
 10
271.195661676
 20
255.29524344
 30
0.0
 10
271.195661676
 20
255.0611600298
 30
0.0
 10
271.1431033968
 20
254.6270975817
 30
0.0
 10
270.907661654
 20
254.2433775232
 30
0.0
 10
270.7604161053
 20
254.1163668904
 30
0.0
  0
SPLINE
  5
379
100
AcDbEntity
  8
0
100
AcDbSpline
 62
7
  6
CONTINUOUS
 70
0
 71
3
 72
10
 73
6
 74
0
 42
0.0000001
 43
0.0000001
 44
0.0000000001
 40
0.0
 40
0.0
 40
0.0
 40
0.0
 40
0.5477665619
 40
0.7816564324
 40
1.0
 40
1.0
 40
1.0
 40
1.0
 10
271.195661676
 20
87.0140952696
 30
0.0
 10
271.195661676
 20
86.7466628828
 30
0.0
 10
271.1387978058
 20
86.352759525
 30
0.0
 10
270.8809487173
 20
85.9308914356
 30
0.0
 10
270.708045034
 20
85.785632724
 30
0.0
 10
270.6156885855
 20
85.7323980141
 30
0.0
  0
SPLINE
  5
37A
100
AcDbEntity
  8
0
100
AcDbSpline
 62
7
  6
CONTINUOUS
 70
0
 71
3
 72
11
 73
7
 74
0
 42
0.0000001
 43
0.0000001
 44
0.0000000001
 40
0.0
 40
0.0
 40
0.0
 40
0.0
 40
0.3055909326
 40
0.5814784161
 40
0.8112941754
 40
1.0
 40
1.0
 40
1.0
 40
1.0
 10
259.7215685939
 20
262.5035993128
 30
0.0
 10
259.5326650388
 20
262.8118950255
 30
0.0
 10
259.111592418
 20
263.3642867958
 30
0.0
 10
258.3625796737
 20
263.9795673656
 30
0.0
 10
257.5871473768
 20
264.3024359939
 30
0.0
 10
257.0617821003
 20
264.2517048748
 30
0.0
 10
256.8602898281
 20
264.155522007
 30
0.0
  0
SPLINE
  5
37B
100
AcDbEntity
  8
0
100
AcDbSpline
 62
7
  6
CONTINUOUS
 70
0
 71
3
 72
11
 73
7
 74
0
 42
0.0000001
 43
0.0000001
 44
0.0000000001
 40
0.0
 40
0.0
 40
0.0
 40
0.0
 40
0.2915385908
 40
0.5501332019
 40
0.7815959327
 40
1.0
 40
1.0
 40
1.0
 40
1.0
 10
40.6780938216
 20
369.7773655296
 30
0.0
 10
40.3522392293
 20
369.9654935102
 30
0.0
 10
39.7044273165
 20
370.2692703625
 30
0.0
 10
38.7073598007
 20
370.4832049021
 30
0.0
 10
37.7802039486
 20
370.4069174552
 30
0.0
 10
37.241622041
 20
370.1510081593
 30
0.0
 10
37.0139999575
 20
369.9847514618
 30
0.0
  0
SPLINE
  5
37C
100
AcDbEntity
  8
0
100
AcDbSpline
 62
7
  6
CONTINUOUS
 70
0
 71
3
 72
11
 73
7
 74
0
 42
0.0000001
 43
0.0000001
 44
0.0000000001
 40
0.0
 40
0.0
 40
0.0
 40
0.0
 40
0.2372413576
 40
0.5000010231
 40
0.762760128
 40
1.0
 40
1.0
 40
1.0
 40
1.0
 10
253.1036317239
 20
241.4910429516
 30
0.0
 10
253.103631724
 20
242.2924944562
 30
0.0
 10
252.8030113809
 20
243.9826916128
 30
0.0
 10
251.7552905178
 20
246.3577070013
 30
0.0
 10
250.2223209961
 20
248.4525567188
 30
0.0
 10
248.9088750966
 20
249.5579876331
 30
0.0
 10
248.2147981542
 20
249.9587040768
 30
0.0
  0
SPLINE
  5
37D
100
AcDbEntity
  8
0
100
AcDbSpline
 62
7
  6
CONTINUOUS
 70
0
 71
3
 72
11
 73
7
 74
0
 42
0.0000001
 43
0.0000001
 44
0.0000000001
 40
0.0
 40
0.0
 40
0.0
 40
0.0
 40
0.286895188
 40
0.5467291034
 40
0.7818662836
 40
1.0
 40
1.0
 40
1.0
 40
1.0
 10
36.4317141329
 20
366.0938883625
 30
0.0
 10
36.4317141329
 20
366.398265175
 30
0.0
 10
36.4740687327
 20
366.9798512018
 30
0.0
 10
36.6858010063
 20
367.7877458425
 30
0.0
 10
37.0409825461
 20
368.4643456002
 30
0.0
 10
37.3783507653
 20
368.8184768389
 30
0.0
 10
37.5621660908
 20
368.9590814642
 30
0.0
  0
SPLINE
  5
37E
100
AcDbEntity
  8
0
100
AcDbSpline
 62
7
  6
CONTINUOUS
 70
0
 71
3
 72
9
 73
5
 74
0
 42
0.0000001
 43
0.0000001
 44
0.0000000001
 40
0.0
 40
0.0
 40
0.0
 40
0.0
 40
0.2334253173
 40
1.0
 40
1.0
 40
1.0
 40
1.0
 10
167.5620919094
 20
303.6852517492
 30
0.0
 10
167.5693816958
 20
303.7244754313
 30
0.0
 10
167.6165620408
 20
303.8897054496
 30
0.0
 10
167.7243319427
 20
304.0328085179
 30
0.0
 10
167.8195610131
 20
304.1227916324
 30
0.0
  0
SPLINE
  5
37F
100
AcDbEntity
  8
0
100
AcDbSpline
 62
7
  6
CONTINUOUS
 70
0
 71
3
 72
10
 73
6
 74
0
 42
0.0000001
 43
0.0000001
 44
0.0000000001
 40
0.0
 40
0.0
 40
0.0
 40
0.0
 40
0.4999566265
 40
0.7500859946
 40
1.0
 40
1.0
 40
1.0
 40
1.0
 10
259.8710627073
 20
269.5365018299
 30
0.0
 10
261.3205430437
 20
268.6997463552
 30
0.0
 10
263.4941996267
 20
267.442618246
 30
0.0
 10
266.3946941449
 20
265.7712015793
 30
0.0
 10
267.8460311999
 20
264.9370514947
 30
0.0
 10
268.5684704758
 20
264.5151398005
 30
0.0
  0
SPLINE
  5
380
100
AcDbEntity
  8
0
100
AcDbSpline
 62
7
  6
CONTINUOUS
 70
0
 71
3
 72
16
 73
12
 74
0
 42
0.0000001
 43
0.0000001
 44
0.0000000001
 40
0.0
 40
0.0
 40
0.0
 40
0.0
 40
0.1236257301
 40
0.1872773009
 40
0.250697459
 40
0.3757418861
 40
0.5001176337
 40
0.6250391664
 40
0.7501393504
 40
0.8750897159
 40
1.0
 40
1.0
 40
1.0
 40
1.0
 10
217.4136098394
 20
294.0149838682
 30
0.0
 10
219.0834051258
 20
292.8788023427
 30
0.0
 10
221.7449480805
 20
291.356453687
 30
0.0
 10
225.3530261946
 20
289.4210869222
 30
0.0
 10
228.9680863927
 20
287.4461356569
 30
0.0
 10
233.3844635768
 20
284.8730145144
 30
0.0
 10
238.6514772202
 20
281.7651214262
 30
0.0
 10
243.9529055408
 20
278.7141458005
 30
0.0
 10
249.265872219
 20
275.6646568431
 30
0.0
 10
254.5699935525
 20
272.6001051077
 30
0.0
 10
258.1037364261
 20
270.5567432945
 30
0.0
 10
259.8710627073
 20
269.5365018299
 30
0.0
  0
SPLINE
  5
381
100
AcDbEntity
  8
0
100
AcDbSpline
 62
7
  6
CONTINUOUS
 70
0
 71
3
 72
9
 73
5
 74
0
 42
0.0000001
 43
0.0000001
 44
0.0000000001
 40
0.0
 40
0.0
 40
0.0
 40
0.0
 40
0.2334253173
 40
1.0
 40
1.0
 40
1.0
 40
1.0
 10
78.5016220271
 20
355.103174781
 30
0.0
 10
78.5089118135
 20
355.1423984631
 30
0.0
 10
78.5560921585
 20
355.3076284815
 30
0.0
 10
78.6638620605
 20
355.4507315498
 30
0.0
 10
78.759091131
 20
355.5407146643
 30
0.0
  0
SPLINE
  5
382
100
AcDbEntity
  8
0
100
AcDbSpline
 62
7
  6
CONTINUOUS
 70
0
 71
3
 72
10
 73
6
 74
0
 42
0.0000001
 43
0.0000001
 44
0.0000000001
 40
0.0
 40
0.0
 40
0.0
 40
0.0
 40
0.5006303404
 40
0.7487550614
 40
1.0
 40
1.0
 40
1.0
 40
1.0
 10
268.5684704758
 20
264.5151398005
 30
0.0
 10
268.6950397856
 20
264.4412220696
 30
0.0
 10
268.8868055299
 20
264.3347989914
 30
0.0
 10
269.1380395895
 20
264.1847523876
 30
0.0
 10
269.2629947239
 20
264.1082073305
 30
0.0
 10
269.3292334443
 20
264.0762181043
 30
0.0
  0
SPLINE
  5
383
100
AcDbEntity
  8
0
100
AcDbSpline
 62
7
  6
CONTINUOUS
 70
0
 71
3
 72
9
 73
5
 74
0
 42
0.0000001
 43
0.0000001
 44
0.0000000001
 40
0.0
 40
0.0
 40
0.0
 40
0.0
 40
0.2796271156
 40
1.0
 40
1.0
 40
1.0
 40
1.0
 10
247.8980092637
 20
63.7609669676
 30
0.0
 10
248.0949163056
 20
63.6472852058
 30
0.0
 10
248.8174111978
 20
63.2801730813
 30
0.0
 10
249.6522837464
 20
63.0827677063
 30
0.0
 10
250.2356485761
 20
63.1354835307
 30
0.0
  0
SPLINE
  5
384
100
AcDbEntity
  8
0
100
AcDbSpline
 62
7
  6
CONTINUOUS
 70
0
 71
3
 72
11
 73
7
 74
0
 42
0.0000001
 43
0.0000001
 44
0.0000000001
 40
0.0
 40
0.0
 40
0.0
 40
0.0
 40
0.2386993545
 40
0.4999990626
 40
0.7612992755
 40
1.0
 40
1.0
 40
1.0
 40
1.0
 10
247.3594633354
 20
248.4893211447
 30
0.0
 10
247.9211678882
 20
248.1351176387
 30
0.0
 10
248.9808988258
 20
247.2049592329
 30
0.0
 10
250.2300398596
 20
245.4770850757
 30
0.0
 10
251.1018609429
 20
243.5313598399
 30
0.0
 10
251.3775445534
 20
242.1485234499
 30
0.0
 10
251.4034468454
 20
241.4849676787
 30
0.0
  0
SPLINE
  5
385
100
AcDbEntity
  8
0
100
AcDbSpline
 62
7
  6
CONTINUOUS
 70
0
 71
3
 72
8
 73
4
 74
0
 42
0.0000001
 43
0.0000001
 44
0.0000000001
 40
0.0
 40
0.0
 40
0.0
 40
0.0
 40
1.0
 40
1.0
 40
1.0
 40
1.0
 10
73.7657098315
 20
373.0422223418
 30
0.0
 10
73.4888782334
 20
373.20115636
 30
0.0
 10
73.2104161928
 20
373.3573546078
 30
0.0
 10
72.9366077305
 20
373.5214420292
 30
0.0
  0
SPLINE
  5
386
100
AcDbEntity
  8
0
100
AcDbSpline
 62
7
  6
CONTINUOUS
 70
0
 71
3
 72
8
 73
4
 74
0
 42
0.0000001
 43
0.0000001
 44
0.0000000001
 40
0.0
 40
0.0
 40
0.0
 40
0.0
 40
1.0
 40
1.0
 40
1.0
 40
1.0
 10
72.9366077305
 20
373.5214420292
 30
0.0
 10
72.8203671634
 20
373.5911024581
 30
0.0
 10
72.7045520675
 20
373.6618375832
 30
0.0
 10
72.5843044394
 20
373.724327204
 30
0.0
  0
SPLINE
  5
387
100
AcDbEntity
  8
0
100
AcDbSpline
 62
7
  6
CONTINUOUS
 70
0
 71
3
 72
9
 73
5
 74
0
 42
0.0000001
 43
0.0000001
 44
0.0000000001
 40
0.0
 40
0.0
 40
0.0
 40
0.0
 40
0.5106983551
 40
1.0
 40
1.0
 40
1.0
 40
1.0
 10
270.5290928663
 20
250.3036060539
 30
0.0
 10
270.5889910802
 20
250.196785903
 30
0.0
 10
270.7538853051
 20
250.0127855071
 30
0.0
 10
270.9608155364
 20
249.8899778597
 30
0.0
 10
271.0624210748
 20
249.8312904435
 30
0.0
  0
SPLINE
  5
388
100
AcDbEntity
  8
0
100
AcDbSpline
 62
7
  6
CONTINUOUS
 70
0
 71
3
 72
9
 73
5
 74
0
 42
0.0000001
 43
0.0000001
 44
0.0000000001
 40
0.0
 40
0.0
 40
0.0
 40
0.0
 40
0.2776313716
 40
1.0
 40
1.0
 40
1.0
 40
1.0
 10
251.4079287849
 20
66.4449850682
 30
0.0
 10
251.4079287849
 20
66.2503755311
 30
0.0
 10
251.3724331309
 20
65.5521555377
 30
0.0
 10
251.1746236541
 20
64.8457134269
 30
0.0
 10
250.9029119999
 20
64.4184343594
 30
0.0
  0
SPLINE
  5
389
100
AcDbEntity
  8
0
100
AcDbSpline
 62
7
  6
CONTINUOUS
 70
0
 71
3
 72
9
 73
5
 74
0
 42
0.0000001
 43
0.0000001
 44
0.0000000001
 40
0.0
 40
0.0
 40
0.0
 40
0.0
 40
0.2555054276
 40
1.0
 40
1.0
 40
1.0
 40
1.0
 10
250.9029119999
 20
64.4184343594
 30
0.0
 10
250.8797912032
 20
64.3820758437
 30
0.0
 10
250.7856773676
 20
64.2421279194
 30
0.0
 10
250.6765955199
 20
64.1121229297
 30
0.0
 10
250.5877630067
 20
64.0234035522
 30
0.0
  0
SPLINE
  5
38A
100
AcDbEntity
  8
0
100
AcDbSpline
 62
7
  6
CONTINUOUS
 70
0
 71
3
 72
8
 73
4
 74
0
 42
0.0000001
 43
0.0000001
 44
0.0000000001
 40
0.0
 40
0.0
 40
0.0
 40
0.0
 40
1.0
 40
1.0
 40
1.0
 40
1.0
 10
36.8899508097
 20
364.9440667603
 30
0.0
 10
36.9184276725
 20
364.9185805656
 30
0.0
 10
36.9501084941
 20
364.8964813659
 30
0.0
 10
36.9832048801
 20
364.8773735908
 30
0.0
  0
SPLINE
  5
38B
100
AcDbEntity
  8
0
100
AcDbSpline
 62
7
  6
CONTINUOUS
 70
0
 71
3
 72
9
 73
5
 74
0
 42
0.0000001
 43
0.0000001
 44
0.0000000001
 40
0.0
 40
0.0
 40
0.0
 40
0.0
 40
0.2785845069
 40
1.0
 40
1.0
 40
1.0
 40
1.0
 10
40.4770989506
 20
367.0151669154
 30
0.0
 10
40.3296081221
 20
367.1003188586
 30
0.0
 10
39.7864506172
 20
367.3767999949
 30
0.0
 10
39.1621749148
 20
367.5297995348
 30
0.0
 10
38.7222397407
 20
367.498854319
 30
0.0
  0
SPLINE
  5
38C
100
AcDbEntity
  8
0
100
AcDbSpline
 62
7
  6
CONTINUOUS
 70
0
 71
3
 72
11
 73
7
 74
0
 42
0.0000001
 43
0.0000001
 44
0.0000000001
 40
0.0
 40
0.0
 40
0.0
 40
0.0
 40
0.2215329706
 40
0.4501334659
 40
0.7065861553
 40
1.0
 40
1.0
 40
1.0
 40
1.0
 10
38.4037608752
 20
367.4502165074
 30
0.0
 10
38.1772954502
 20
367.3956394878
 30
0.0
 10
37.7328285473
 20
367.1901839601
 30
0.0
 10
37.235815475
 20
366.6126165317
 30
0.0
 10
36.9453479062
 20
365.8338712882
 30
0.0
 10
36.8899508122
 20
365.2526008041
 30
0.0
 10
36.8899508122
 20
364.9440667582
 30
0.0
  0
SPLINE
  5
38D
100
AcDbEntity
  8
0
100
AcDbSpline
 62
7
  6
CONTINUOUS
 70
0
 71
3
 72
8
 73
4
 74
0
 42
0.0000001
 43
0.0000001
 44
0.0000000001
 40
0.0
 40
0.0
 40
0.0
 40
0.0
 40
1.0
 40
1.0
 40
1.0
 40
1.0
 10
40.4659667933
 20
366.8882046098
 30
0.0
 10
40.4659667933
 20
366.9306877476
 30
0.0
 10
40.4700341298
 20
366.9732753296
 30
0.0
 10
40.4770989512
 20
367.0151669194
 30
0.0
  0
SPLINE
  5
38E
100
AcDbEntity
  8
0
100
AcDbSpline
 62
7
  6
CONTINUOUS
 70
0
 71
3
 72
8
 73
4
 74
0
 42
0.0000001
 43
0.0000001
 44
0.0000000001
 40
0.0
 40
0.0
 40
0.0
 40
0.0
 40
1.0
 40
1.0
 40
1.0
 40
1.0
 10
40.4770989512
 20
183.9178109079
 30
0.0
 10
40.4692652726
 20
183.955216017
 30
0.0
 10
40.4659667933
 20
183.9937023832
 30
0.0
 10
40.4659667933
 20
184.0319189857
 30
0.0
  0
SPLINE
  5
38F
100
AcDbEntity
  8
0
100
AcDbSpline
 62
7
  6
CONTINUOUS
 70
0
 71
3
 72
11
 73
7
 74
0
 42
0.0000001
 43
0.0000001
 44
0.0000000001
 40
0.0
 40
0.0
 40
0.0
 40
0.0
 40
0.2372278263
 40
0.4999168756
 40
0.7626843281
 40
1.0
 40
1.0
 40
1.0
 40
1.0
 10
36.8899508122
 20
190.1308992507
 30
0.0
 10
36.8899508121
 20
189.5428737196
 30
0.0
 10
37.1103428286
 20
188.3028671976
 30
0.0
 10
37.8793036313
 20
186.5605349026
 30
0.0
 10
39.0036996916
 20
185.0231318241
 30
0.0
 10
39.9676624476
 20
184.2119275594
 30
0.0
 10
40.4770989505
 20
183.9178109111
 30
0.0
  0
SPLINE
  5
390
100
AcDbEntity
  8
0
100
AcDbSpline
 62
7
  6
CONTINUOUS
 70
0
 71
3
 72
8
 73
4
 74
0
 42
0.0000001
 43
0.0000001
 44
0.0000000001
 40
0.0
 40
0.0
 40
0.0
 40
0.0
 40
1.0
 40
1.0
 40
1.0
 40
1.0
 10
36.9832048801
 20
190.0642060834
 30
0.0
 10
36.9501084941
 20
190.0833138585
 30
0.0
 10
36.9184276725
 20
190.1054130582
 30
0.0
 10
36.8899508097
 20
190.1308992529
 30
0.0
  0
SPLINE
  5
391
100
AcDbEntity
  8
0
100
AcDbSpline
 62
7
  6
CONTINUOUS
 70
0
 71
3
 72
8
 73
4
 74
0
 42
0.0000001
 43
0.0000001
 44
0.0000000001
 40
0.0
 40
0.0
 40
0.0
 40
0.0
 40
1.0
 40
1.0
 40
1.0
 40
1.0
 10
250.610997808
 20
66.7417866717
 30
0.0
 10
250.5711863541
 20
66.7566136814
 30
0.0
 10
250.5322708526
 20
66.7743845474
 30
0.0
 10
250.4954794219
 20
66.7956256093
 30
0.0
  0
SPLINE
  5
392
100
AcDbEntity
  8
0
100
AcDbSpline
 62
7
  6
CONTINUOUS
 70
0
 71
3
 72
11
 73
7
 74
0
 42
0.0000001
 43
0.0000001
 44
0.0000000001
 40
0.0
 40
0.0
 40
0.0
 40
0.0
 40
0.2882062684
 40
0.5433820036
 40
0.7749396342
 40
1.0
 40
1.0
 40
1.0
 40
1.0
 10
247.300913247
 20
64.5232279932
 30
0.0
 10
247.5393382736
 20
64.4070587932
 30
0.0
 10
248.0111852411
 20
64.2281049806
 30
0.0
 10
248.7293910529
 20
64.1475264497
 30
0.0
 10
249.3829429203
 20
64.2869534907
 30
0.0
 10
249.742467759
 20
64.5258095588
 30
0.0
 10
249.8919439918
 20
64.6691680047
 30
0.0
  0
SPLINE
  5
393
100
AcDbEntity
  8
0
100
AcDbSpline
 62
7
  6
CONTINUOUS
 70
0
 71
3
 72
9
 73
5
 74
0
 42
0.0000001
 43
0.0000001
 44
0.0000000001
 40
0.0
 40
0.0
 40
0.0
 40
0.0
 40
0.2247952888
 40
1.0
 40
1.0
 40
1.0
 40
1.0
 10
250.1449670405
 20
64.969159291
 30
0.0
 10
250.2232363858
 20
65.0835074793
 30
0.0
 10
250.5200871635
 20
65.6278276065
 30
0.0
 10
250.6109978042
 20
66.2639297402
 30
0.0
 10
250.6109978042
 20
66.7417866731
 30
0.0
  0
SPLINE
  5
394
100
AcDbEntity
  8
0
100
AcDbSpline
 62
7
  6
CONTINUOUS
 70
0
 71
3
 72
8
 73
4
 74
0
 42
0.0000001
 43
0.0000001
 44
0.0000000001
 40
0.0
 40
0.0
 40
0.0
 40
0.0
 40
1.0
 40
1.0
 40
1.0
 40
1.0
 10
247.0127175088
 20
64.7847945903
 30
0.0
 10
247.0127175088
 20
64.7465779878
 30
0.0
 10
247.016015988
 20
64.7080916216
 30
0.0
 10
247.0238496666
 20
64.6706865126
 30
0.0
  0
SPLINE
  5
395
100
AcDbEntity
  8
0
100
AcDbSpline
 62
7
  6
CONTINUOUS
 70
0
 71
3
 72
8
 73
4
 74
0
 42
0.0000001
 43
0.0000001
 44
0.0000000001
 40
0.0
 40
0.0
 40
0.0
 40
0.0
 40
1.0
 40
1.0
 40
1.0
 40
1.0
 10
247.0238496666
 20
247.7680425241
 30
0.0
 10
247.0167848452
 20
247.7261509342
 30
0.0
 10
247.0127175088
 20
247.6835633523
 30
0.0
 10
247.0127175088
 20
247.6410802144
 30
0.0
  0
SPLINE
  5
396
100
AcDbEntity
  8
0
100
AcDbSpline
 62
7
  6
CONTINUOUS
 70
0
 71
3
 72
11
 73
7
 74
0
 42
0.0000001
 43
0.0000001
 44
0.0000000001
 40
0.0
 40
0.0
 40
0.0
 40
0.0
 40
0.2372278263
 40
0.4999168756
 40
0.7626843281
 40
1.0
 40
1.0
 40
1.0
 40
1.0
 10
250.610997808
 20
241.5549541791
 30
0.0
 10
250.610997808
 20
242.1429797107
 30
0.0
 10
250.3906057914
 20
243.3829862338
 30
0.0
 10
249.6216449881
 20
245.1253185303
 30
0.0
 10
248.4972489268
 20
246.6627216102
 30
0.0
 10
247.5332861699
 20
247.4739258756
 30
0.0
 10
247.0238496666
 20
247.7680425241
 30
0.0
  0
SPLINE
  5
397
100
AcDbEntity
  8
0
100
AcDbSpline
 62
7
  6
CONTINUOUS
 70
0
 71
3
 72
8
 73
4
 74
0
 42
0.0000001
 43
0.0000001
 44
0.0000000001
 40
0.0
 40
0.0
 40
0.0
 40
0.0
 40
1.0
 40
1.0
 40
1.0
 40
1.0
 10
250.4954794219
 20
241.6087931167
 30
0.0
 10
250.5322708526
 20
241.5875520549
 30
0.0
 10
250.5711863541
 20
241.5697811888
 30
0.0
 10
250.610997808
 20
241.5549541791
 30
0.0
  0
SPLINE
  5
398
100
AcDbEntity
  8
0
100
AcDbSpline
 62
7
  6
CONTINUOUS
 70
0
 71
3
 72
11
 73
7
 74
0
 42
0.0000001
 43
0.0000001
 44
0.0000000001
 40
0.0
 40
0.0
 40
0.0
 40
0.0
 40
0.2875916452
 40
0.5421299421
 40
0.7737011061
 40
1.0
 40
1.0
 40
1.0
 40
1.0
 10
247.3195607688
 20
64.6233338786
 30
0.0
 10
247.5519101933
 20
64.5130166367
 30
0.0
 10
248.0115842521
 20
64.3447618652
 30
0.0
 10
248.7100978162
 20
64.2784603194
 30
0.0
 10
249.342896356
 20
64.4288678814
 30
0.0
 10
249.6869103103
 20
64.6710630492
 30
0.0
 10
249.8293351367
 20
64.8148590866
 30
0.0
  0
SPLINE
  5
399
100
AcDbEntity
  8
0
100
AcDbSpline
 62
7
  6
CONTINUOUS
 70
0
 71
3
 72
9
 73
5
 74
0
 42
0.0000001
 43
0.0000001
 44
0.0000000001
 40
0.0
 40
0.0
 40
0.0
 40
0.0
 40
0.2241896564
 40
1.0
 40
1.0
 40
1.0
 40
1.0
 10
250.0133365767
 20
65.032461964
 30
0.0
 10
250.0941654148
 20
65.144215173
 30
0.0
 10
250.4019694414
 20
65.681448723
 30
0.0
 10
250.4954794219
 20
66.3181755517
 30
0.0
 10
250.4954794219
 20
66.7954509022
 30
0.0
  0
SPLINE
  5
39A
100
AcDbEntity
  8
0
100
AcDbSpline
 62
7
  6
CONTINUOUS
 70
0
 71
3
 72
11
 73
7
 74
0
 42
0.0000001
 43
0.0000001
 44
0.0000000001
 40
0.0
 40
0.0
 40
0.0
 40
0.0
 40
0.2372670478
 40
0.500017241
 40
0.7627538472
 40
1.0
 40
1.0
 40
1.0
 40
1.0
 10
36.9832048801
 20
190.0627873136
 30
0.0
 10
36.9832048801
 20
189.4919028892
 30
0.0
 10
37.1975868235
 20
188.2880420601
 30
0.0
 10
37.9443529998
 20
186.5967785341
 30
0.0
 10
39.0359455621
 20
185.1046773787
 30
0.0
 10
39.9714563521
 20
184.3174182632
 30
0.0
 10
40.4658160227
 20
184.0320060312
 30
0.0
  0
SPLINE
  5
39B
100
AcDbEntity
  8
0
100
AcDbSpline
 62
7
  6
CONTINUOUS
 70
0
 71
3
 72
9
 73
5
 74
0
 42
0.0000001
 43
0.0000001
 44
0.0000000001
 40
0.0
 40
0.0
 40
0.0
 40
0.0
 40
0.2799126278
 40
1.0
 40
1.0
 40
1.0
 40
1.0
 10
40.4647373795
 20
366.8889143961
 30
0.0
 10
40.3159215872
 20
366.9748312902
 30
0.0
 10
39.7702357116
 20
367.25135099
 30
0.0
 10
39.1378011466
 20
367.3976016744
 30
0.0
 10
38.6980706961
 20
367.3523043204
 30
0.0
  0
SPLINE
  5
39C
100
AcDbEntity
  8
0
100
AcDbSpline
 62
7
  6
CONTINUOUS
 70
0
 71
3
 72
11
 73
7
 74
0
 42
0.0000001
 43
0.0000001
 44
0.0000000001
 40
0.0
 40
0.0
 40
0.0
 40
0.0
 40
0.2210699516
 40
0.4500104788
 40
0.7067526206
 40
1.0
 40
1.0
 40
1.0
 40
1.0
 10
38.4173828114
 20
367.3016725804
 30
0.0
 10
38.2016946242
 20
367.2449365236
 30
0.0
 10
37.7798153105
 20
367.0394199513
 30
0.0
 10
37.3104631912
 20
366.4797034766
 30
0.0
 10
37.0357126748
 20
365.7311114267
 30
0.0
 10
36.9832048801
 20
365.1733900415
 30
0.0
 10
36.9832048801
 20
364.8775486425
 30
0.0
  0
SPLINE
  5
39D
100
AcDbEntity
  8
0
100
AcDbSpline
 62
7
  6
CONTINUOUS
 70
0
 71
3
 72
11
 73
7
 74
0
 42
0.0000001
 43
0.0000001
 44
0.0000000001
 40
0.0
 40
0.0
 40
0.0
 40
0.0
 40
0.2372670478
 40
0.500017241
 40
0.7627538472
 40
1.0
 40
1.0
 40
1.0
 40
1.0
 10
250.4954794219
 20
241.6102118875
 30
0.0
 10
250.4954794219
 20
242.1810963118
 30
0.0
 10
250.2810974783
 20
243.3849571404
 30
0.0
 10
249.5343313023
 20
245.0762206659
 30
0.0
 10
248.4427387404
 20
246.5683218209
 30
0.0
 10
247.5072279509
 20
247.3555809364
 30
0.0
 10
247.0128682804
 20
247.6409931683
 30
0.0
  0
SPLINE
  5
39E
100
AcDbEntity
  8
0
100
AcDbSpline
 62
7
  6
CONTINUOUS
 70
0
 71
3
 72
11
 73
7
 74
0
 42
0.0000001
 43
0.0000001
 44
0.0000000001
 40
0.0
 40
0.0
 40
0.0
 40
0.0
 40
0.2372428334
 40
0.4999989082
 40
0.7627555772
 40
1.0
 40
1.0
 40
1.0
 40
1.0
 10
236.3707161453
 20
240.0879908686
 30
0.0
 10
236.5714972701
 20
239.9720724546
 30
0.0
 10
236.9514311283
 20
239.652283791
 30
0.0
 10
237.3948760631
 20
239.0463009464
 30
0.0
 10
237.6979538737
 20
238.3592748891
 30
0.0
 10
237.7849355956
 20
237.8703468403
 30
0.0
 10
237.7849355956
 20
237.6385045253
 30
0.0
  0
SPLINE
  5
39F
100
AcDbEntity
  8
0
100
AcDbSpline
 62
7
  6
CONTINUOUS
 70
0
 71
3
 72
11
 73
7
 74
0
 42
0.0000001
 43
0.0000001
 44
0.0000000001
 40
0.0
 40
0.0
 40
0.0
 40
0.0
 40
0.2372428334
 40
0.4999989082
 40
0.7627555772
 40
1.0
 40
1.0
 40
1.0
 40
1.0
 10
74.7961439492
 20
338.6782689879
 30
0.0
 10
74.996925074
 20
338.5623505738
 30
0.0
 10
75.3768589322
 20
338.2425619102
 30
0.0
 10
75.8203038671
 20
337.6365790656
 30
0.0
 10
76.1233816776
 20
336.9495530083
 30
0.0
 10
76.2103633995
 20
336.4606249596
 30
0.0
 10
76.2103633995
 20
336.2287826446
 30
0.0
  0
SPLINE
  5
3A0
100
AcDbEntity
  8
0
100
AcDbSpline
 62
7
  6
CONTINUOUS
 70
0
 71
3
 72
9
 73
5
 74
0
 42
0.0000001
 43
0.0000001
 44
0.0000000001
 40
0.0
 40
0.0
 40
0.0
 40
0.0
 40
0.2358069135
 40
1.0
 40
1.0
 40
1.0
 40
1.0
 10
236.3354882719
 20
231.1877556696
 30
0.0
 10
236.3791118924
 20
231.1625701303
 30
0.0
 10
236.5598527637
 20
231.0484363191
 30
0.0
 10
236.7239617623
 20
230.9089589592
 30
0.0
 10
236.8394858481
 20
230.7936223262
 30
0.0
  0
SPLINE
  5
3A1
100
AcDbEntity
  8
0
100
AcDbSpline
 62
7
  6
CONTINUOUS
 70
0
 71
3
 72
9
 73
5
 74
0
 42
0.0000001
 43
0.0000001
 44
0.0000000001
 40
0.0
 40
0.0
 40
0.0
 40
0.0
 40
0.2437064823
 40
1.0
 40
1.0
 40
1.0
 40
1.0
 10
236.8394858481
 20
230.7936223262
 30
0.0
 10
236.8901930683
 20
230.7429973851
 30
0.0
 10
237.0905899469
 20
230.527671482
 30
0.0
 10
237.2615586703
 20
230.2853945357
 30
0.0
 10
237.3727379795
 20
230.0928252705
 30
0.0
  0
SPLINE
  5
3A2
100
AcDbEntity
  8
0
100
AcDbSpline
 62
7
  6
CONTINUOUS
 70
0
 71
3
 72
9
 73
5
 74
0
 42
0.0000001
 43
0.0000001
 44
0.0000000001
 40
0.0
 40
0.0
 40
0.0
 40
0.0
 40
0.254976623
 40
1.0
 40
1.0
 40
1.0
 40
1.0
 10
237.3727379795
 20
230.0928252705
 30
0.0
 10
237.4102203663
 20
230.0279035172
 30
0.0
 10
237.5491111042
 20
229.7687543835
 30
0.0
 10
237.6565105228
 20
229.4922014168
 30
0.0
 10
237.7130288936
 20
229.2805759778
 30
0.0
  0
SPLINE
  5
3A3
100
AcDbEntity
  8
0
100
AcDbSpline
 62
7
  6
CONTINUOUS
 70
0
 71
3
 72
9
 73
5
 74
0
 42
0.0000001
 43
0.0000001
 44
0.0000000001
 40
0.0
 40
0.0
 40
0.0
 40
0.0
 40
0.2634813676
 40
1.0
 40
1.0
 40
1.0
 40
1.0
 10
237.7130288936
 20
229.2805759778
 30
0.0
 10
237.7275517328
 20
229.2261971594
 30
0.0
 10
237.776716964
 20
229.0183552643
 30
0.0
 10
237.8023668219
 20
228.8042840734
 30
0.0
 10
237.8023668219
 20
228.6469494613
 30
0.0
  0
SPLINE
  5
3A4
100
AcDbEntity
  8
0
100
AcDbSpline
 62
7
  6
CONTINUOUS
 70
0
 71
3
 72
11
 73
7
 74
0
 42
0.0000001
 43
0.0000001
 44
0.0000000001
 40
0.0
 40
0.0
 40
0.0
 40
0.0
 40
0.2753977062
 40
0.4999948012
 40
0.7245970892
 40
1.0
 40
1.0
 40
1.0
 40
1.0
 10
49.6763174802
 20
337.2592296421
 30
0.0
 10
49.6763174802
 20
337.4573631422
 30
0.0
 10
49.7244795998
 20
337.8255953235
 30
0.0
 10
50.0742557024
 20
338.2638862218
 30
0.0
 10
50.6287255932
 20
338.3475866029
 30
0.0
 10
50.9717002115
 20
338.2051675469
 30
0.0
 10
51.1432930691
 20
338.1061006056
 30
0.0
  0
SPLINE
  5
3A5
100
AcDbEntity
  8
0
100
AcDbSpline
 62
7
  6
CONTINUOUS
 70
0
 71
3
 72
11
 73
7
 74
0
 42
0.0000001
 43
0.0000001
 44
0.0000000001
 40
0.0
 40
0.0
 40
0.0
 40
0.0
 40
0.2372404627
 40
0.5000021817
 40
0.7627618006
 40
1.0
 40
1.0
 40
1.0
 40
1.0
 10
51.1431960305
 20
200.4852435303
 30
0.0
 10
50.9349313589
 20
200.6054824743
 30
0.0
 10
50.5407934497
 20
200.9371519201
 30
0.0
 10
50.0808378965
 20
201.5657567948
 30
0.0
 10
49.7664583596
 20
202.2784052569
 30
0.0
 10
49.6763174802
 20
202.7855700652
 30
0.0
 10
49.6763174802
 20
203.0260497394
 30
0.0
  0
SPLINE
  5
3A6
100
AcDbEntity
  8
0
100
AcDbSpline
 62
7
  6
CONTINUOUS
 70
0
 71
3
 72
11
 73
7
 74
0
 42
0.0000001
 43
0.0000001
 44
0.0000000001
 40
0.0
 40
0.0
 40
0.0
 40
0.0
 40
0.2692864922
 40
0.4927618485
 40
0.7211768396
 40
1.0
 40
1.0
 40
1.0
 40
1.0
 10
237.7994730754
 20
94.3100714941
 30
0.0
 10
237.7890403167
 20
94.1257259679
 30
0.0
 10
237.7227305857
 20
93.7819238552
 30
0.0
 10
237.3625263981
 20
93.392928078
 30
0.0
 10
236.8309442682
 20
93.3337035758
 30
0.0
 10
236.5009584688
 20
93.4713104688
 30
0.0
 10
236.3353912554
 20
93.5668985816
 30
0.0
  0
SPLINE
  5
3A7
100
AcDbEntity
  8
0
100
AcDbSpline
 62
7
  6
CONTINUOUS
 70
0
 71
3
 72
9
 73
5
 74
0
 42
0.0000001
 43
0.0000001
 44
0.0000000001
 40
0.0
 40
0.0
 40
0.0
 40
0.0
 40
0.23929593
 40
1.0
 40
1.0
 40
1.0
 40
1.0
 10
212.0429510218
 20
293.2096741393
 30
0.0
 10
212.0710754561
 20
293.1934348151
 30
0.0
 10
212.1903378913
 20
293.128585938
 30
0.0
 10
212.3156496694
 20
293.0751346708
 30
0.0
 10
212.4127379389
 20
293.040031849
 30
0.0
  0
SPLINE
  5
3A8
100
AcDbEntity
  8
0
100
AcDbSpline
 62
7
  6
CONTINUOUS
 70
0
 71
3
 72
9
 73
5
 74
0
 42
0.0000001
 43
0.0000001
 44
0.0000000001
 40
0.0
 40
0.0
 40
0.0
 40
0.0
 40
0.2401254778
 40
1.0
 40
1.0
 40
1.0
 40
1.0
 10
212.4127379389
 20
293.040031849
 30
0.0
 10
212.4886797124
 20
293.0125746644
 30
0.0
 10
212.8099909182
 20
292.9124231285
 30
0.0
 10
213.1470354534
 20
292.8654074873
 30
0.0
 10
213.4024170096
 20
292.8563515945
 30
0.0
  0
SPLINE
  5
3A9
100
AcDbEntity
  8
0
100
AcDbSpline
 62
7
  6
CONTINUOUS
 70
0
 71
3
 72
9
 73
5
 74
0
 42
0.0000001
 43
0.0000001
 44
0.0000000001
 40
0.0
 40
0.0
 40
0.0
 40
0.0
 40
0.2574105459
 40
1.0
 40
1.0
 40
1.0
 40
1.0
 10
213.4024170096
 20
292.8563515945
 30
0.0
 10
213.4906841167
 20
292.8532216211
 30
0.0
 10
213.8337870716
 20
292.8538099138
 30
0.0
 10
214.1778506655
 20
292.9036239549
 30
0.0
 10
214.4227337683
 20
292.9740068177
 30
0.0
  0
SPLINE
  5
3AA
100
AcDbEntity
  8
0
100
AcDbSpline
 62
7
  6
CONTINUOUS
 70
0
 71
3
 72
9
 73
5
 74
0
 42
0.0000001
 43
0.0000001
 44
0.0000000001
 40
0.0
 40
0.0
 40
0.0
 40
0.0
 40
0.2598675452
 40
1.0
 40
1.0
 40
1.0
 40
1.0
 10
214.4227337683
 20
292.9740068177
 30
0.0
 10
214.4559396591
 20
292.9835506598
 30
0.0
 10
214.5829969662
 20
293.022688832
 30
0.0
 10
214.707170558
 20
293.0716153617
 30
0.0
 10
214.79582252
 20
293.1143232278
 30
0.0
  0
SPLINE
  5
3AB
100
AcDbEntity
  8
0
100
AcDbSpline
 62
7
  6
CONTINUOUS
 70
0
 71
3
 72
8
 73
4
 74
0
 42
0.0000001
 43
0.0000001
 44
0.0000000001
 40
0.0
 40
0.0
 40
0.0
 40
0.0
 40
1.0
 40
1.0
 40
1.0
 40
1.0
 10
70.6052893605
 20
372.9687231948
 30
0.0
 10
70.7684501535
 20
372.9602478699
 30
0.0
 10
70.9318343241
 20
372.9563757333
 30
0.0
 10
71.0951816365
 20
372.9530695205
 30
0.0
  0
SPLINE
  5
3AC
100
AcDbEntity
  8
0
100
AcDbSpline
 62
7
  6
CONTINUOUS
 70
0
 71
3
 72
11
 73
7
 74
0
 42
0.0000001
 43
0.0000001
 44
0.0000000001
 40
0.0
 40
0.0
 40
0.0
 40
0.0
 40
0.2372444228
 40
0.5000010918
 40
0.7627571666
 40
1.0
 40
1.0
 40
1.0
 40
1.0
 10
237.7283672886
 20
237.605844993
 30
0.0
 10
237.7283672886
 20
237.837687308
 30
0.0
 10
237.6413855667
 20
238.3266153568
 30
0.0
 10
237.3383077562
 20
239.0136414141
 30
0.0
 10
236.8948628213
 20
239.6196242587
 30
0.0
 10
236.5149289631
 20
239.9394129223
 30
0.0
 10
236.3141478383
 20
240.0553313363
 30
0.0
  0
SPLINE
  5
3AD
100
AcDbEntity
  8
0
100
AcDbSpline
 62
7
  6
CONTINUOUS
 70
0
 71
3
 72
11
 73
7
 74
0
 42
0.0000001
 43
0.0000001
 44
0.0000000001
 40
0.0
 40
0.0
 40
0.0
 40
0.0
 40
0.2372444228
 40
0.5000010918
 40
0.7627571666
 40
1.0
 40
1.0
 40
1.0
 40
1.0
 10
76.1537950925
 20
336.1961231122
 30
0.0
 10
76.1537950925
 20
336.4279654272
 30
0.0
 10
76.0668133706
 20
336.916893476
 30
0.0
 10
75.7637355601
 20
337.6039195333
 30
0.0
 10
75.3202906252
 20
338.2099023779
 30
0.0
 10
74.940356767
 20
338.5296910415
 30
0.0
 10
74.7395756422
 20
338.6456094555
 30
0.0
  0
SPLINE
  5
3AE
100
AcDbEntity
  8
0
100
AcDbSpline
 62
7
  6
CONTINUOUS
 70
0
 71
3
 72
8
 73
4
 74
0
 42
0.0000001
 43
0.0000001
 44
0.0000000001
 40
0.0
 40
0.0
 40
0.0
 40
0.0
 40
1.0
 40
1.0
 40
1.0
 40
1.0
 10
236.3464928169
 20
93.6938785556
 30
0.0
 10
236.3394279955
 20
93.6519869658
 30
0.0
 10
236.335360659
 20
93.6093993838
 30
0.0
 10
236.335360659
 20
93.566916246
 30
0.0
  0
SPLINE
  5
3AF
100
AcDbEntity
  8
0
100
AcDbSpline
 62
7
  6
CONTINUOUS
 70
0
 71
3
 72
9
 73
5
 74
0
 42
0.0000001
 43
0.0000001
 44
0.0000000001
 40
0.0
 40
0.0
 40
0.0
 40
0.0
 40
0.2602865124
 40
1.0
 40
1.0
 40
1.0
 40
1.0
 10
237.70486064
 20
94.3598779176
 30
0.0
 10
237.7030775459
 20
94.3350198065
 30
0.0
 10
237.6940021351
 20
94.2397068423
 30
0.0
 10
237.6757562396
 20
94.145134301
 30
0.0
 10
237.6560776331
 20
94.0770967069
 30
0.0
  0
SPLINE
  5
3B0
100
AcDbEntity
  8
0
100
AcDbSpline
 62
7
  6
CONTINUOUS
 70
0
 71
3
 72
11
 73
7
 74
0
 42
0.0000001
 43
0.0000001
 44
0.0000000001
 40
0.0
 40
0.0
 40
0.0
 40
0.0
 40
0.2469137365
 40
0.4695142869
 40
0.7112292243
 40
1.0
 40
1.0
 40
1.0
 40
1.0
 10
237.6560776331
 20
94.0770967069
 30
0.0
 10
237.6193607504
 20
93.9501503016
 30
0.0
 10
237.5055997521
 20
93.7135077628
 30
0.0
 10
237.1658987833
 20
93.4987007947
 30
0.0
 10
236.7461740692
 20
93.5031112398
 30
0.0
 10
236.4803392986
 20
93.6166040016
 30
0.0
 10
236.3464928169
 20
93.6938785556
 30
0.0
  0
SPLINE
  5
3B1
100
AcDbEntity
  8
0
100
AcDbSpline
 62
7
  6
CONTINUOUS
 70
0
 71
3
 72
8
 73
4
 74
0
 42
0.0000001
 43
0.0000001
 44
0.0000000001
 40
0.0
 40
0.0
 40
0.0
 40
0.0
 40
1.0
 40
1.0
 40
1.0
 40
1.0
 10
237.8023668219
 20
94.4139168653
 30
0.0
 10
237.7692704359
 20
94.4330246404
 30
0.0
 10
237.7375896142
 20
94.4551238401
 30
0.0
 10
237.7091127515
 20
94.4806100348
 30
0.0
  0
SPLINE
  5
3B2
100
AcDbEntity
  8
0
100
AcDbSpline
 62
7
  6
CONTINUOUS
 70
0
 71
3
 72
8
 73
4
 74
0
 42
0.0000001
 43
0.0000001
 44
0.0000000001
 40
0.0
 40
0.0
 40
0.0
 40
0.0
 40
1.0
 40
1.0
 40
1.0
 40
1.0
 10
49.7918358663
 20
202.9722460211
 30
0.0
 10
49.7520244124
 20
202.9870730308
 30
0.0
 10
49.7131089109
 20
203.0048438968
 30
0.0
 10
49.6763174802
 20
203.0260849587
 30
0.0
  0
SPLINE
  5
3B3
100
AcDbEntity
  8
0
100
AcDbSpline
 62
7
  6
CONTINUOUS
 70
0
 71
3
 72
11
 73
7
 74
0
 42
0.0000001
 43
0.0000001
 44
0.0000000001
 40
0.0
 40
0.0
 40
0.0
 40
0.0
 40
0.2371774027
 40
0.4998568415
 40
0.7626944932
 40
1.0
 40
1.0
 40
1.0
 40
1.0
 10
51.1544558008
 20
200.6121321644
 30
0.0
 10
50.9610529177
 20
200.723790845
 30
0.0
 10
50.5950539365
 20
201.0317831347
 30
0.0
 10
50.1677722984
 20
201.6155779246
 30
0.0
 10
49.8756802796
 20
202.2775794131
 30
0.0
 10
49.7918358662
 20
202.7488042508
 30
0.0
 10
49.7918358662
 20
202.9722460211
 30
0.0
  0
SPLINE
  5
3B4
100
AcDbEntity
  8
0
100
AcDbSpline
 62
7
  6
CONTINUOUS
 70
0
 71
3
 72
8
 73
4
 74
0
 42
0.0000001
 43
0.0000001
 44
0.0000000001
 40
0.0
 40
0.0
 40
0.0
 40
0.0
 40
1.0
 40
1.0
 40
1.0
 40
1.0
 10
51.143323643
 20
200.4851698548
 30
0.0
 10
51.143323643
 20
200.5276529927
 30
0.0
 10
51.1473909795
 20
200.5702405747
 30
0.0
 10
51.1544558009
 20
200.6121321645
 30
0.0
  0
SPLINE
  5
3B5
100
AcDbEntity
  8
0
100
AcDbSpline
 62
7
  6
CONTINUOUS
 70
0
 71
3
 72
8
 73
4
 74
0
 42
0.0000001
 43
0.0000001
 44
0.0000000001
 40
0.0
 40
0.0
 40
0.0
 40
0.0
 40
1.0
 40
1.0
 40
1.0
 40
1.0
 10
51.1544558009
 20
337.9919748764
 30
0.0
 10
51.1466221223
 20
338.0293799854
 30
0.0
 10
51.143323643
 20
338.0678663516
 30
0.0
 10
51.143323643
 20
338.1060829541
 30
0.0
  0
SPLINE
  5
3B6
100
AcDbEntity
  8
0
100
AcDbSpline
 62
7
  6
CONTINUOUS
 70
0
 71
3
 72
11
 73
7
 74
0
 42
0.0000001
 43
0.0000001
 44
0.0000000001
 40
0.0
 40
0.0
 40
0.0
 40
0.0
 40
0.2802598551
 40
0.5103768832
 40
0.7335160819
 40
1.0
 40
1.0
 40
1.0
 40
1.0
 10
49.7918358662
 20
337.2052433972
 30
0.0
 10
49.7918358662
 20
337.3798100649
 30
0.0
 10
49.8334158329
 20
337.703390091
 30
0.0
 10
50.1147264278
 20
338.0997678134
 30
0.0
 10
50.578765387
 20
338.2219658619
 30
0.0
 10
50.8808588335
 20
338.127385399
 30
0.0
 10
51.0310224251
 20
338.0566588502
 30
0.0
  0
SPLINE
  5
3B7
100
AcDbEntity
  8
0
100
AcDbSpline
 62
7
  6
CONTINUOUS
 70
0
 71
3
 72
8
 73
4
 74
0
 42
0.0000001
 43
0.0000001
 44
0.0000000001
 40
0.0
 40
0.0
 40
0.0
 40
0.0
 40
1.0
 40
1.0
 40
1.0
 40
1.0
 10
49.6763174802
 20
337.2590823348
 30
0.0
 10
49.7131089109
 20
337.2378412729
 30
0.0
 10
49.7520244124
 20
337.2200704069
 30
0.0
 10
49.7918358663
 20
337.2052433972
 30
0.0
  0
SPLINE
  5
3B8
100
AcDbEntity
  8
0
100
AcDbSpline
 62
7
  6
CONTINUOUS
 70
0
 71
3
 72
8
 73
4
 74
0
 42
0.0000001
 43
0.0000001
 44
0.0000000001
 40
0.0
 40
0.0
 40
0.0
 40
0.0
 40
1.0
 40
1.0
 40
1.0
 40
1.0
 10
237.7091127515
 20
228.7136074109
 30
0.0
 10
237.7375896142
 20
228.6881212162
 30
0.0
 10
237.7692704359
 20
228.6660220165
 30
0.0
 10
237.8023668219
 20
228.6469142414
 30
0.0
  0
SPLINE
  5
3B9
100
AcDbEntity
  8
0
100
AcDbSpline
 62
7
  6
CONTINUOUS
 70
0
 71
3
 72
9
 73
5
 74
0
 42
0.0000001
 43
0.0000001
 44
0.0000000001
 40
0.0
 40
0.0
 40
0.0
 40
0.0
 40
0.2365726162
 40
1.0
 40
1.0
 40
1.0
 40
1.0
 10
236.3464928168
 20
231.0737212676
 30
0.0
 10
236.384074703
 20
231.0520238463
 30
0.0
 10
236.5395470106
 20
230.9544736409
 30
0.0
 10
236.6817504638
 20
230.8365077021
 30
0.0
 10
236.7824709889
 20
230.7392129218
 30
0.0
  0
SPLINE
  5
3BA
100
AcDbEntity
  8
0
100
AcDbSpline
 62
7
  6
CONTINUOUS
 70
0
 71
3
 72
9
 73
5
 74
0
 42
0.0000001
 43
0.0000001
 44
0.0000000001
 40
0.0
 40
0.0
 40
0.0
 40
0.0
 40
0.2429947805
 40
1.0
 40
1.0
 40
1.0
 40
1.0
 10
236.7824709889
 20
230.7392129218
 30
0.0
 10
236.8311167537
 20
230.6922217153
 30
0.0
 10
237.0239331113
 20
230.4912834182
 30
0.0
 10
237.1882669305
 20
230.2635158332
 30
0.0
 10
237.2952154763
 20
230.0819691566
 30
0.0
  0
SPLINE
  5
3BB
100
AcDbEntity
  8
0
100
AcDbSpline
 62
7
  6
CONTINUOUS
 70
0
 71
3
 72
9
 73
5
 74
0
 42
0.0000001
 43
0.0000001
 44
0.0000000001
 40
0.0
 40
0.0
 40
0.0
 40
0.0
 40
0.2554554386
 40
1.0
 40
1.0
 40
1.0
 40
1.0
 10
237.2952154763
 20
230.0819691566
 30
0.0
 10
237.3338054817
 20
230.0164620739
 30
0.0
 10
237.4759421067
 20
229.7549650106
 30
0.0
 10
237.5835567905
 20
229.4740004676
 30
0.0
 10
237.6372315487
 20
229.259007811
 30
0.0
  0
SPLINE
  5
3BC
100
AcDbEntity
  8
0
100
AcDbSpline
 62
7
  6
CONTINUOUS
 70
0
 71
3
 72
9
 73
5
 74
0
 42
0.0000001
 43
0.0000001
 44
0.0000000001
 40
0.0
 40
0.0
 40
0.0
 40
0.0
 40
0.2629091607
 40
1.0
 40
1.0
 40
1.0
 40
1.0
 10
237.6372315487
 20
229.259007811
 30
0.0
 10
237.6489247306
 20
229.2121711166
 30
0.0
 10
237.688590133
 20
229.0329206501
 30
0.0
 10
237.7091127515
 20
228.8489489563
 30
0.0
 10
237.7091127515
 20
228.7136074109
 30
0.0
  0
SPLINE
  5
3BD
100
AcDbEntity
  8
0
100
AcDbSpline
 62
7
  6
CONTINUOUS
 70
0
 71
3
 72
8
 73
4
 74
0
 42
0.0000001
 43
0.0000001
 44
0.0000000001
 40
0.0
 40
0.0
 40
0.0
 40
0.0
 40
1.0
 40
1.0
 40
1.0
 40
1.0
 10
236.335360659
 20
231.1878293452
 30
0.0
 10
236.335360659
 20
231.1496127428
 30
0.0
 10
236.3386591383
 20
231.1111263766
 30
0.0
 10
236.3464928169
 20
231.0737212675
 30
0.0
  0
SPLINE
  5
3BE
100
AcDbEntity
  8
0
100
AcDbSpline
 62
7
  6
CONTINUOUS
 70
0
 71
3
 72
9
 73
5
 74
0
 42
0.0000001
 43
0.0000001
 44
0.0000000001
 40
0.0
 40
0.0
 40
0.0
 40
0.0
 40
0.5136447496
 40
1.0
 40
1.0
 40
1.0
 40
1.0
 10
79.4492839121
 20
370.0702378273
 30
0.0
 10
79.3525616681
 20
370.1220687193
 30
0.0
 10
79.1458590316
 20
370.1966284494
 30
0.0
 10
78.922009525
 20
370.1641346099
 30
0.0
 10
78.8281619818
 20
370.1195393257
 30
0.0
  0
SPLINE
  5
3BF
100
AcDbEntity
  8
0
100
AcDbSpline
 62
7
  6
CONTINUOUS
 70
0
 71
3
 72
9
 73
5
 74
0
 42
0.0000001
 43
0.0000001
 44
0.0000000001
 40
0.0
 40
0.0
 40
0.0
 40
0.0
 40
0.5000011284
 40
1.0
 40
1.0
 40
1.0
 40
1.0
 10
50.5887668432
 20
202.6754444177
 30
0.0
 10
50.5887668432
 20
202.4330951491
 30
0.0
 10
50.7543665768
 20
201.9545558764
 30
0.0
 10
51.0859957054
 20
201.5718732774
 30
0.0
 10
51.2958765683
 20
201.450701246
 30
0.0
  0
SPLINE
  5
3C0
100
AcDbEntity
  8
0
100
AcDbSpline
 62
7
  6
CONTINUOUS
 70
0
 71
3
 72
9
 73
5
 74
0
 42
0.0000001
 43
0.0000001
 44
0.0000000001
 40
0.0
 40
0.0
 40
0.0
 40
0.0
 40
0.4999988717
 40
1.0
 40
1.0
 40
1.0
 40
1.0
 10
52.3821730986
 20
202.2003549247
 30
0.0
 10
52.1722930766
 20
202.3215264706
 30
0.0
 10
51.8406843797
 20
202.704221837
 30
0.0
 10
51.6750633735
 20
203.1827497988
 30
0.0
 10
51.6750633735
 20
203.4250980963
 30
0.0
  0
SPLINE
  5
3C1
100
AcDbEntity
  8
0
100
AcDbSpline
 62
7
  6
CONTINUOUS
 70
0
 71
3
 72
9
 73
5
 74
0
 42
0.0000001
 43
0.0000001
 44
0.0000000001
 40
0.0
 40
0.0
 40
0.0
 40
0.0
 40
0.2206226777
 40
1.0
 40
1.0
 40
1.0
 40
1.0
 10
51.9069099108
 20
336.8999529288
 30
0.0
 10
51.8805864865
 20
336.8781988523
 30
0.0
 10
51.7759165222
 20
336.7610523845
 30
0.0
 10
51.7457737572
 20
336.594802324
 30
0.0
 10
51.7457737572
 20
336.4741662621
 30
0.0
  0
SPLINE
  5
3C2
100
AcDbEntity
  8
0
100
AcDbSpline
 62
7
  6
CONTINUOUS
 70
0
 71
3
 72
9
 73
5
 74
0
 42
0.0000001
 43
0.0000001
 44
0.0000000001
 40
0.0
 40
0.0
 40
0.0
 40
0.0
 40
0.5000011283
 40
1.0
 40
1.0
 40
1.0
 40
1.0
 10
51.7457737572
 20
203.4659225117
 30
0.0
 10
51.7457737572
 20
203.2235742141
 30
0.0
 10
51.9113947634
 20
202.7450462524
 30
0.0
 10
52.2430034603
 20
202.362350886
 30
0.0
 10
52.4528834823
 20
202.2411793401
 30
0.0
  0
SPLINE
  5
3C3
100
AcDbEntity
  8
0
100
AcDbSpline
 62
7
  6
CONTINUOUS
 70
0
 71
3
 72
9
 73
5
 74
0
 42
0.0000001
 43
0.0000001
 44
0.0000000001
 40
0.0
 40
0.0
 40
0.0
 40
0.0
 40
0.2858990622
 40
1.0
 40
1.0
 40
1.0
 40
1.0
 10
236.7963888281
 20
95.8128146366
 30
0.0
 10
236.8321020646
 20
95.7921960564
 30
0.0
 10
236.9604384342
 20
95.7284106857
 30
0.0
 10
237.1159431065
 20
95.7027004705
 30
0.0
 10
237.2153353059
 20
95.7297277266
 30
0.0
  0
SPLINE
  5
3C4
100
AcDbEntity
  8
0
100
AcDbSpline
 62
7
  6
CONTINUOUS
 70
0
 71
3
 72
9
 73
5
 74
0
 42
0.0000001
 43
0.0000001
 44
0.0000000001
 40
0.0
 40
0.0
 40
0.0
 40
0.0
 40
0.4893019643
 40
1.0
 40
1.0
 40
1.0
 40
1.0
 10
264.4172174461
 20
261.3410657328
 30
0.0
 10
264.417217578
 20
261.2237243859
 30
0.0
 10
264.4201445949
 20
260.9831058067
 30
0.0
 10
264.4970331678
 20
260.748289756
 30
0.0
 10
264.5596028441
 20
260.6430066658
 30
0.0
  0
SPLINE
  5
3C5
100
AcDbEntity
  8
0
100
AcDbSpline
 62
7
  6
CONTINUOUS
 70
0
 71
3
 72
9
 73
5
 74
0
 42
0.0000001
 43
0.0000001
 44
0.0000000001
 40
0.0
 40
0.0
 40
0.0
 40
0.0
 40
0.2274461478
 40
1.0
 40
1.0
 40
1.0
 40
1.0
 10
264.417177421
 20
261.3410889681
 30
0.0
 10
264.4682811222
 20
261.310581915
 30
0.0
 10
264.6803922992
 20
261.1557758582
 30
0.0
 10
264.8452668983
 20
260.9418923336
 30
0.0
 10
264.9427770302
 20
260.7648058334
 30
0.0
  0
SPLINE
  5
3C6
100
AcDbEntity
  8
0
100
AcDbSpline
 62
7
  6
CONTINUOUS
 70
0
 71
3
 72
9
 73
5
 74
0
 42
0.0000001
 43
0.0000001
 44
0.0000000001
 40
0.0
 40
0.0
 40
0.0
 40
0.0
 40
0.259662192
 40
1.0
 40
1.0
 40
1.0
 40
1.0
 10
264.9427770302
 20
260.7648058334
 30
0.0
 10
264.9633972854
 20
260.7273577369
 30
0.0
 10
265.0376774323
 20
260.5804563566
 30
0.0
 10
265.0917348265
 20
260.4226890207
 30
0.0
 10
265.1151084649
 20
260.3030644094
 30
0.0
  0
SPLINE
  5
3C7
100
AcDbEntity
  8
0
100
AcDbSpline
 62
7
  6
CONTINUOUS
 70
0
 71
3
 72
8
 73
4
 74
0
 42
0.0000001
 43
0.0000001
 44
0.0000000001
 40
0.0
 40
0.0
 40
0.0
 40
0.0
 40
1.0
 40
1.0
 40
1.0
 40
1.0
 10
265.1151084649
 20
260.3030644094
 30
0.0
 10
265.1238555074
 20
260.2582976713
 30
0.0
 10
265.1302923173
 20
260.2129811546
 30
0.0
 10
265.1337313361
 20
260.1674976989
 30
0.0
  0
SPLINE
  5
3C8
100
AcDbEntity
  8
0
100
AcDbSpline
 62
7
  6
CONTINUOUS
 70
0
 71
3
 72
9
 73
5
 74
0
 42
0.0000001
 43
0.0000001
 44
0.0000000001
 40
0.0
 40
0.0
 40
0.0
 40
0.0
 40
0.2375407918
 40
1.0
 40
1.0
 40
1.0
 40
1.0
 10
269.3292304516
 20
264.0762197764
 30
0.0
 10
269.3485588124
 20
264.0654298148
 30
0.0
 10
269.4282313331
 20
264.0169859621
 30
0.0
 10
269.5011860748
 20
263.9578766918
 30
0.0
 10
269.5527446826
 20
263.9089871145
 30
0.0
  0
SPLINE
  5
3C9
100
AcDbEntity
  8
0
100
AcDbSpline
 62
7
  6
CONTINUOUS
 70
0
 71
3
 72
9
 73
5
 74
0
 42
0.0000001
 43
0.0000001
 44
0.0000000001
 40
0.0
 40
0.0
 40
0.0
 40
0.0
 40
0.2429129081
 40
1.0
 40
1.0
 40
1.0
 40
1.0
 10
269.5527446826
 20
263.9089871145
 30
0.0
 10
269.5794976146
 20
263.8836190995
 30
0.0
 10
269.6852388981
 20
263.7746082954
 30
0.0
 10
269.7739051791
 20
263.6493708322
 30
0.0
 10
269.8303773355
 20
263.5492984939
 30
0.0
  0
SPLINE
  5
3CA
100
AcDbEntity
  8
0
100
AcDbSpline
 62
7
  6
CONTINUOUS
 70
0
 71
3
 72
9
 73
5
 74
0
 42
0.0000001
 43
0.0000001
 44
0.0000000001
 40
0.0
 40
0.0
 40
0.0
 40
0.0
 40
0.2548964651
 40
1.0
 40
1.0
 40
1.0
 40
1.0
 10
269.8303773355
 20
263.5492984939
 30
0.0
 10
269.8488640351
 20
263.5165388584
 30
0.0
 10
269.9169054826
 20
263.3855768601
 30
0.0
 10
269.9674991531
 20
263.2452457482
 30
0.0
 10
269.9921987239
 20
263.1380985846
 30
0.0
  0
SPLINE
  5
3CB
100
AcDbEntity
  8
0
100
AcDbSpline
 62
7
  6
CONTINUOUS
 70
0
 71
3
 72
9
 73
5
 74
0
 42
0.0000001
 43
0.0000001
 44
0.0000000001
 40
0.0
 40
0.0
 40
0.0
 40
0.0
 40
0.2620512937
 40
1.0
 40
1.0
 40
1.0
 40
1.0
 10
269.9921987239
 20
263.1380985846
 30
0.0
 10
269.9979953217
 20
263.1129528435
 30
0.0
 10
270.0173711128
 20
263.0164179145
 30
0.0
 10
270.0258204614
 20
262.9174281407
 30
0.0
 10
270.0236631317
 20
262.8447914927
 30
0.0
  0
SPLINE
  5
3CC
100
AcDbEntity
  8
0
100
AcDbSpline
 62
7
  6
CONTINUOUS
 70
0
 71
3
 72
10
 73
6
 74
0
 42
0.0000001
 43
0.0000001
 44
0.0000000001
 40
0.0
 40
0.0
 40
0.0
 40
0.0
 40
0.2299759626
 40
0.4833444074
 40
1.0
 40
1.0
 40
1.0
 40
1.0
 10
270.0236627417
 20
260.3134771289
 30
0.0
 10
270.0236627417
 20
259.9450743015
 30
0.0
 10
270.130166917
 20
259.1694024024
 30
0.0
 10
270.6580283129
 20
257.6523504051
 30
0.0
 10
271.3624045418
 20
256.5967810559
 30
0.0
 10
271.9455088693
 20
256.0094329006
 30
0.0
  0
SPLINE
  5
3CD
100
AcDbEntity
  8
0
100
AcDbSpline
 62
7
  6
CONTINUOUS
 70
0
 71
3
 72
9
 73
5
 74
0
 42
0.0000001
 43
0.0000001
 44
0.0000000001
 40
0.0
 40
0.0
 40
0.0
 40
0.0
 40
0.2633135596
 40
1.0
 40
1.0
 40
1.0
 40
1.0
 10
271.9455088693
 20
256.0094329006
 30
0.0
 10
272.0266412656
 20
255.9277100235
 30
0.0
 10
272.3436252803
 20
255.6265198464
 30
0.0
 10
272.696725511
 20
255.361439107
 30
0.0
 10
272.975743512
 20
255.2003516334
 30
0.0
  0
SPLINE
  5
3CE
100
AcDbEntity
  8
0
100
AcDbSpline
 62
7
  6
CONTINUOUS
 70
0
 71
3
 72
9
 73
5
 74
0
 42
0.0000001
 43
0.0000001
 44
0.0000000001
 40
0.0
 40
0.0
 40
0.0
 40
0.0
 40
0.2374020244
 40
1.0
 40
1.0
 40
1.0
 40
1.0
 10
275.1679228883
 20
253.9347254568
 30
0.0
 10
275.1885413131
 20
253.923610429
 30
0.0
 10
275.2735977996
 20
253.8734860451
 30
0.0
 10
275.3515329038
 20
253.8116987242
 30
0.0
 10
275.4065410685
 20
253.7603610116
 30
0.0
  0
SPLINE
  5
3CF
100
AcDbEntity
  8
0
100
AcDbSpline
 62
7
  6
CONTINUOUS
 70
0
 71
3
 72
9
 73
5
 74
0
 42
0.0000001
 43
0.0000001
 44
0.0000000001
 40
0.0
 40
0.0
 40
0.0
 40
0.0
 40
0.2438181946
 40
1.0
 40
1.0
 40
1.0
 40
1.0
 10
275.4065410685
 20
253.7603610116
 30
0.0
 10
275.4326025468
 20
253.7360385007
 30
0.0
 10
275.5355154264
 20
253.6320732454
 30
0.0
 10
275.6230456725
 20
253.5131363633
 30
0.0
 10
275.6794821058
 20
253.4180661854
 30
0.0
  0
SPLINE
  5
3D0
100
AcDbEntity
  8
0
100
AcDbSpline
 62
7
  6
CONTINUOUS
 70
0
 71
3
 72
9
 73
5
 74
0
 42
0.0000001
 43
0.0000001
 44
0.0000000001
 40
0.0
 40
0.0
 40
0.0
 40
0.0
 40
0.2556711219
 40
1.0
 40
1.0
 40
1.0
 40
1.0
 10
275.6794821058
 20
253.4180661854
 30
0.0
 10
275.6993022867
 20
253.3846780349
 30
0.0
 10
275.7721157221
 20
253.2513979306
 30
0.0
 10
275.826625367
 20
253.1077420135
 30
0.0
 10
275.8531922931
 20
252.9978695307
 30
0.0
  0
SPLINE
  5
3D1
100
AcDbEntity
  8
0
100
AcDbSpline
 62
7
  6
CONTINUOUS
 70
0
 71
3
 72
9
 73
5
 74
0
 42
0.0000001
 43
0.0000001
 44
0.0000000001
 40
0.0
 40
0.0
 40
0.0
 40
0.0
 40
0.262126871
 40
1.0
 40
1.0
 40
1.0
 40
1.0
 10
275.8531922931
 20
252.9978695307
 30
0.0
 10
275.8589998702
 20
252.9738512114
 30
0.0
 10
275.8785910478
 20
252.8816534445
 30
0.0
 10
275.8879332685
 20
252.7870347316
 30
0.0
 10
275.8869289153
 20
252.7174833144
 30
0.0
  0
SPLINE
  5
3D2
100
AcDbEntity
  8
0
100
AcDbSpline
 62
7
  6
CONTINUOUS
 70
0
 71
3
 72
8
 73
4
 74
0
 42
0.0000001
 43
0.0000001
 44
0.0000000001
 40
0.0
 40
0.0
 40
0.0
 40
0.0
 40
1.0
 40
1.0
 40
1.0
 40
1.0
 10
271.0624216716
 20
90.2887549766
 30
0.0
 10
270.9836363483
 20
90.1457001108
 30
0.0
 10
270.9053363961
 20
90.002322884
 30
0.0
 10
270.8311244613
 20
89.8568429522
 30
0.0
  0
SPLINE
  5
3D3
100
AcDbEntity
  8
0
100
AcDbSpline
 62
7
  6
CONTINUOUS
 70
0
 71
3
 72
8
 73
4
 74
0
 42
0.0000001
 43
0.0000001
 44
0.0000000001
 40
0.0
 40
0.0
 40
0.0
 40
0.0
 40
1.0
 40
1.0
 40
1.0
 40
1.0
 10
270.4043557094
 20
251.0385528408
 30
0.0
 10
270.4420581621
 20
251.0127390051
 30
0.0
 10
270.4780585907
 20
250.9843343959
 30
0.0
 10
270.5124138593
 20
250.9542089154
 30
0.0
  0
SPLINE
  5
3D4
100
AcDbEntity
  8
0
100
AcDbSpline
 62
7
  6
CONTINUOUS
 70
0
 71
3
 72
9
 73
5
 74
0
 42
0.0000001
 43
0.0000001
 44
0.0000000001
 40
0.0
 40
0.0
 40
0.0
 40
0.0
 40
0.2382929666
 40
1.0
 40
1.0
 40
1.0
 40
1.0
 10
270.5124138593
 20
250.9542089154
 30
0.0
 10
270.5451859336
 20
250.9254717079
 30
0.0
 10
270.6766039579
 20
250.7980197221
 30
0.0
 10
270.7856729829
 20
250.6480334186
 30
0.0
 10
270.854129687
 20
250.5266841355
 30
0.0
  0
SPLINE
  5
3D5
100
AcDbEntity
  8
0
100
AcDbSpline
 62
7
  6
CONTINUOUS
 70
0
 71
3
 72
9
 73
5
 74
0
 42
0.0000001
 43
0.0000001
 44
0.0000000001
 40
0.0
 40
0.0
 40
0.0
 40
0.0
 40
0.2675027896
 40
1.0
 40
1.0
 40
1.0
 40
1.0
 10
270.9104943937
 20
250.41806754
 30
0.0
 10
270.9338018535
 20
250.3690726246
 30
0.0
 10
271.0121915658
 20
250.1822848669
 30
0.0
 10
271.0602653299
 20
249.9798120901
 30
0.0
 10
271.0624302002
 20
249.8312591575
 30
0.0
  0
LINE
  5
3D6
100
AcDbEntity
  8
0
100
AcDbLine
 62
7
  6
CONTINUOUS
 10
81.9270593941
 20
368.3303708546
 11
212.0429510218
 21
293.2096741393
  0
LINE
  5
3D7
100
AcDbEntity
  8
0
100
AcDbLine
 62
7
  6
CONTINUOUS
 10
80.5267462981
 20
369.1388486741
 11
81.9270593941
 21
368.3303708546
  0
SPLINE
  5
3D8
100
AcDbEntity
  8
0
100
AcDbSpline
 62
7
  6
CONTINUOUS
 70
0
 71
3
 72
11
 73
7
 74
0
 42
0.0000001
 43
0.0000001
 44
0.0000000001
 40
0.0
 40
0.0
 40
0.0
 40
0.0
 40
0.3055909326
 40
0.5814784161
 40
0.8112941754
 40
1.0
 40
1.0
 40
1.0
 40
1.0
 10
75.8730400557
 20
368.6461954881
 30
0.0
 10
75.6841365006
 20
368.9544912008
 30
0.0
 10
75.2630638798
 20
369.506882971
 30
0.0
 10
74.5140511355
 20
370.1221635409
 30
0.0
 10
73.7386188386
 20
370.4450321691
 30
0.0
 10
73.213253562
 20
370.3943010501
 30
0.0
 10
73.0117612899
 20
370.2981181822
 30
0.0
  0
SPLINE
  5
3D9
100
AcDbEntity
  8
0
100
AcDbSpline
 62
7
  6
CONTINUOUS
 70
0
 71
3
 72
9
 73
5
 74
0
 42
0.0000001
 43
0.0000001
 44
0.0000000001
 40
0.0
 40
0.0
 40
0.0
 40
0.0
 40
0.2453316577
 40
1.0
 40
1.0
 40
1.0
 40
1.0
 10
38.1113616191
 20
368.3542129975
 30
0.0
 10
38.1513170725
 20
368.3649461036
 30
0.0
 10
38.31542213
 20
368.4039983355
 30
0.0
 10
38.4838852784
 20
368.4241754409
 30
0.0
 10
38.6110335444
 20
368.4296216245
 30
0.0
  0
SPLINE
  5
3DA
100
AcDbEntity
  8
0
100
AcDbSpline
 62
7
  6
CONTINUOUS
 70
0
 71
3
 72
9
 73
5
 74
0
 42
0.0000001
 43
0.0000001
 44
0.0000000001
 40
0.0
 40
0.0
 40
0.0
 40
0.0
 40
0.2256559822
 40
1.0
 40
1.0
 40
1.0
 40
1.0
 10
38.6110335444
 20
368.4296216245
 30
0.0
 10
38.769227092
 20
368.4363975809
 30
0.0
 10
39.4734764146
 20
368.3998887116
 30
0.0
 10
40.1479684123
 20
368.1254027784
 30
0.0
 10
40.6185197186
 20
367.853736001
 30
0.0
  0
LINE
  5
3DB
100
AcDbEntity
  8
0
100
AcDbLine
 62
7
  6
CONTINUOUS
 10
73.7657098315
 20
373.0422223418
 11
75.7628771658
 21
371.8892248718
  0
SPLINE
  5
3DC
100
AcDbEntity
  8
0
100
AcDbSpline
 62
7
  6
CONTINUOUS
 70
0
 71
3
 72
9
 73
5
 74
0
 42
0.0000001
 43
0.0000001
 44
0.0000000001
 40
0.0
 40
0.0
 40
0.0
 40
0.0
 40
0.2454345999
 40
1.0
 40
1.0
 40
1.0
 40
1.0
 10
250.8370195584
 20
63.2453622038
 30
0.0
 10
250.7818109023
 20
63.2223955252
 30
0.0
 10
250.5531833573
 20
63.1377971049
 30
0.0
 10
250.3113841542
 20
63.0899950678
 30
0.0
 10
250.1282963444
 20
63.0734414487
 30
0.0
  0
SPLINE
  5
3DD
100
AcDbEntity
  8
0
100
AcDbSpline
 62
7
  6
CONTINUOUS
 70
0
 71
3
 72
9
 73
5
 74
0
 42
0.0000001
 43
0.0000001
 44
0.0000000001
 40
0.0
 40
0.0
 40
0.0
 40
0.0
 40
0.2244733574
 40
1.0
 40
1.0
 40
1.0
 40
1.0
 10
250.1282963444
 20
63.0734414487
 30
0.0
 10
249.9462675351
 20
63.0569835776
 30
0.0
 10
249.1271220831
 20
63.0682450715
 30
0.0
 10
248.3373770083
 20
63.3831967007
 30
0.0
 10
247.7905209672
 20
63.6989170407
 30
0.0
  0
SPLINE
  5
3DE
100
AcDbEntity
  8
0
100
AcDbSpline
 62
7
  6
CONTINUOUS
 70
0
 71
3
 72
11
 73
7
 74
0
 42
0.0000001
 43
0.0000001
 44
0.0000000001
 40
0.0
 40
0.0
 40
0.0
 40
0.0
 40
0.2186095431
 40
0.4545805919
 40
0.7144501113
 40
1.0
 40
1.0
 40
1.0
 40
1.0
 10
37.57570968
 20
368.9452075444
 30
0.0
 10
37.405919371
 20
368.8003277007
 30
0.0
 10
37.0966091071
 20
368.4449721121
 30
0.0
 10
36.7719257299
 20
367.7846351988
 30
0.0
 10
36.5782101734
 20
367.005699935
 30
0.0
 10
36.5391950401
 20
366.4475002661
 30
0.0
 10
36.5391950401
 20
366.1559522941
 30
0.0
  0
SPLINE
  5
3DF
100
AcDbEntity
  8
0
100
AcDbSpline
 62
7
  6
CONTINUOUS
 70
0
 71
3
 72
11
 73
7
 74
0
 42
0.0000001
 43
0.0000001
 44
0.0000000001
 40
0.0
 40
0.0
 40
0.0
 40
0.0
 40
0.2184030386
 40
0.4498653021
 40
0.7084603493
 40
1.0
 40
1.0
 40
1.0
 40
1.0
 10
251.4511693538
 20
62.2577916822
 30
0.0
 10
251.7089687372
 20
62.3717908331
 30
0.0
 10
252.1998951481
 20
62.7102689857
 30
0.0
 10
252.7295484435
 20
63.475087077
 30
0.0
 10
253.0428093116
 20
64.4455685591
 30
0.0
 10
253.103631724
 20
65.1584989318
 30
0.0
 10
253.1036317239
 20
65.5347720561
 30
0.0
  0
SPLINE
  5
3E0
100
AcDbEntity
  8
0
100
AcDbSpline
 62
7
  6
CONTINUOUS
 70
0
 71
3
 72
9
 73
5
 74
0
 42
0.0000001
 43
0.0000001
 44
0.0000000001
 40
0.0
 40
0.0
 40
0.0
 40
0.0
 40
0.2724901822
 40
1.0
 40
1.0
 40
1.0
 40
1.0
 10
259.8120475806
 20
115.8196790068
 30
0.0
 10
259.7676791448
 20
115.8065426391
 30
0.0
 10
259.6026315581
 20
115.7678997202
 30
0.0
 10
259.4235610612
 20
115.7750264502
 30
0.0
 10
259.3070757926
 20
115.8161773133
 30
0.0
  0
ELLIPSE
  5
3E1
100
AcDbEntity
  8
0
100
AcDbEllipse
 62
7
  6
CONTINUOUS
 10
266.7754313669
 20
255.0294181639
 30
0.0
 11
-1.7499921354
 21
3.0310934539
 31
0.0
 40
0.5777395285
 41
-2.355854499
 42
-0.785720851
  0
ELLIPSE
  5
3E2
100
AcDbEntity
  8
0
100
AcDbEllipse
 62
7
  6
CONTINUOUS
 10
267.8733458325
 20
219.3535775994
 30
0.0
 11
0.9622478891
 21
1.7536738955
 31
0.0
 40
0.5623026523
 41
-2.1047219782
 42
-1.015157623
  0
ELLIPSE
  5
3E3
100
AcDbEntity
  8
0
100
AcDbEllipse
 62
7
  6
CONTINUOUS
 10
260.2955007985
 20
208.9392789557
 30
0.0
 11
0.9622478891
 21
1.7536738955
 31
0.0
 40
0.5623026523
 41
1.0368706754
 42
2.3439551677
  0
ELLIPSE
  5
3E4
100
AcDbEntity
  8
0
100
AcDbEllipse
 62
7
  6
CONTINUOUS
 10
260.2955007985
 20
117.5426401355
 30
0.0
 11
0.9622478891
 21
1.7536738955
 31
0.0
 40
0.5623026523
 41
-3.9392301394
 42
-3.1538194618
  0
ELLIPSE
  5
3E5
100
AcDbEntity
  8
0
100
AcDbEllipse
 62
7
  6
CONTINUOUS
 10
268.5616563732
 20
219.6658659313
 30
0.0
 11
0.4812630134
 21
0.8770903973
 31
0.0
 40
0.5623026523
 41
-1.1039762774
 42
-0.8994409435
  0
ELLIPSE
  5
3E6
100
AcDbEntity
  8
0
100
AcDbEllipse
 62
7
  6
CONTINUOUS
 10
266.7754313669
 20
85.1988101173
 30
0.0
 11
-1.7511522619
 21
3.0331027251
 31
0.0
 40
0.5769743246
 41
-3.1158637179
 42
-2.3565172006
  0
ELLIPSE
  5
3E7
100
AcDbEntity
  8
0
100
AcDbEllipse
 62
7
  6
CONTINUOUS
 10
169.5514931099
 20
303.6781970088
 30
0.0
 11
1.9998505191
 21
-0.0434862786
 31
0.0
 40
0.5622926754
 41
-3.1293660396
 42
-2.3439640142
  0
ELLIPSE
  5
3E8
100
AcDbEntity
  8
0
100
AcDbEllipse
 62
7
  6
CONTINUOUS
 10
80.4910232276
 20
355.0961200406
 30
0.0
 11
1.9998505191
 21
-0.0434862786
 31
0.0
 40
0.5622926754
 41
-3.1293660396
 42
-2.3439640142
  0
ELLIPSE
  5
3E9
100
AcDbEntity
  8
0
100
AcDbEllipse
 62
7
  6
CONTINUOUS
 10
64.5436908424
 20
371.7853266228
 30
0.0
 11
-1.7511522619
 21
3.0331027251
 31
0.0
 40
0.5769743246
 41
-0.7850581954
 42
-0.0257289347
  0
ELLIPSE
  5
3EA
100
AcDbEntity
  8
0
100
AcDbEllipse
 62
7
  6
CONTINUOUS
 10
267.8733458325
 20
116.340990901
 30
0.0
 11
0.9622478891
 21
1.7536738955
 31
0.0
 40
0.5623026523
 41
-0.7976374859
 42
-0.012226809
  0
ELLIPSE
  5
3EB
100
AcDbEntity
  8
0
100
AcDbEllipse
 62
7
  6
CONTINUOUS
 10
143.3829293319
 20
318.7862825598
 30
0.0
 11
1.9998505191
 21
-0.0434862786
 31
0.0
 40
0.5622926754
 41
-2.3439640142
 42
-1.0349670752
  0
ELLIPSE
  5
3EC
100
AcDbEntity
  8
0
100
AcDbEllipse
 62
7
  6
CONTINUOUS
 10
156.1734512407
 20
320.1518510043
 30
0.0
 11
1.9998505191
 21
-0.0434862786
 31
0.0
 40
0.5622926754
 41
0.7976286394
 42
2.1066255784
  0
ELLIPSE
  5
3ED
100
AcDbEntity
  8
0
100
AcDbEllipse
 62
7
  6
CONTINUOUS
 10
172.3172556198
 20
310.8314320564
 30
0.0
 11
1.9998505191
 21
-0.0434862786
 31
0.0
 40
0.5622926754
 41
0.0122266132
 42
0.7976286394
  0
ELLIPSE
  5
3EE
100
AcDbEntity
  8
0
100
AcDbEllipse
 62
7
  6
CONTINUOUS
 10
273.9594668888
 20
128.5675618751
 30
0.0
 11
-2.2182046139
 21
4.9781118943
 31
0.0
 40
0.5542962246
 41
-2.8486001667
 42
-2.2479029282
  0
ELLIPSE
  5
3EF
100
AcDbEntity
  8
0
100
AcDbEllipse
 62
7
  6
CONTINUOUS
 10
232.4433992142
 20
267.3683595279
 30
0.0
 11
1.9998505191
 21
-0.0434862786
 31
0.0
 40
0.5622926754
 41
-2.3439640142
 42
-1.0349670752
  0
ELLIPSE
  5
3F0
100
AcDbEntity
  8
0
100
AcDbEllipse
 62
7
  6
CONTINUOUS
 10
245.233921123
 20
268.7339279725
 30
0.0
 11
1.9998505191
 21
-0.0434862786
 31
0.0
 40
0.5622926754
 41
0.7976286394
 42
2.1066255784
  0
ELLIPSE
  5
3F1
100
AcDbEntity
  8
0
100
AcDbEllipse
 62
7
  6
CONTINUOUS
 10
83.2567857375
 20
362.2493550883
 30
0.0
 11
1.9998505191
 21
-0.0434862786
 31
0.0
 40
0.5622926754
 41
0.0122266132
 42
0.7976286394
  0
ELLIPSE
  5
3F2
100
AcDbEntity
  8
0
100
AcDbEllipse
 62
7
  6
CONTINUOUS
 10
303.1436356783
 20
287.4165106911
 30
0.0
 11
60.7754748369
 21
32.5936082891
 31
0.0
 40
0.0301934291
 41
-2.3827155969
 42
-2.2984726879
  0
ELLIPSE
  5
3F3
100
AcDbEntity
  8
0
100
AcDbEllipse
 62
7
  6
CONTINUOUS
 10
303.1436356783
 20
287.4165106911
 30
0.0
 11
60.7754748369
 21
32.5936082891
 31
0.0
 40
0.0301934291
 41
2.3749188234
 42
2.4201469828
  0
ENDSEC
  0
SECTION
  2
OBJECTS
  0
DICTIONARY
  5
C
100
AcDbDictionary
280
0
281
1
  3
ACAD_GROUP
350
D
  3
ACAD_MLINESTYLE
350
17
  3
ACAD_LAYOUT
350
1A
  3
ACAD_PLOTSETTINGS
350
19
  3
ACAD_PLOTSTYLENAME
350
E
  0
DICTIONARY
  5
D
102
{ACAD_REACTORS
330
C
102
}
100
AcDbDictionary
280
0
281
1
  0
ACDBDICTIONARYWDFLT
  5
E
102
{ACAD_REACTORS
330
C
102
}
100
AcDbDictionary
281
1
  3
Normal
350
F
100
AcDbDictionaryWithDefault
340
F
  0
DICTIONARY
  5
17
102
{ACAD_REACTORS
330
C
102
}
100
AcDbDictionary
280
0
281
1
  3
Standard
350
18
  0
DICTIONARY
  5
19
102
{ACAD_REACTORS
330
C
102
}
100
AcDbDictionary
281
1
  0
DICTIONARY
  5
1A
102
{ACAD_REACTORS
330
C
102
}
100
AcDbDictionary
281
1
  3
Model
350
3F4
  3
Layout1
350
3F5
  0
ACDBPLACEHOLDER
  5
F
102
{ACAD_REACTORS
330
E
102
}
  0
MLINESTYLE
  5
18
102
{ACAD_REACTORS
330
17
102
}
100
AcDbMlineStyle
  2
STANDARD
 70
0
  3

 62
256
 51
90.0
 52
90.0
 71
2
 49
0.5
 62
256
  6
BYLAYER
 49
-0.5
 62
256
  6
BYLAYER
  0
LAYOUT
  5
3F4
102
{ACAD_REACTORS
330
1A
102
}
100
AcDbPlotSettings
  1

  2
none_device
  4

  6

 40
0.0
 41
0.0
 42
0.0
 43
0.0
 44
210.0
 45
297.0
 46
0.0
 47
0.0
 48
0.0
 49
0.0
140
0.0
141
0.0
142
1.0
143
1.0
 70
1024
 72
1
 73
0
 74
0
  7

 75
0
147
1.0
148
0.0
149
0.0
100
AcDbLayout
  1
Model
 70
0
 71
0
 10
0.0
 20
0.0
 11
210.0
 21
297.0
 12
0.0
 22
0.0
 32
0.0
 14
0.0
 24
0.0
 34
0.0
 15
0.0
 25
0.0
 35
0.0
146
0.0
 13
0.0
 23
0.0
 33
0.0
 16
1.0
 26
0.0
 36
0.0
 17
0.0
 27
1.0
 37
0.0
 76
0
330
210
345
0
346
0
  0
LAYOUT
  5
3F5
102
{ACAD_REACTORS
330
1A
102
}
100
AcDbPlotSettings
  1

  2
none_device
  4

  6

 40
0.0
 41
0.0
 42
0.0
 43
0.0
 44
210.0
 45
297.0
 46
0.0
 47
0.0
 48
0.0
 49
0.0
140
0.0
141
0.0
142
1.0
143
1.0
 70
0
 72
1
 73
0
 74
0
  7

 75
0
147
1.0
148
0.0
149
0.0
100
AcDbLayout
  1
Layout1
 70
0
 71
1
 10
0.0
 20
0.0
 11
210.0
 21
297.0
 12
0.0
 22
0.0
 32
0.0
 14
0.0
 24
0.0
 34
0.0
 15
0.0
 25
0.0
 35
0.0
146
0.0
 13
0.0
 23
0.0
 33
0.0
 16
1.0
 26
0.0
 36
0.0
 17
0.0
 27
1.0
 37
0.0
 76
0
330
211
345
0
346
0
  0
ENDSEC
  0
EOF
