999
DXF file: C:\Users\sesa63760\Dev\_Creo\CAD\MCADID0004255_3D-CAD\drw0001_4.dxf
999
Pro/ENGINEER 2019471 by Parametric Technology Corporation
  0
SECTION
  2
HEADER
  9
$ACADVER
  1
AC1024
  9
$DWGCODEPAGE
  3
ANSI_1252
  9
$EXTMAX
 10
901.092639792
 20
1274.4024477058
 30
0.0
  9
$EXTMIN
 10
0.0
 20
0.0
 30
0.0
  9
$LIMMIN
 10
0.0
 20
0.0
  9
$LIMMAX
 10
901.092639792
 20
1274.4024477058
  9
$VIEWCTR
 10
450.546319896
 20
637.2012238529
  9
$VIEWSIZE
 40
1274.4024477058
  9
$CLAYER
  8
0
  9
$LTSCALE
 40
83.0721595542
  9
$CELTYPE
  6
BYLAYER
  9
$DIMSCALE
 40
1.0
  9
$DIMASZ
 40
10.7272933309
  9
$DIMEXO
 40
1.0
  9
$DIMDLI
 40
57.3953102374
  9
$DIMEXE
 40
1.0
  9
$DIMCEN
 40
13.5936261089
  9
$DIMLFAC
 40
1.0
  9
$DIMBLK
  1
_FILLED
  9
$DIMALT
 70
0
  9
$DIMALTF
 40
0.0393700787
  9
$DIMTXT
 40
15.0182106632
  9
$DIMTOL
 70
1
  9
$DIMLIM
 70
0
  9
$DIMTFAC
 40
1.0
  9
$DIMTP
 40
0.01
  9
$DIMTM
 40
0.01
  9
$DIMGAP
 40
0.625
  9
$DIMDSEP
 70
46
  9
$AUNITS
 70
0
  9
$PDMODE
 70
3
  9
$PDSIZE
 40
0.3125
  9
$HANDSEED
  5
3FB
  9
$TILEMODE
 70
1
  9
$MEASUREMENT
 70
1
  9
$INSUNITS
 70
4
  0
ENDSEC
  0
SECTION
  2
CLASSES
  0
CLASS
  1
ACDBDICTIONARYWDFLT
  2
AcDbDictionaryWithDefault
  3
AutoCAD 2000
 90
0
 91
1
280
0
281
0
  0
CLASS
  1
ACDBPLACEHOLDER
  2
AcDbPlaceHolder
  3
AutoCAD 2000
 90
0
 91
1
280
0
281
0
  0
CLASS
  1
LAYOUT
  2
AcDbLayout
  3
AutoCAD 2000
 90
0
 91
0
280
0
281
0
  0
ENDSEC
  0
SECTION
  2
TABLES
  0
TABLE
  2
VPORT
  5
8
100
AcDbSymbolTable
 70
2
  0
VPORT
  5
1F4
100
AcDbSymbolTableRecord
100
AcDbViewportTableRecord
  2
*ACTIVE
 70
0
 10
0.0
 20
0.0
 11
1.0
 21
1.0
 12
450.546319896
 22
637.2012238529
 13
0.0
 23
0.0
 14
1.0
 24
1.0
 15
0.0
 25
0.0
 16
0.0
 26
0.0
 36
1.0
 17
0.0
 27
0.0
 37
0.0
 40
1274.4024477058
 41
0.7070707071
 42
50.0
 43
0.0
 44
0.0
 50
0.0
 51
0.0
 71
0
 72
100
 73
1
 74
1
 75
0
 76
0
 77
0
 78
0
  0
ENDTAB
  0
TABLE
  2
LTYPE
  5
5
100
AcDbSymbolTable
 70
6
  0
LTYPE
  5
14
100
AcDbSymbolTableRecord
100
AcDbLinetypeTableRecord
  2
BYBLOCK
 70
0
  3

 72
65
 73
0
 40
0.0
  0
LTYPE
  5
15
100
AcDbSymbolTableRecord
100
AcDbLinetypeTableRecord
  2
BYLAYER
 70
0
  3

 72
65
 73
0
 40
0.0
  0
LTYPE
  5
16
100
AcDbSymbolTableRecord
100
AcDbLinetypeTableRecord
  2
CONTINUOUS
 70
64
  3
Solid line
 72
65
 73
0
 40
0.0
  0
LTYPE
  5
1F5
100
AcDbSymbolTableRecord
100
AcDbLinetypeTableRecord
  2
CENTER
 70
64
  3
____ _ ____ _ ____ _ ____ _ ____ _ ____ _ ____
 72
65
 73
4
 40
0.6
 49
0.375
 74
0
 49
-0.075
 74
0
 49
0.075
 74
0
 49
-0.075
 74
0
  0
LTYPE
  5
1F6
100
AcDbSymbolTableRecord
100
AcDbLinetypeTableRecord
  2
HIDDEN
 70
64
  3
- - - - - - - - - - - - - - - - - - - -
 72
65
 73
2
 40
0.2
 49
0.1
 74
0
 49
-0.1
 74
0
  0
LTYPE
  5
1F7
100
AcDbSymbolTableRecord
100
AcDbLinetypeTableRecord
  2
PHANTOM
 70
64
  3
_____ _ _ _____ _ _ _____ _ _ _____
 72
65
 73
6
 40
0.8
 49
0.45
 74
0
 49
-0.05
 74
0
 49
0.1
 74
0
 49
-0.05
 74
0
 49
0.1
 74
0
 49
-0.05
 74
0
  0
LTYPE
  5
1F8
100
AcDbSymbolTableRecord
100
AcDbLinetypeTableRecord
  2
DOT
 70
64
  3
. . . . . . . . . . . . . . . . . . . .
 72
65
 73
2
 40
0.2
 49
0.1
 74
0
 49
-0.1
 74
0
  0
LTYPE
  5
1F9
100
AcDbSymbolTableRecord
100
AcDbLinetypeTableRecord
  2
DASHED
 70
64
  3
- - - - - - - - - - - - - - - - - - - -
 72
65
 73
2
 40
0.2
 49
0.1
 74
0
 49
-0.1
 74
0
  0
ENDTAB
  0
TABLE
  2
LAYER
  5
2
100
AcDbSymbolTable
 70
36
  0
LAYER
  5
10
100
AcDbSymbolTableRecord
100
AcDbLayerTableRecord
  2
0
 70
0
 62
7
  6
CONTINUOUS
370
-3
390
F
  0
LAYER
  5
1FA
100
AcDbSymbolTableRecord
100
AcDbLayerTableRecord
  2
DEFAULT_1
 70
0
 62
7
  6
CENTER
370
-3
390
F
  0
LAYER
  5
1FB
100
AcDbSymbolTableRecord
100
AcDbLayerTableRecord
  2
DEFAULT_2
 70
0
 62
7
  6
HIDDEN
370
-3
390
F
  0
LAYER
  5
1FC
100
AcDbSymbolTableRecord
100
AcDbLayerTableRecord
  2
DEFAULT_3
 70
0
 62
7
  6
PHANTOM
370
-3
390
F
  0
LAYER
  5
1FD
100
AcDbSymbolTableRecord
100
AcDbLayerTableRecord
  2
00_COMPONENTS
 70
0
 62
7
  6
CONTINUOUS
370
-3
390
F
  0
LAYER
  5
1FE
100
AcDbSymbolTableRecord
100
AcDbLayerTableRecord
  2
01_1_DEFAULT_DATUMS
 70
0
 62
7
  6
CONTINUOUS
370
-3
390
F
  0
LAYER
  5
1FF
100
AcDbSymbolTableRecord
100
AcDbLayerTableRecord
  2
01_PLANES
 70
0
 62
7
  6
CONTINUOUS
370
-3
390
F
  0
LAYER
  5
200
100
AcDbSymbolTableRecord
100
AcDbLayerTableRecord
  2
02_COORD_SYS
 70
0
 62
7
  6
CONTINUOUS
370
-3
390
F
  0
LAYER
  5
201
100
AcDbSymbolTableRecord
100
AcDbLayerTableRecord
  2
03_AXES
 70
0
 62
7
  6
CONTINUOUS
370
-3
390
F
  0
LAYER
  5
202
100
AcDbSymbolTableRecord
100
AcDbLayerTableRecord
  2
04_POINTS
 70
0
 62
7
  6
CONTINUOUS
370
-3
390
F
  0
LAYER
  5
203
100
AcDbSymbolTableRecord
100
AcDbLayerTableRecord
  2
05_CURVES
 70
0
 62
7
  6
CONTINUOUS
370
-3
390
F
  0
LAYER
  5
204
100
AcDbSymbolTableRecord
100
AcDbLayerTableRecord
  2
06_SURFS
 70
0
 62
7
  6
CONTINUOUS
370
-3
390
F
  0
LAYER
  5
205
100
AcDbSymbolTableRecord
100
AcDbLayerTableRecord
  2
07_COSMETICS
 70
0
 62
7
  6
CONTINUOUS
370
-3
390
F
  0
LAYER
  5
206
100
AcDbSymbolTableRecord
100
AcDbLayerTableRecord
  2
10_NOTES
 70
0
 62
7
  6
CONTINUOUS
370
-3
390
F
  0
LAYER
  5
207
100
AcDbSymbolTableRecord
100
AcDbLayerTableRecord
  2
11_NOTES_PUB
 70
0
 62
7
  6
CONTINUOUS
370
-3
390
F
  0
LAYER
  5
208
100
AcDbSymbolTableRecord
100
AcDbLayerTableRecord
  2
13_REF_GTOL
 70
0
 62
7
  6
CONTINUOUS
370
-3
390
F
  0
LAYER
  5
209
100
AcDbSymbolTableRecord
100
AcDbLayerTableRecord
  2
16_MISC
 70
0
 62
7
  6
CONTINUOUS
370
-3
390
F
  0
LAYER
  5
20A
100
AcDbSymbolTableRecord
100
AcDbLayerTableRecord
  2
17_NO_PRINT
 70
0
 62
7
  6
CONTINUOUS
370
-3
390
F
  0
LAYER
  5
20B
100
AcDbSymbolTableRecord
100
AcDbLayerTableRecord
  2
18_DATUM_CAMS_JOINTS
 70
0
 62
7
  6
CONTINUOUS
370
-3
390
F
  0
LAYER
  5
20C
100
AcDbSymbolTableRecord
100
AcDbLayerTableRecord
  2
19_DATUM_FUNCTIONAL
 70
0
 62
7
  6
CONTINUOUS
370
-3
390
F
  0
LAYER
  5
20D
100
AcDbSymbolTableRecord
100
AcDbLayerTableRecord
  2
20_DATUM_KINEMATIC_SCHEME
 70
0
 62
7
  6
CONTINUOUS
370
-3
390
F
  0
LAYER
  5
20E
100
AcDbSymbolTableRecord
100
AcDbLayerTableRecord
  2
3
 70
0
 62
7
  6
CONTINUOUS
370
-3
390
F
  0
LAYER
  5
20F
100
AcDbSymbolTableRecord
100
AcDbLayerTableRecord
  2
4
 70
0
 62
7
  6
CONTINUOUS
370
-3
390
F
  0
ENDTAB
  0
TABLE
  2
STYLE
  5
3
100
AcDbSymbolTable
 70
1
  0
STYLE
  5
11
100
AcDbSymbolTableRecord
100
AcDbTextStyleTableRecord
  2
STANDARD
 70
0
 40
0.0
 41
1.0
 50
0.0
 71
0
 42
0.2
  3
ARIAL.TTF
  4

  0
STYLE
  5
210
100
AcDbSymbolTableRecord
100
AcDbTextStyleTableRecord
  2
TEXTSTYLE_1
 70
0
 40
0.0
 41
0.8
 50
0.0
 71
0
 42
0.2
  3
gdt
  4

  0
ENDTAB
  0
TABLE
  2
VIEW
  5
6
100
AcDbSymbolTable
 70
0
  0
ENDTAB
  0
TABLE
  2
UCS
  5
7
100
AcDbSymbolTable
 70
0
  0
ENDTAB
  0
TABLE
  2
APPID
  5
9
100
AcDbSymbolTable
 70
1
  0
APPID
  5
211
100
AcDbSymbolTableRecord
100
AcDbRegAppTableRecord
  2
ACAD
 70
0
  0
ENDTAB
  0
TABLE
  2
BLOCK_RECORD
  5
1
100
AcDbSymbolTable
 70
0
  0
BLOCK_RECORD
  5
212
100
AcDbSymbolTableRecord
100
AcDbBlockTableRecord
  2
*Model_Space
  0
BLOCK_RECORD
  5
213
100
AcDbSymbolTableRecord
100
AcDbBlockTableRecord
  2
*Paper_Space
  0
BLOCK_RECORD
  5
214
100
AcDbSymbolTableRecord
100
AcDbBlockTableRecord
  2
_FILLED
  0
ENDTAB
  0
TABLE
  2
DIMSTYLE
  5
A
100
AcDbSymbolTable
 70
1
100
AcDbDimStyleTable
 71
0
  0
DIMSTYLE
105
215
100
AcDbSymbolTableRecord
100
AcDbDimStyleTableRecord
  2
STANDARD
 70
0
  3

  4

 40
1.0
 41
10.7272933309
 42
1.0
 43
0.38
 44
1.0
 45
0.0
 46
0.0
 47
0.01
 48
0.01
140
15.0182106632
141
0.09
142
0.0
143
25.4
144
1.0
145
0.0
146
1.0
147
0.625
 71
1
 72
0
 73
0
 74
0
 75
0
 76
0
 77
1
 78
8
 79
2
170
0
171
1
172
0
173
0
174
0
175
0
176
0
177
0
178
0
270
2
179
2
271
2
272
2
273
2
274
2
275
0
280
0
281
0
282
0
283
1
284
8
285
0
286
0
287
3
288
0
340
11
278
46
341
214
342
214
343
214
344
214
  0
ENDTAB
  0
ENDSEC
  0
SECTION
  2
BLOCKS
  0
BLOCK
  5
20
100
AcDbEntity
  8
0
100
AcDbBlockBegin
  2
*Model_Space
 70
0
 10
0.0
 20
0.0
 30
0.0
  3
*Model_Space
  1

  0
ENDBLK
  5
21
100
AcDbEntity
  8
0
100
AcDbBlockEnd
  0
BLOCK
  5
1C
100
AcDbEntity
  8
0
100
AcDbBlockBegin
  2
*Paper_Space
 70
0
 10
0.0
 20
0.0
 30
0.0
  3
*Paper_Space
  1

  0
ENDBLK
  5
1D
100
AcDbEntity
  8
0
100
AcDbBlockEnd
  0
BLOCK
  5
216
100
AcDbEntity
  8
0
100
AcDbBlockBegin
  2
_FILLED
 70
64
 10
0.0
 20
0.0
  3
_FILLED
  1

  0
SOLID
  5
217
100
AcDbEntity
  8
0
  6
BYBLOCK
 62
0
100
AcDbTrace
 10
0.0
 20
0.0
 11
-1.0
 21
0.25
 12
-1.0
 22
-0.25
 13
-1.0
 23
-0.25
  0
ENDBLK
  5
218
100
AcDbEntity
  8
0
  6
BYBLOCK
 62
0
100
AcDbBlockEnd
  0
ENDSEC
  0
SECTION
  2
ENTITIES
  0
LINE
  5
219
100
AcDbEntity
  8
0
100
AcDbLine
 62
7
  6
BYLAYER
 10
554.7755694894
 20
91.2515828529
 11
549.1751961221
 21
91.2515828529
  0
LINE
  5
21A
100
AcDbEntity
  8
0
100
AcDbLine
 62
7
  6
BYLAYER
 10
512.7750944523
 20
91.2515828529
 11
507.1756711651
 21
91.2515828529
  0
LINE
  5
21B
100
AcDbEntity
  8
0
100
AcDbLine
 62
7
  6
BYLAYER
 10
407.1264386009
 20
91.2515828529
 11
401.5260652336
 21
91.2515828529
  0
LINE
  5
21C
100
AcDbEntity
  8
0
100
AcDbLine
 62
7
  6
BYLAYER
 10
365.1259635638
 20
91.2515828529
 11
359.5265402766
 21
91.2515828529
  0
LINE
  5
21D
100
AcDbEntity
  8
0
100
AcDbLine
 62
7
  6
BYLAYER
 10
359.8147877065
 20
91.3514727144
 11
406.8373409935
 21
91.3514727144
  0
LINE
  5
21E
100
AcDbEntity
  8
0
100
AcDbLine
 62
7
  6
BYLAYER
 10
507.463918595
 20
91.3514727144
 11
554.486471882
 21
91.3514727144
  0
LINE
  5
21F
100
AcDbEntity
  8
0
100
AcDbLine
 62
7
  6
BYLAYER
 10
555.7756709154
 20
92.2515828529
 11
555.4541444715
 21
92.2515828529
  0
LINE
  5
220
100
AcDbEntity
  8
0
100
AcDbLine
 62
7
  6
BYLAYER
 10
506.4962475091
 20
92.2515828529
 11
506.1756709185
 21
92.2515828529
  0
LINE
  5
221
100
AcDbEntity
  8
0
100
AcDbLine
 62
7
  6
BYLAYER
 10
408.1265400269
 20
92.2515828529
 11
407.805013583
 21
92.2515828529
  0
LINE
  5
222
100
AcDbEntity
  8
0
100
AcDbLine
 62
7
  6
BYLAYER
 10
358.8471166206
 20
92.2515828529
 11
358.52654003
 21
92.2515828529
  0
LINE
  5
223
100
AcDbEntity
  8
0
100
AcDbLine
 62
7
  6
BYLAYER
 10
555.9751958755
 20
92.3514727144
 11
555.7756709154
 21
92.3514727144
  0
LINE
  5
224
100
AcDbEntity
  8
0
100
AcDbLine
 62
7
  6
BYLAYER
 10
555.4866008992
 20
92.3514727144
 11
506.4637908517
 21
92.3514727144
  0
LINE
  5
225
100
AcDbEntity
  8
0
100
AcDbLine
 62
7
  6
BYLAYER
 10
506.1756709185
 20
92.3514727144
 11
505.9751958755
 21
92.3514727144
  0
LINE
  5
226
100
AcDbEntity
  8
0
100
AcDbLine
 62
7
  6
BYLAYER
 10
408.326064987
 20
92.3514727144
 11
408.1265400269
 21
92.3514727144
  0
LINE
  5
227
100
AcDbEntity
  8
0
100
AcDbLine
 62
7
  6
BYLAYER
 10
407.8374700107
 20
92.3514727144
 11
358.8146599632
 21
92.3514727144
  0
LINE
  5
228
100
AcDbEntity
  8
0
100
AcDbLine
 62
7
  6
BYLAYER
 10
358.52654003
 20
92.3514727144
 11
358.326064987
 21
92.3514727144
  0
LINE
  5
229
100
AcDbEntity
  8
0
100
AcDbLine
 62
7
  6
BYLAYER
 10
358.326064987
 20
93.3514726455
 11
358.52654003
 21
93.3514726455
  0
LINE
  5
22A
100
AcDbEntity
  8
0
100
AcDbLine
 62
7
  6
BYLAYER
 10
408.1265400269
 20
93.3514726572
 11
408.326064987
 21
93.3514726572
  0
LINE
  5
22B
100
AcDbEntity
  8
0
100
AcDbLine
 62
7
  6
BYLAYER
 10
505.9751958755
 20
93.3514726455
 11
506.1756709185
 21
93.3514726455
  0
LINE
  5
22C
100
AcDbEntity
  8
0
100
AcDbLine
 62
7
  6
BYLAYER
 10
555.7756709154
 20
93.3514726572
 11
555.9751958755
 21
93.3514726572
  0
LINE
  5
22D
100
AcDbEntity
  8
0
100
AcDbLine
 62
7
  6
BYLAYER
 10
358.52654003
 20
93.8515828529
 11
358.8146599632
 21
93.8515828529
  0
LINE
  5
22E
100
AcDbEntity
  8
0
100
AcDbLine
 62
7
  6
BYLAYER
 10
407.8374700107
 20
93.8515828529
 11
408.1265400269
 21
93.8515828529
  0
LINE
  5
22F
100
AcDbEntity
  8
0
100
AcDbLine
 62
7
  6
BYLAYER
 10
506.1756709185
 20
93.8515828529
 11
506.4637908517
 21
93.8515828529
  0
LINE
  5
230
100
AcDbEntity
  8
0
100
AcDbLine
 62
7
  6
BYLAYER
 10
555.4866008992
 20
93.8515828529
 11
555.7756709154
 21
93.8515828529
  0
LINE
  5
231
100
AcDbEntity
  8
0
100
AcDbLine
 62
7
  6
BYLAYER
 10
555.9751958755
 20
94.3514727144
 11
555.4288868207
 21
94.3514727144
  0
LINE
  5
232
100
AcDbEntity
  8
0
100
AcDbLine
 62
7
  6
BYLAYER
 10
506.5215049303
 20
94.3514727144
 11
505.9751958755
 21
94.3514727144
  0
LINE
  5
233
100
AcDbEntity
  8
0
100
AcDbLine
 62
7
  6
BYLAYER
 10
408.326064987
 20
94.3514727144
 11
407.7797559321
 21
94.3514727144
  0
LINE
  5
234
100
AcDbEntity
  8
0
100
AcDbLine
 62
7
  6
BYLAYER
 10
358.8723740418
 20
94.3514727144
 11
358.326064987
 21
94.3514727144
  0
LINE
  5
235
100
AcDbEntity
  8
0
100
AcDbLine
 62
7
  6
BYLAYER
 10
358.326064987
 20
108.8514727144
 11
402.326064987
 21
108.8514727144
  0
LINE
  5
236
100
AcDbEntity
  8
0
100
AcDbLine
 62
7
  6
BYLAYER
 10
402.3788513915
 20
108.8514727144
 11
408.326064987
 21
108.8514727144
  0
LINE
  5
237
100
AcDbEntity
  8
0
100
AcDbLine
 62
7
  6
BYLAYER
 10
505.9751958755
 20
108.8514727144
 11
549.9751958755
 21
108.8514727144
  0
LINE
  5
238
100
AcDbEntity
  8
0
100
AcDbLine
 62
7
  6
BYLAYER
 10
550.02798228
 20
108.8514727144
 11
555.9751958755
 21
108.8514727144
  0
LINE
  5
239
100
AcDbEntity
  8
3
100
AcDbLine
 62
7
  6
BYLAYER
 10
358.32654003
 20
108.8515956614
 11
364.327520609
 21
108.8515956614
  0
LINE
  5
23A
100
AcDbEntity
  8
3
100
AcDbLine
 62
7
  6
BYLAYER
 10
364.5259008813
 20
108.8516121204
 11
402.1259008813
 21
108.8516121204
  0
LINE
  5
23B
100
AcDbEntity
  8
3
100
AcDbLine
 62
7
  6
BYLAYER
 10
402.3255594509
 20
108.8515956614
 11
408.32654003
 21
108.8515956614
  0
LINE
  5
23C
100
AcDbEntity
  8
4
100
AcDbLine
 62
7
  6
BYLAYER
 10
505.9756709185
 20
108.8515956614
 11
511.9766514975
 21
108.8515956614
  0
LINE
  5
23D
100
AcDbEntity
  8
4
100
AcDbLine
 62
7
  6
BYLAYER
 10
512.1750317698
 20
108.8516121204
 11
549.7750317698
 21
108.8516121204
  0
LINE
  5
23E
100
AcDbEntity
  8
4
100
AcDbLine
 62
7
  6
BYLAYER
 10
549.9746903394
 20
108.8515956614
 11
555.9756709185
 21
108.8515956614
  0
LINE
  5
23F
100
AcDbEntity
  8
4
100
AcDbLine
 62
7
  6
BYLAYER
 10
566.164416602
 20
136.1997579761
 11
555.9756709185
 21
136.1997579761
  0
LINE
  5
240
100
AcDbEntity
  8
3
100
AcDbLine
 62
7
  6
BYLAYER
 10
418.5152857135
 20
136.1997579761
 11
408.32654003
 21
136.1997579761
  0
LINE
  5
241
100
AcDbEntity
  8
0
100
AcDbLine
 62
7
  6
BYLAYER
 10
367.076792798
 20
1171.3515828529
 11
366.576792798
 21
1170.8515828529
  0
LINE
  5
242
100
AcDbEntity
  8
0
100
AcDbLine
 62
7
  6
BYLAYER
 10
386.8267908194
 20
1175.3515828529
 11
386.326792798
 21
1174.8515850114
  0
LINE
  5
243
100
AcDbEntity
  8
3
100
AcDbLine
 62
7
  6
BYLAYER
 10
408.32654003
 20
186.1997579761
 11
418.5152857135
 21
186.1997579761
  0
LINE
  5
244
100
AcDbEntity
  8
4
100
AcDbLine
 62
7
  6
BYLAYER
 10
555.9756709185
 20
186.1997579761
 11
566.164416602
 21
186.1997579761
  0
LINE
  5
245
100
AcDbEntity
  8
0
100
AcDbLine
 62
7
  6
BYLAYER
 10
385.076792798
 20
1171.3515828529
 11
384.576792798
 21
1170.8515828529
  0
LINE
  5
246
100
AcDbEntity
  8
0
100
AcDbLine
 62
7
  6
BYLAYER
 10
385.076792798
 20
1166.3515828529
 11
384.576792798
 21
1165.8515828529
  0
LINE
  5
247
100
AcDbEntity
  8
0
100
AcDbLine
 62
7
  6
BYLAYER
 10
399.876792798
 20
1164.8515828529
 11
400.076792798
 21
1165.0515828529
  0
LINE
  5
248
100
AcDbEntity
  8
0
100
AcDbLine
 62
7
  6
BYLAYER
 10
514.7259236865
 20
1171.3515828529
 11
514.2259236865
 21
1170.8515828529
  0
LINE
  5
249
100
AcDbEntity
  8
0
100
AcDbLine
 62
7
  6
BYLAYER
 10
534.4759217079
 20
1175.3515828529
 11
533.9759236865
 21
1174.8515850114
  0
LINE
  5
24A
100
AcDbEntity
  8
0
100
AcDbLine
 62
7
  6
BYLAYER
 10
532.7259236865
 20
1171.3515828529
 11
532.2259236865
 21
1170.8515828529
  0
LINE
  5
24B
100
AcDbEntity
  8
0
100
AcDbLine
 62
7
  6
BYLAYER
 10
532.7259236865
 20
1166.3515828529
 11
532.2259236865
 21
1165.8515828529
  0
LINE
  5
24C
100
AcDbEntity
  8
0
100
AcDbLine
 62
7
  6
BYLAYER
 10
547.5259236865
 20
1164.8515828529
 11
547.7259236865
 21
1165.0515828529
  0
LINE
  5
24D
100
AcDbEntity
  8
0
100
AcDbLine
 62
7
  6
BYLAYER
 10
358.326064987
 20
92.3514727144
 11
358.326064987
 21
108.8514727144
  0
LINE
  5
24E
100
AcDbEntity
  8
3
100
AcDbLine
 62
7
  6
BYLAYER
 10
358.32654003
 20
1147.3515956614
 11
358.32654003
 21
108.8515956614
  0
LINE
  5
24F
100
AcDbEntity
  8
0
100
AcDbLine
 62
7
  6
BYLAYER
 10
358.326792798
 20
1163.8515828529
 11
358.326792798
 21
1147.3515828529
  0
LINE
  5
250
100
AcDbEntity
  8
0
100
AcDbLine
 62
7
  6
BYLAYER
 10
358.52654003
 20
93.8515828529
 11
358.52654003
 21
92.2515828529
  0
LINE
  5
251
100
AcDbEntity
  8
0
100
AcDbLine
 62
7
  6
BYLAYER
 10
358.526792798
 20
1163.9515828529
 11
358.526792798
 21
1162.3515828529
  0
LINE
  5
252
100
AcDbEntity
  8
0
100
AcDbLine
 62
7
  6
BYLAYER
 10
358.7108255106
 20
94.3514727144
 11
358.7108255106
 21
108.8514727144
  0
LINE
  5
253
100
AcDbEntity
  8
3
100
AcDbLine
 62
7
  6
BYLAYER
 10
358.7113005536
 20
108.8515956614
 11
358.7113005536
 21
1147.3515956614
  0
LINE
  5
254
100
AcDbEntity
  8
0
100
AcDbLine
 62
7
  6
BYLAYER
 10
358.7115533216
 20
1147.3515828529
 11
358.7115533216
 21
1161.8515828529
  0
LINE
  5
255
100
AcDbEntity
  8
0
100
AcDbLine
 62
7
  6
BYLAYER
 10
358.8146599632
 20
93.966783698
 11
358.8146599632
 21
92.3514727144
  0
LINE
  5
256
100
AcDbEntity
  8
0
100
AcDbLine
 62
7
  6
BYLAYER
 10
358.8153877743
 20
1163.8515828529
 11
358.8153877743
 21
1162.2362718523
  0
LINE
  5
257
100
AcDbEntity
  8
0
100
AcDbLine
 62
7
  6
BYLAYER
 10
358.8723740418
 20
92.3514727144
 11
358.8723740418
 21
94.3514727144
  0
LINE
  5
258
100
AcDbEntity
  8
0
100
AcDbLine
 62
7
  6
BYLAYER
 10
358.8731018528
 20
1161.8515828529
 11
358.8731018528
 21
1163.8515828529
  0
LINE
  5
259
100
AcDbEntity
  8
0
100
AcDbLine
 62
7
  6
BYLAYER
 10
359.9116199172
 20
108.8514727144
 11
359.9116199172
 21
92.3514727144
  0
LINE
  5
25A
100
AcDbEntity
  8
3
100
AcDbLine
 62
7
  6
BYLAYER
 10
359.9120949602
 20
1147.3515956614
 11
359.9120949602
 21
108.8515956614
  0
LINE
  5
25B
100
AcDbEntity
  8
0
100
AcDbLine
 62
7
  6
BYLAYER
 10
359.9123477282
 20
1163.8515828529
 11
359.9123477282
 21
1147.3515828529
  0
LINE
  5
25C
100
AcDbEntity
  8
0
100
AcDbLine
 62
7
  6
BYLAYER
 10
361.8346678125
 20
91.3514727144
 11
361.8346678125
 21
108.8514727144
  0
LINE
  5
25D
100
AcDbEntity
  8
3
100
AcDbLine
 62
7
  6
BYLAYER
 10
361.8351428555
 20
108.8515956614
 11
361.8351428555
 21
1147.3515956614
  0
LINE
  5
25E
100
AcDbEntity
  8
0
100
AcDbLine
 62
7
  6
BYLAYER
 10
361.8353956235
 20
1147.3515828529
 11
361.8353956235
 21
1164.8515828529
  0
LINE
  5
25F
100
AcDbEntity
  8
0
100
AcDbLine
 62
7
  6
BYLAYER
 10
362.0899970095
 20
108.8514727144
 11
362.0899970095
 21
91.3514727144
  0
LINE
  5
260
100
AcDbEntity
  8
0
100
AcDbLine
 62
7
  6
BYLAYER
 10
362.0907248205
 20
1164.8515828529
 11
362.0907248205
 21
1147.3515828529
  0
LINE
  5
261
100
AcDbEntity
  8
3
100
AcDbLine
 62
7
  6
BYLAYER
 10
362.0914526315
 20
1147.3515956614
 11
362.0914526315
 21
108.8515956614
  0
LINE
  5
262
100
AcDbEntity
  8
0
100
AcDbLine
 62
7
  6
BYLAYER
 10
363.8788513915
 20
92.3514727144
 11
363.8788513915
 21
108.8514727144
  0
LINE
  5
263
100
AcDbEntity
  8
0
100
AcDbLine
 62
7
  6
BYLAYER
 10
363.8795792025
 20
1147.3515828529
 11
363.8795792025
 21
1163.8515828529
  0
LINE
  5
264
100
AcDbEntity
  8
3
100
AcDbLine
 62
7
  6
BYLAYER
 10
363.8803070135
 20
108.8515956614
 11
363.8803070135
 21
1147.3515956614
  0
LINE
  5
265
100
AcDbEntity
  8
0
100
AcDbLine
 62
7
  6
BYLAYER
 10
364.2732785825
 20
108.8514727144
 11
364.2732785825
 21
92.3514727144
  0
LINE
  5
266
100
AcDbEntity
  8
0
100
AcDbLine
 62
7
  6
BYLAYER
 10
364.2740063935
 20
1163.8515828529
 11
364.2740063935
 21
1147.3515828529
  0
LINE
  5
267
100
AcDbEntity
  8
3
100
AcDbLine
 62
7
  6
BYLAYER
 10
364.2747342045
 20
1147.3515956614
 11
364.2747342045
 21
108.8515956614
  0
LINE
  5
268
100
AcDbEntity
  8
0
100
AcDbLine
 62
7
  6
BYLAYER
 10
364.326064987
 20
92.3514727144
 11
364.326064987
 21
108.8514727144
  0
LINE
  5
269
100
AcDbEntity
  8
0
100
AcDbLine
 62
7
  6
BYLAYER
 10
364.326792798
 20
1147.3515828529
 11
364.326792798
 21
1163.8515828529
  0
LINE
  5
26A
100
AcDbEntity
  8
3
100
AcDbLine
 62
7
  6
BYLAYER
 10
364.327520609
 20
108.8515956614
 11
364.327520609
 21
1147.3515956614
  0
LINE
  5
26B
100
AcDbEntity
  8
3
100
AcDbLine
 62
7
  6
BYLAYER
 10
364.5259008813
 20
108.8516121204
 11
364.5259008813
 21
1147.3516121204
  0
LINE
  5
26C
100
AcDbEntity
  8
0
100
AcDbLine
 62
7
  6
BYLAYER
 10
366.576792798
 20
1164.8515828529
 11
366.576792798
 21
1170.8515828529
  0
LINE
  5
26D
100
AcDbEntity
  8
0
100
AcDbLine
 62
7
  6
BYLAYER
 10
370.200032798
 20
1172.5515828529
 11
370.200032798
 21
1171.3515828529
  0
LINE
  5
26E
100
AcDbEntity
  8
0
100
AcDbLine
 62
7
  6
BYLAYER
 10
373.625032798
 20
1171.3515828529
 11
373.625032798
 21
1172.8515828529
  0
LINE
  5
26F
100
AcDbEntity
  8
0
100
AcDbLine
 62
7
  6
BYLAYER
 10
375.025032798
 20
1171.3515828529
 11
375.025032798
 21
1172.8515828529
  0
LINE
  5
270
100
AcDbEntity
  8
0
100
AcDbLine
 62
7
  6
BYLAYER
 10
378.450032798
 20
1171.3515828529
 11
378.450032798
 21
1172.5515828529
  0
LINE
  5
271
100
AcDbEntity
  8
0
100
AcDbLine
 62
7
  6
BYLAYER
 10
382.076792798
 20
1164.8515828529
 11
382.076792798
 21
1170.8515828529
  0
LINE
  5
272
100
AcDbEntity
  8
0
100
AcDbLine
 62
7
  6
BYLAYER
 10
384.576792798
 20
1164.8515828529
 11
384.576792798
 21
1170.8515828529
  0
LINE
  5
273
100
AcDbEntity
  8
0
100
AcDbLine
 62
7
  6
BYLAYER
 10
386.326792798
 20
1174.8515819154
 11
386.326792798
 21
1167.3515828529
  0
LINE
  5
274
100
AcDbEntity
  8
0
100
AcDbLine
 62
7
  6
BYLAYER
 10
386.826792798
 20
1166.3515828529
 11
386.826792798
 21
1167.3515828529
  0
LINE
  5
275
100
AcDbEntity
  8
0
100
AcDbLine
 62
7
  6
BYLAYER
 10
397.826792798
 20
1166.3515828529
 11
397.826792798
 21
1167.3515828529
  0
LINE
  5
276
100
AcDbEntity
  8
0
100
AcDbLine
 62
7
  6
BYLAYER
 10
398.326792798
 20
1167.3515828529
 11
398.326792798
 21
1174.8515819154
  0
LINE
  5
277
100
AcDbEntity
  8
0
100
AcDbLine
 62
7
  6
BYLAYER
 10
400.076792798
 20
1164.8515828529
 11
400.076792798
 21
1170.8515828529
  0
LINE
  5
278
100
AcDbEntity
  8
3
100
AcDbLine
 62
7
  6
BYLAYER
 10
402.1259008813
 20
1147.3516121204
 11
402.1259008813
 21
108.8516121204
  0
LINE
  5
279
100
AcDbEntity
  8
3
100
AcDbLine
 62
7
  6
BYLAYER
 10
402.3255594509
 20
1147.3515956614
 11
402.3255594509
 21
108.8515956614
  0
LINE
  5
27A
100
AcDbEntity
  8
0
100
AcDbLine
 62
7
  6
BYLAYER
 10
402.326064987
 20
108.8514727144
 11
402.326064987
 21
92.3514727144
  0
LINE
  5
27B
100
AcDbEntity
  8
0
100
AcDbLine
 62
7
  6
BYLAYER
 10
402.326792798
 20
1163.8515828529
 11
402.326792798
 21
1147.3515828529
  0
LINE
  5
27C
100
AcDbEntity
  8
3
100
AcDbLine
 62
7
  6
BYLAYER
 10
402.3783458554
 20
108.8515956614
 11
402.3783458554
 21
1147.3515956614
  0
LINE
  5
27D
100
AcDbEntity
  8
0
100
AcDbLine
 62
7
  6
BYLAYER
 10
402.3788513915
 20
92.3514727144
 11
402.3788513915
 21
108.8514727144
  0
LINE
  5
27E
100
AcDbEntity
  8
0
100
AcDbLine
 62
7
  6
BYLAYER
 10
402.3795792025
 20
1147.3515828529
 11
402.3795792025
 21
1163.8515828529
  0
LINE
  5
27F
100
AcDbEntity
  8
3
100
AcDbLine
 62
7
  6
BYLAYER
 10
402.7727730464
 20
1147.3515956614
 11
402.7727730464
 21
108.8515956614
  0
LINE
  5
280
100
AcDbEntity
  8
0
100
AcDbLine
 62
7
  6
BYLAYER
 10
402.7732785825
 20
108.8514727144
 11
402.7732785825
 21
92.3514727144
  0
LINE
  5
281
100
AcDbEntity
  8
0
100
AcDbLine
 62
7
  6
BYLAYER
 10
402.7740063935
 20
1163.8515828529
 11
402.7740063935
 21
1147.3515828529
  0
LINE
  5
282
100
AcDbEntity
  8
3
100
AcDbLine
 62
7
  6
BYLAYER
 10
404.5616274284
 20
108.8515956614
 11
404.5616274284
 21
1147.3515956614
  0
LINE
  5
283
100
AcDbEntity
  8
0
100
AcDbLine
 62
7
  6
BYLAYER
 10
404.5621329645
 20
91.3514727144
 11
404.5621329645
 21
108.8514727144
  0
LINE
  5
284
100
AcDbEntity
  8
0
100
AcDbLine
 62
7
  6
BYLAYER
 10
404.5628607755
 20
1147.3515828529
 11
404.5628607755
 21
1164.8515828529
  0
LINE
  5
285
100
AcDbEntity
  8
0
100
AcDbLine
 62
7
  6
BYLAYER
 10
404.8174621614
 20
108.8514727144
 11
404.8174621614
 21
91.3514727144
  0
LINE
  5
286
100
AcDbEntity
  8
3
100
AcDbLine
 62
7
  6
BYLAYER
 10
404.8179372044
 20
1147.3515956614
 11
404.8179372044
 21
108.8515956614
  0
LINE
  5
287
100
AcDbEntity
  8
0
100
AcDbLine
 62
7
  6
BYLAYER
 10
404.8181899725
 20
1164.8515828529
 11
404.8181899725
 21
1147.3515828529
  0
LINE
  5
288
100
AcDbEntity
  8
0
100
AcDbLine
 62
7
  6
BYLAYER
 10
406.7405100567
 20
92.3514727144
 11
406.7405100567
 21
108.8514727144
  0
LINE
  5
289
100
AcDbEntity
  8
3
100
AcDbLine
 62
7
  6
BYLAYER
 10
406.7409850997
 20
108.8515956614
 11
406.7409850997
 21
1147.3515956614
  0
LINE
  5
28A
100
AcDbEntity
  8
0
100
AcDbLine
 62
7
  6
BYLAYER
 10
406.7412378678
 20
1147.3515828529
 11
406.7412378678
 21
1163.8515828529
  0
LINE
  5
28B
100
AcDbEntity
  8
0
100
AcDbLine
 62
7
  6
BYLAYER
 10
407.7797559321
 20
94.3514727144
 11
407.7797559321
 21
92.3514727144
  0
LINE
  5
28C
100
AcDbEntity
  8
0
100
AcDbLine
 62
7
  6
BYLAYER
 10
407.7804837432
 20
1163.8515828529
 11
407.7804837432
 21
1161.8515828529
  0
LINE
  5
28D
100
AcDbEntity
  8
0
100
AcDbLine
 62
7
  6
BYLAYER
 10
407.8374700107
 20
92.3514727144
 11
407.8374700107
 21
93.966783715
  0
LINE
  5
28E
100
AcDbEntity
  8
0
100
AcDbLine
 62
7
  6
BYLAYER
 10
407.8381978217
 20
1162.2362718693
 11
407.8381978217
 21
1163.8515828529
  0
LINE
  5
28F
100
AcDbEntity
  8
0
100
AcDbLine
 62
7
  6
BYLAYER
 10
407.9413044634
 20
108.8514727144
 11
407.9413044634
 21
94.3514727144
  0
LINE
  5
290
100
AcDbEntity
  8
3
100
AcDbLine
 62
7
  6
BYLAYER
 10
407.9417795064
 20
1147.3515956614
 11
407.9417795064
 21
108.8515956614
  0
LINE
  5
291
100
AcDbEntity
  8
0
100
AcDbLine
 62
7
  6
BYLAYER
 10
407.9420322744
 20
1161.8515828529
 11
407.9420322744
 21
1147.3515828529
  0
LINE
  5
292
100
AcDbEntity
  8
0
100
AcDbLine
 62
7
  6
BYLAYER
 10
408.1265400269
 20
92.2515828529
 11
408.1265400269
 21
93.8515828529
  0
LINE
  5
293
100
AcDbEntity
  8
0
100
AcDbLine
 62
7
  6
BYLAYER
 10
408.126792798
 20
1162.3515828529
 11
408.126792798
 21
1163.9515828529
  0
LINE
  5
294
100
AcDbEntity
  8
0
100
AcDbLine
 62
7
  6
BYLAYER
 10
408.326064987
 20
92.3514727144
 11
408.326064987
 21
94.3377335645
  0
LINE
  5
295
100
AcDbEntity
  8
0
100
AcDbLine
 62
7
  6
BYLAYER
 10
408.326064987
 20
94.3514727144
 11
408.326064987
 21
108.8514727144
  0
LINE
  5
296
100
AcDbEntity
  8
3
100
AcDbLine
 62
7
  6
BYLAYER
 10
408.32654003
 20
108.8515956614
 11
408.32654003
 21
1147.3515956614
  0
LINE
  5
297
100
AcDbEntity
  8
0
100
AcDbLine
 62
7
  6
BYLAYER
 10
408.326792798
 20
1147.3515828529
 11
408.326792798
 21
1163.8515828529
  0
LINE
  5
298
100
AcDbEntity
  8
3
100
AcDbLine
 62
7
  6
BYLAYER
 10
411.5152857135
 20
1122.5346604369
 11
411.5152857135
 21
1072.5346604369
  0
LINE
  5
299
100
AcDbEntity
  8
3
100
AcDbLine
 62
7
  6
BYLAYER
 10
411.5152857135
 20
186.1997579761
 11
411.5152857135
 21
136.1997579761
  0
LINE
  5
29A
100
AcDbEntity
  8
3
100
AcDbLine
 62
7
  6
BYLAYER
 10
418.5152857135
 20
136.1997579761
 11
418.5152857135
 21
186.1997579761
  0
LINE
  5
29B
100
AcDbEntity
  8
3
100
AcDbLine
 62
7
  6
BYLAYER
 10
418.5152857135
 20
1072.5346604369
 11
418.5152857135
 21
1122.5346604369
  0
LINE
  5
29C
100
AcDbEntity
  8
0
100
AcDbLine
 62
7
  6
BYLAYER
 10
505.9751958755
 20
92.3514727144
 11
505.9751958755
 21
108.8514727144
  0
LINE
  5
29D
100
AcDbEntity
  8
4
100
AcDbLine
 62
7
  6
BYLAYER
 10
505.9756709185
 20
1147.3515956614
 11
505.9756709185
 21
108.8515956614
  0
LINE
  5
29E
100
AcDbEntity
  8
0
100
AcDbLine
 62
7
  6
BYLAYER
 10
505.9759236865
 20
1161.8515828529
 11
505.9759236865
 21
1147.3515828529
  0
LINE
  5
29F
100
AcDbEntity
  8
0
100
AcDbLine
 62
7
  6
BYLAYER
 10
505.9759236865
 20
1163.8515828529
 11
505.9759236865
 21
1161.8653156138
  0
LINE
  5
2A0
100
AcDbEntity
  8
0
100
AcDbLine
 62
7
  6
BYLAYER
 10
506.1756709185
 20
93.8515828529
 11
506.1756709185
 21
92.2515828529
  0
LINE
  5
2A1
100
AcDbEntity
  8
0
100
AcDbLine
 62
7
  6
BYLAYER
 10
506.1759236865
 20
1163.9515828529
 11
506.1759236865
 21
1162.3515828529
  0
LINE
  5
2A2
100
AcDbEntity
  8
0
100
AcDbLine
 62
7
  6
BYLAYER
 10
506.3599563991
 20
94.3514727144
 11
506.3599563991
 21
108.8514727144
  0
LINE
  5
2A3
100
AcDbEntity
  8
4
100
AcDbLine
 62
7
  6
BYLAYER
 10
506.3604314421
 20
108.8515956614
 11
506.3604314421
 21
1147.3515956614
  0
LINE
  5
2A4
100
AcDbEntity
  8
0
100
AcDbLine
 62
7
  6
BYLAYER
 10
506.3606842101
 20
1147.3515828529
 11
506.3606842101
 21
1161.8515828529
  0
LINE
  5
2A5
100
AcDbEntity
  8
0
100
AcDbLine
 62
7
  6
BYLAYER
 10
506.4637908517
 20
93.966783698
 11
506.4637908517
 21
92.3514727144
  0
LINE
  5
2A6
100
AcDbEntity
  8
0
100
AcDbLine
 62
7
  6
BYLAYER
 10
506.4645186628
 20
1163.8515828529
 11
506.4645186628
 21
1162.2362718523
  0
LINE
  5
2A7
100
AcDbEntity
  8
0
100
AcDbLine
 62
7
  6
BYLAYER
 10
506.5215049303
 20
92.3514727144
 11
506.5215049303
 21
94.3514727144
  0
LINE
  5
2A8
100
AcDbEntity
  8
0
100
AcDbLine
 62
7
  6
BYLAYER
 10
506.5222327413
 20
1161.8515828529
 11
506.5222327413
 21
1163.8515828529
  0
LINE
  5
2A9
100
AcDbEntity
  8
0
100
AcDbLine
 62
7
  6
BYLAYER
 10
507.5607508057
 20
108.8514727144
 11
507.5607508057
 21
92.3514727144
  0
LINE
  5
2AA
100
AcDbEntity
  8
4
100
AcDbLine
 62
7
  6
BYLAYER
 10
507.5612258487
 20
1147.3515956614
 11
507.5612258487
 21
108.8515956614
  0
LINE
  5
2AB
100
AcDbEntity
  8
0
100
AcDbLine
 62
7
  6
BYLAYER
 10
507.5614786167
 20
1163.8515828529
 11
507.5614786167
 21
1147.3515828529
  0
LINE
  5
2AC
100
AcDbEntity
  8
0
100
AcDbLine
 62
7
  6
BYLAYER
 10
509.483798701
 20
91.3514727144
 11
509.483798701
 21
108.8514727144
  0
LINE
  5
2AD
100
AcDbEntity
  8
4
100
AcDbLine
 62
7
  6
BYLAYER
 10
509.484273744
 20
108.8515956614
 11
509.484273744
 21
1147.3515956614
  0
LINE
  5
2AE
100
AcDbEntity
  8
0
100
AcDbLine
 62
7
  6
BYLAYER
 10
509.484526512
 20
1147.3515828529
 11
509.484526512
 21
1164.8515828529
  0
LINE
  5
2AF
100
AcDbEntity
  8
0
100
AcDbLine
 62
7
  6
BYLAYER
 10
509.739127898
 20
108.8514727144
 11
509.739127898
 21
91.3514727144
  0
LINE
  5
2B0
100
AcDbEntity
  8
0
100
AcDbLine
 62
7
  6
BYLAYER
 10
509.739855709
 20
1164.8515828529
 11
509.739855709
 21
1147.3515828529
  0
LINE
  5
2B1
100
AcDbEntity
  8
4
100
AcDbLine
 62
7
  6
BYLAYER
 10
509.74058352
 20
1147.3515956614
 11
509.74058352
 21
108.8515956614
  0
LINE
  5
2B2
100
AcDbEntity
  8
0
100
AcDbLine
 62
7
  6
BYLAYER
 10
511.52798228
 20
92.3514727144
 11
511.52798228
 21
108.8514727144
  0
LINE
  5
2B3
100
AcDbEntity
  8
0
100
AcDbLine
 62
7
  6
BYLAYER
 10
511.528710091
 20
1147.3515828529
 11
511.528710091
 21
1163.8515828529
  0
LINE
  5
2B4
100
AcDbEntity
  8
4
100
AcDbLine
 62
7
  6
BYLAYER
 10
511.529437902
 20
108.8515956614
 11
511.529437902
 21
1147.3515956614
  0
LINE
  5
2B5
100
AcDbEntity
  8
0
100
AcDbLine
 62
7
  6
BYLAYER
 10
511.922409471
 20
108.8514727144
 11
511.922409471
 21
92.3514727144
  0
LINE
  5
2B6
100
AcDbEntity
  8
0
100
AcDbLine
 62
7
  6
BYLAYER
 10
511.923137282
 20
1163.8515828529
 11
511.923137282
 21
1147.3515828529
  0
LINE
  5
2B7
100
AcDbEntity
  8
4
100
AcDbLine
 62
7
  6
BYLAYER
 10
511.923865093
 20
1147.3515956614
 11
511.923865093
 21
108.8515956614
  0
LINE
  5
2B8
100
AcDbEntity
  8
0
100
AcDbLine
 62
7
  6
BYLAYER
 10
511.9751958755
 20
92.3514727144
 11
511.9751958755
 21
108.8514727144
  0
LINE
  5
2B9
100
AcDbEntity
  8
0
100
AcDbLine
 62
7
  6
BYLAYER
 10
511.9759236865
 20
1147.3515828529
 11
511.9759236865
 21
1163.8515828529
  0
LINE
  5
2BA
100
AcDbEntity
  8
4
100
AcDbLine
 62
7
  6
BYLAYER
 10
511.9766514975
 20
108.8515956614
 11
511.9766514975
 21
1147.3515956614
  0
LINE
  5
2BB
100
AcDbEntity
  8
4
100
AcDbLine
 62
7
  6
BYLAYER
 10
512.1750317698
 20
108.8516121204
 11
512.1750317698
 21
1147.3516121204
  0
LINE
  5
2BC
100
AcDbEntity
  8
0
100
AcDbLine
 62
7
  6
BYLAYER
 10
514.2259236865
 20
1164.8515828529
 11
514.2259236865
 21
1170.8515828529
  0
LINE
  5
2BD
100
AcDbEntity
  8
0
100
AcDbLine
 62
7
  6
BYLAYER
 10
517.8491636865
 20
1172.5515828529
 11
517.8491636865
 21
1171.3515828529
  0
LINE
  5
2BE
100
AcDbEntity
  8
0
100
AcDbLine
 62
7
  6
BYLAYER
 10
524.3536997676
 20
1171.3515828529
 11
524.3536997676
 21
1172.5515828529
  0
LINE
  5
2BF
100
AcDbEntity
  8
0
100
AcDbLine
 62
7
  6
BYLAYER
 10
524.9086568284
 20
1171.3515828529
 11
524.9086568284
 21
1172.8515828529
  0
LINE
  5
2C0
100
AcDbEntity
  8
0
100
AcDbLine
 62
7
  6
BYLAYER
 10
525.3436492613
 20
1172.5515828529
 11
525.3436492613
 21
1171.3515828529
  0
LINE
  5
2C1
100
AcDbEntity
  8
0
100
AcDbLine
 62
7
  6
BYLAYER
 10
526.0991636865
 20
1172.5515828529
 11
526.0991636865
 21
1171.3515828529
  0
LINE
  5
2C2
100
AcDbEntity
  8
0
100
AcDbLine
 62
7
  6
BYLAYER
 10
529.7259236865
 20
1164.8515828529
 11
529.7259236865
 21
1170.8515828529
  0
LINE
  5
2C3
100
AcDbEntity
  8
0
100
AcDbLine
 62
7
  6
BYLAYER
 10
532.2259236865
 20
1164.8515828529
 11
532.2259236865
 21
1170.8515828529
  0
LINE
  5
2C4
100
AcDbEntity
  8
0
100
AcDbLine
 62
7
  6
BYLAYER
 10
533.9759236865
 20
1174.8515819154
 11
533.9759236865
 21
1167.3515828529
  0
LINE
  5
2C5
100
AcDbEntity
  8
0
100
AcDbLine
 62
7
  6
BYLAYER
 10
534.4759236865
 20
1166.3515828529
 11
534.4759236865
 21
1167.3515828529
  0
LINE
  5
2C6
100
AcDbEntity
  8
0
100
AcDbLine
 62
7
  6
BYLAYER
 10
545.4759236865
 20
1166.3515828529
 11
545.4759236865
 21
1167.3515828529
  0
LINE
  5
2C7
100
AcDbEntity
  8
0
100
AcDbLine
 62
7
  6
BYLAYER
 10
545.9759236865
 20
1167.3515828529
 11
545.9759236865
 21
1174.8515819154
  0
LINE
  5
2C8
100
AcDbEntity
  8
0
100
AcDbLine
 62
7
  6
BYLAYER
 10
547.7259236865
 20
1164.8515828529
 11
547.7259236865
 21
1170.8515828529
  0
LINE
  5
2C9
100
AcDbEntity
  8
4
100
AcDbLine
 62
7
  6
BYLAYER
 10
549.7750317698
 20
1147.3516121204
 11
549.7750317698
 21
108.8516121204
  0
LINE
  5
2CA
100
AcDbEntity
  8
4
100
AcDbLine
 62
7
  6
BYLAYER
 10
549.9746903394
 20
1147.3515956614
 11
549.9746903394
 21
108.8515956614
  0
LINE
  5
2CB
100
AcDbEntity
  8
0
100
AcDbLine
 62
7
  6
BYLAYER
 10
549.9751958755
 20
108.8514727144
 11
549.9751958755
 21
92.3514727144
  0
LINE
  5
2CC
100
AcDbEntity
  8
0
100
AcDbLine
 62
7
  6
BYLAYER
 10
549.9759236865
 20
1163.8515828529
 11
549.9759236865
 21
1147.3515828529
  0
LINE
  5
2CD
100
AcDbEntity
  8
4
100
AcDbLine
 62
7
  6
BYLAYER
 10
550.0274767439
 20
108.8515956614
 11
550.0274767439
 21
1147.3515956614
  0
LINE
  5
2CE
100
AcDbEntity
  8
0
100
AcDbLine
 62
7
  6
BYLAYER
 10
550.02798228
 20
92.3514727144
 11
550.02798228
 21
108.8514727144
  0
LINE
  5
2CF
100
AcDbEntity
  8
0
100
AcDbLine
 62
7
  6
BYLAYER
 10
550.028710091
 20
1147.3515828529
 11
550.028710091
 21
1163.8515828529
  0
LINE
  5
2D0
100
AcDbEntity
  8
4
100
AcDbLine
 62
7
  6
BYLAYER
 10
550.4219039349
 20
1147.3515956614
 11
550.4219039349
 21
108.8515956614
  0
LINE
  5
2D1
100
AcDbEntity
  8
0
100
AcDbLine
 62
7
  6
BYLAYER
 10
550.422409471
 20
108.8514727144
 11
550.422409471
 21
92.3514727144
  0
LINE
  5
2D2
100
AcDbEntity
  8
0
100
AcDbLine
 62
7
  6
BYLAYER
 10
550.423137282
 20
1163.8515828529
 11
550.423137282
 21
1147.3515828529
  0
LINE
  5
2D3
100
AcDbEntity
  8
4
100
AcDbLine
 62
7
  6
BYLAYER
 10
552.2107583169
 20
108.8515956614
 11
552.2107583169
 21
1147.3515956614
  0
LINE
  5
2D4
100
AcDbEntity
  8
0
100
AcDbLine
 62
7
  6
BYLAYER
 10
552.211263853
 20
91.3514727144
 11
552.211263853
 21
108.8514727144
  0
LINE
  5
2D5
100
AcDbEntity
  8
0
100
AcDbLine
 62
7
  6
BYLAYER
 10
552.211991664
 20
1147.3515828529
 11
552.211991664
 21
1164.8515828529
  0
LINE
  5
2D6
100
AcDbEntity
  8
0
100
AcDbLine
 62
7
  6
BYLAYER
 10
552.46659305
 20
108.8514727144
 11
552.46659305
 21
91.3514727144
  0
LINE
  5
2D7
100
AcDbEntity
  8
4
100
AcDbLine
 62
7
  6
BYLAYER
 10
552.4670680929
 20
1147.3515956614
 11
552.4670680929
 21
108.8515956614
  0
LINE
  5
2D8
100
AcDbEntity
  8
0
100
AcDbLine
 62
7
  6
BYLAYER
 10
552.467320861
 20
1164.8515828529
 11
552.467320861
 21
1147.3515828529
  0
LINE
  5
2D9
100
AcDbEntity
  8
0
100
AcDbLine
 62
7
  6
BYLAYER
 10
554.3896409452
 20
92.3514727144
 11
554.3896409452
 21
108.8514727144
  0
LINE
  5
2DA
100
AcDbEntity
  8
4
100
AcDbLine
 62
7
  6
BYLAYER
 10
554.3901159882
 20
108.8515956614
 11
554.3901159882
 21
1147.3515956614
  0
LINE
  5
2DB
100
AcDbEntity
  8
0
100
AcDbLine
 62
7
  6
BYLAYER
 10
554.3903687563
 20
1147.3515828529
 11
554.3903687563
 21
1163.8515828529
  0
LINE
  5
2DC
100
AcDbEntity
  8
0
100
AcDbLine
 62
7
  6
BYLAYER
 10
555.4288868207
 20
94.3514727144
 11
555.4288868207
 21
92.3514727144
  0
LINE
  5
2DD
100
AcDbEntity
  8
0
100
AcDbLine
 62
7
  6
BYLAYER
 10
555.4296146317
 20
1163.8515828529
 11
555.4296146317
 21
1161.8515828529
  0
LINE
  5
2DE
100
AcDbEntity
  8
0
100
AcDbLine
 62
7
  6
BYLAYER
 10
555.4866008992
 20
92.3514727144
 11
555.4866008992
 21
93.966783715
  0
LINE
  5
2DF
100
AcDbEntity
  8
0
100
AcDbLine
 62
7
  6
BYLAYER
 10
555.4873287102
 20
1162.2362718693
 11
555.4873287102
 21
1163.8515828529
  0
LINE
  5
2E0
100
AcDbEntity
  8
0
100
AcDbLine
 62
7
  6
BYLAYER
 10
555.5904353519
 20
108.8514727144
 11
555.5904353519
 21
94.3514727144
  0
LINE
  5
2E1
100
AcDbEntity
  8
4
100
AcDbLine
 62
7
  6
BYLAYER
 10
555.5909103949
 20
1147.3515956614
 11
555.5909103949
 21
108.8515956614
  0
LINE
  5
2E2
100
AcDbEntity
  8
0
100
AcDbLine
 62
7
  6
BYLAYER
 10
555.5911631629
 20
1161.8515828529
 11
555.5911631629
 21
1147.3515828529
  0
LINE
  5
2E3
100
AcDbEntity
  8
0
100
AcDbLine
 62
7
  6
BYLAYER
 10
555.7756709154
 20
92.2515828529
 11
555.7756709154
 21
93.8515828529
  0
LINE
  5
2E4
100
AcDbEntity
  8
0
100
AcDbLine
 62
7
  6
BYLAYER
 10
555.7759236865
 20
1162.3515828529
 11
555.7759236865
 21
1163.9515828529
  0
LINE
  5
2E5
100
AcDbEntity
  8
0
100
AcDbLine
 62
7
  6
BYLAYER
 10
555.9751958755
 20
92.3514727144
 11
555.9751958755
 21
94.3377354292
  0
LINE
  5
2E6
100
AcDbEntity
  8
0
100
AcDbLine
 62
7
  6
BYLAYER
 10
555.9751958755
 20
94.3514727144
 11
555.9751958755
 21
108.8514727144
  0
LINE
  5
2E7
100
AcDbEntity
  8
4
100
AcDbLine
 62
7
  6
BYLAYER
 10
555.9756709185
 20
108.8515956614
 11
555.9756709185
 21
1147.3515956614
  0
LINE
  5
2E8
100
AcDbEntity
  8
0
100
AcDbLine
 62
7
  6
BYLAYER
 10
555.9759236865
 20
1147.3515828529
 11
555.9759236865
 21
1163.8515828529
  0
LINE
  5
2E9
100
AcDbEntity
  8
4
100
AcDbLine
 62
7
  6
BYLAYER
 10
559.164416602
 20
1122.5346604369
 11
559.164416602
 21
1072.5346604369
  0
LINE
  5
2EA
100
AcDbEntity
  8
4
100
AcDbLine
 62
7
  6
BYLAYER
 10
559.164416602
 20
186.1997579761
 11
559.164416602
 21
136.1997579761
  0
LINE
  5
2EB
100
AcDbEntity
  8
4
100
AcDbLine
 62
7
  6
BYLAYER
 10
566.164416602
 20
136.1997579761
 11
566.164416602
 21
186.1997579761
  0
LINE
  5
2EC
100
AcDbEntity
  8
4
100
AcDbLine
 62
7
  6
BYLAYER
 10
566.164416602
 20
1072.5346604369
 11
566.164416602
 21
1122.5346604369
  0
LINE
  5
2ED
100
AcDbEntity
  8
0
100
AcDbLine
 62
7
  6
BYLAYER
 10
384.776792798
 20
1164.8515828529
 11
384.576792798
 21
1165.0515828529
  0
LINE
  5
2EE
100
AcDbEntity
  8
0
100
AcDbLine
 62
7
  6
BYLAYER
 10
381.576792798
 20
1171.3515828529
 11
382.076792798
 21
1170.8515828529
  0
LINE
  5
2EF
100
AcDbEntity
  8
0
100
AcDbLine
 62
7
  6
BYLAYER
 10
399.576792798
 20
1166.3515828529
 11
400.076792798
 21
1165.8515828529
  0
LINE
  5
2F0
100
AcDbEntity
  8
0
100
AcDbLine
 62
7
  6
BYLAYER
 10
399.576792798
 20
1171.3515828529
 11
400.076792798
 21
1170.8515828529
  0
LINE
  5
2F1
100
AcDbEntity
  8
0
100
AcDbLine
 62
7
  6
BYLAYER
 10
397.8267947766
 20
1175.3515828529
 11
398.326792798
 21
1174.8515850114
  0
LINE
  5
2F2
100
AcDbEntity
  8
4
100
AcDbLine
 62
7
  6
BYLAYER
 10
566.164416602
 20
1072.5346604369
 11
555.9756709185
 21
1072.5346604369
  0
LINE
  5
2F3
100
AcDbEntity
  8
3
100
AcDbLine
 62
7
  6
BYLAYER
 10
418.5152857135
 20
1072.5346604369
 11
408.32654003
 21
1072.5346604369
  0
LINE
  5
2F4
100
AcDbEntity
  8
0
100
AcDbLine
 62
7
  6
BYLAYER
 10
532.4259236865
 20
1164.8515828529
 11
532.2259236865
 21
1165.0515828529
  0
LINE
  5
2F5
100
AcDbEntity
  8
0
100
AcDbLine
 62
7
  6
BYLAYER
 10
529.2259236865
 20
1171.3515828529
 11
529.7259236865
 21
1170.8515828529
  0
LINE
  5
2F6
100
AcDbEntity
  8
0
100
AcDbLine
 62
7
  6
BYLAYER
 10
547.2259236865
 20
1166.3515828529
 11
547.7259236865
 21
1165.8515828529
  0
LINE
  5
2F7
100
AcDbEntity
  8
0
100
AcDbLine
 62
7
  6
BYLAYER
 10
547.2259236865
 20
1171.3515828529
 11
547.7259236865
 21
1170.8515828529
  0
LINE
  5
2F8
100
AcDbEntity
  8
0
100
AcDbLine
 62
7
  6
BYLAYER
 10
545.4759256651
 20
1175.3515828529
 11
545.9759236865
 21
1174.8515850114
  0
LINE
  5
2F9
100
AcDbEntity
  8
3
100
AcDbLine
 62
7
  6
BYLAYER
 10
408.32654003
 20
1122.5346604369
 11
418.5152857135
 21
1122.5346604369
  0
LINE
  5
2FA
100
AcDbEntity
  8
4
100
AcDbLine
 62
7
  6
BYLAYER
 10
555.9756709185
 20
1122.5346604369
 11
566.164416602
 21
1122.5346604369
  0
LINE
  5
2FB
100
AcDbEntity
  8
0
100
AcDbLine
 62
7
  6
BYLAYER
 10
555.9759236865
 20
1147.3515828529
 11
511.9759236865
 21
1147.3515828529
  0
LINE
  5
2FC
100
AcDbEntity
  8
4
100
AcDbLine
 62
7
  6
BYLAYER
 10
549.7750317698
 20
1147.3516121204
 11
512.1750317698
 21
1147.3516121204
  0
LINE
  5
2FD
100
AcDbEntity
  8
0
100
AcDbLine
 62
7
  6
BYLAYER
 10
511.923137282
 20
1147.3515828529
 11
505.9759236865
 21
1147.3515828529
  0
LINE
  5
2FE
100
AcDbEntity
  8
3
100
AcDbLine
 62
7
  6
BYLAYER
 10
402.1259008813
 20
1147.3516121204
 11
364.5259008813
 21
1147.3516121204
  0
LINE
  5
2FF
100
AcDbEntity
  8
0
100
AcDbLine
 62
7
  6
BYLAYER
 10
408.326792798
 20
1147.3515828529
 11
364.326792798
 21
1147.3515828529
  0
LINE
  5
300
100
AcDbEntity
  8
0
100
AcDbLine
 62
7
  6
BYLAYER
 10
364.2740063935
 20
1147.3515828529
 11
358.326792798
 21
1147.3515828529
  0
LINE
  5
301
100
AcDbEntity
  8
3
100
AcDbLine
 62
7
  6
BYLAYER
 10
358.32654003
 20
1147.3515956614
 11
364.327520609
 21
1147.3515956614
  0
LINE
  5
302
100
AcDbEntity
  8
3
100
AcDbLine
 62
7
  6
BYLAYER
 10
402.3255594509
 20
1147.3515956614
 11
408.32654003
 21
1147.3515956614
  0
LINE
  5
303
100
AcDbEntity
  8
4
100
AcDbLine
 62
7
  6
BYLAYER
 10
505.9756709185
 20
1147.3515956614
 11
511.9766514975
 21
1147.3515956614
  0
LINE
  5
304
100
AcDbEntity
  8
4
100
AcDbLine
 62
7
  6
BYLAYER
 10
549.9746903394
 20
1147.3515956614
 11
555.9756709185
 21
1147.3515956614
  0
LINE
  5
305
100
AcDbEntity
  8
0
100
AcDbLine
 62
7
  6
BYLAYER
 10
547.9759236865
 20
1160.8515828529
 11
531.9759405004
 21
1160.8515828529
  0
LINE
  5
306
100
AcDbEntity
  8
0
100
AcDbLine
 62
7
  6
BYLAYER
 10
529.9759236865
 20
1160.8515828529
 11
513.9759405004
 21
1160.8515828529
  0
LINE
  5
307
100
AcDbEntity
  8
0
100
AcDbLine
 62
7
  6
BYLAYER
 10
400.326792798
 20
1160.8515828529
 11
384.3268096119
 21
1160.8515828529
  0
LINE
  5
308
100
AcDbEntity
  8
0
100
AcDbLine
 62
7
  6
BYLAYER
 10
382.326792798
 20
1160.8515828529
 11
366.3268096119
 21
1160.8515828529
  0
LINE
  5
309
100
AcDbEntity
  8
0
100
AcDbLine
 62
7
  6
BYLAYER
 10
366.4320018269
 20
1160.8627771039
 11
382.2215671763
 21
1160.8627771039
  0
LINE
  5
30A
100
AcDbEntity
  8
0
100
AcDbLine
 62
7
  6
BYLAYER
 10
384.4320018269
 20
1160.8627771039
 11
400.2215671763
 21
1160.8627771039
  0
LINE
  5
30B
100
AcDbEntity
  8
0
100
AcDbLine
 62
7
  6
BYLAYER
 10
514.0811327154
 20
1160.8627771039
 11
529.8706980648
 21
1160.8627771039
  0
LINE
  5
30C
100
AcDbEntity
  8
0
100
AcDbLine
 62
7
  6
BYLAYER
 10
532.0811327154
 20
1160.8627771039
 11
547.8706980648
 21
1160.8627771039
  0
LINE
  5
30D
100
AcDbEntity
  8
0
100
AcDbLine
 62
7
  6
BYLAYER
 10
548.0814183467
 20
1161.8403270361
 11
531.8704460619
 21
1161.8403270361
  0
LINE
  5
30E
100
AcDbEntity
  8
0
100
AcDbLine
 62
7
  6
BYLAYER
 10
400.4322874582
 20
1161.8403270361
 11
384.2213151734
 21
1161.8403270361
  0
LINE
  5
30F
100
AcDbEntity
  8
0
100
AcDbLine
 62
7
  6
BYLAYER
 10
530.0812201711
 20
1161.84036977
 11
513.8706442371
 21
1161.84036977
  0
LINE
  5
310
100
AcDbEntity
  8
0
100
AcDbLine
 62
7
  6
BYLAYER
 10
382.4320892826
 20
1161.84036977
 11
366.2215133486
 21
1161.84036977
  0
LINE
  5
311
100
AcDbEntity
  8
0
100
AcDbLine
 62
7
  6
BYLAYER
 10
358.326792798
 20
1161.8515828529
 11
358.8731018528
 21
1161.8515828529
  0
LINE
  5
312
100
AcDbEntity
  8
0
100
AcDbLine
 62
7
  6
BYLAYER
 10
407.7804837432
 20
1161.8515828529
 11
408.326792798
 21
1161.8515828529
  0
LINE
  5
313
100
AcDbEntity
  8
0
100
AcDbLine
 62
7
  6
BYLAYER
 10
505.9759236865
 20
1161.8515828529
 11
506.5222327413
 21
1161.8515828529
  0
LINE
  5
314
100
AcDbEntity
  8
0
100
AcDbLine
 62
7
  6
BYLAYER
 10
555.4296146317
 20
1161.8515828529
 11
555.9759236865
 21
1161.8515828529
  0
LINE
  5
315
100
AcDbEntity
  8
0
100
AcDbLine
 62
7
  6
BYLAYER
 10
555.7759236865
 20
1162.3515828529
 11
555.4873287102
 21
1162.3515828529
  0
LINE
  5
316
100
AcDbEntity
  8
0
100
AcDbLine
 62
7
  6
BYLAYER
 10
506.4645186628
 20
1162.3515828529
 11
506.1759236865
 21
1162.3515828529
  0
LINE
  5
317
100
AcDbEntity
  8
0
100
AcDbLine
 62
7
  6
BYLAYER
 10
408.126792798
 20
1162.3515828529
 11
407.8381978217
 21
1162.3515828529
  0
LINE
  5
318
100
AcDbEntity
  8
0
100
AcDbLine
 62
7
  6
BYLAYER
 10
358.8153877743
 20
1162.3515828529
 11
358.526792798
 21
1162.3515828529
  0
LINE
  5
319
100
AcDbEntity
  8
0
100
AcDbLine
 62
7
  6
BYLAYER
 10
555.9759236865
 20
1162.8515829218
 11
555.7759236865
 21
1162.8515829218
  0
LINE
  5
31A
100
AcDbEntity
  8
0
100
AcDbLine
 62
7
  6
BYLAYER
 10
506.1759236865
 20
1162.85158291
 11
505.9759236865
 21
1162.85158291
  0
LINE
  5
31B
100
AcDbEntity
  8
0
100
AcDbLine
 62
7
  6
BYLAYER
 10
408.326792798
 20
1162.8515829218
 11
408.126792798
 21
1162.8515829218
  0
LINE
  5
31C
100
AcDbEntity
  8
0
100
AcDbLine
 62
7
  6
BYLAYER
 10
358.526792798
 20
1162.85158291
 11
358.326792798
 21
1162.85158291
  0
LINE
  5
31D
100
AcDbEntity
  8
0
100
AcDbLine
 62
7
  6
BYLAYER
 10
358.326792798
 20
1163.8515828529
 11
358.526792798
 21
1163.8515828529
  0
LINE
  5
31E
100
AcDbEntity
  8
0
100
AcDbLine
 62
7
  6
BYLAYER
 10
408.126792798
 20
1163.8515828529
 11
408.326792798
 21
1163.8515828529
  0
LINE
  5
31F
100
AcDbEntity
  8
0
100
AcDbLine
 62
7
  6
BYLAYER
 10
358.8153877743
 20
1163.8515828529
 11
407.8381978217
 21
1163.8515828529
  0
LINE
  5
320
100
AcDbEntity
  8
0
100
AcDbLine
 62
7
  6
BYLAYER
 10
505.9759236865
 20
1163.8515828529
 11
506.1759236865
 21
1163.8515828529
  0
LINE
  5
321
100
AcDbEntity
  8
0
100
AcDbLine
 62
7
  6
BYLAYER
 10
555.7759236865
 20
1163.8515828529
 11
555.9759236865
 21
1163.8515828529
  0
LINE
  5
322
100
AcDbEntity
  8
0
100
AcDbLine
 62
7
  6
BYLAYER
 10
506.4645186628
 20
1163.8515828529
 11
555.4873287102
 21
1163.8515828529
  0
LINE
  5
323
100
AcDbEntity
  8
0
100
AcDbLine
 62
7
  6
BYLAYER
 10
358.526792798
 20
1163.9515828529
 11
358.8478799883
 21
1163.9515828529
  0
LINE
  5
324
100
AcDbEntity
  8
0
100
AcDbLine
 62
7
  6
BYLAYER
 10
407.8057053777
 20
1163.9515828529
 11
408.126792798
 21
1163.9515828529
  0
LINE
  5
325
100
AcDbEntity
  8
0
100
AcDbLine
 62
7
  6
BYLAYER
 10
506.1759236865
 20
1163.9515828529
 11
506.4970108769
 21
1163.9515828529
  0
LINE
  5
326
100
AcDbEntity
  8
0
100
AcDbLine
 62
7
  6
BYLAYER
 10
555.4548362662
 20
1163.9515828529
 11
555.7759236865
 21
1163.9515828529
  0
LINE
  5
327
100
AcDbEntity
  8
0
100
AcDbLine
 62
7
  6
BYLAYER
 10
359.815609689
 20
1164.8515828529
 11
406.8379743259
 21
1164.8515828529
  0
LINE
  5
328
100
AcDbEntity
  8
0
100
AcDbLine
 62
7
  6
BYLAYER
 10
507.4647405775
 20
1164.8515828529
 11
554.4871052144
 21
1164.8515828529
  0
LINE
  5
329
100
AcDbEntity
  8
0
100
AcDbLine
 62
7
  6
BYLAYER
 10
359.526894224
 20
1164.9515828529
 11
365.1267925513
 21
1164.9515828529
  0
LINE
  5
32A
100
AcDbEntity
  8
0
100
AcDbLine
 62
7
  6
BYLAYER
 10
401.526894224
 20
1164.9515828529
 11
407.1267925513
 21
1164.9515828529
  0
LINE
  5
32B
100
AcDbEntity
  8
0
100
AcDbLine
 62
7
  6
BYLAYER
 10
507.1760251125
 20
1164.9515828529
 11
512.7759234398
 21
1164.9515828529
  0
LINE
  5
32C
100
AcDbEntity
  8
0
100
AcDbLine
 62
7
  6
BYLAYER
 10
549.1760251125
 20
1164.9515828529
 11
554.7759234398
 21
1164.9515828529
  0
LINE
  5
32D
100
AcDbEntity
  8
0
100
AcDbLine
 62
7
  6
BYLAYER
 10
547.7259236865
 20
1165.0515828529
 11
532.2259236865
 21
1165.0515828529
  0
LINE
  5
32E
100
AcDbEntity
  8
0
100
AcDbLine
 62
7
  6
BYLAYER
 10
400.076792798
 20
1165.0515828529
 11
384.576792798
 21
1165.0515828529
  0
LINE
  5
32F
100
AcDbEntity
  8
0
100
AcDbLine
 62
7
  6
BYLAYER
 10
384.576792798
 20
1165.8515828529
 11
400.076792798
 21
1165.8515828529
  0
LINE
  5
330
100
AcDbEntity
  8
0
100
AcDbLine
 62
7
  6
BYLAYER
 10
532.2259236865
 20
1165.8515828529
 11
547.7259236865
 21
1165.8515828529
  0
LINE
  5
331
100
AcDbEntity
  8
0
100
AcDbLine
 62
7
  6
BYLAYER
 10
529.7259236865
 20
1166.3515828529
 11
514.2259236865
 21
1166.3515828529
  0
LINE
  5
332
100
AcDbEntity
  8
0
100
AcDbLine
 62
7
  6
BYLAYER
 10
382.076792798
 20
1166.3515828529
 11
366.576792798
 21
1166.3515828529
  0
LINE
  5
333
100
AcDbEntity
  8
0
100
AcDbLine
 62
7
  6
BYLAYER
 10
384.576792798
 20
1166.3515828529
 11
400.076792798
 21
1166.3515828529
  0
LINE
  5
334
100
AcDbEntity
  8
0
100
AcDbLine
 62
7
  6
BYLAYER
 10
532.2259236865
 20
1166.3515828529
 11
547.7259236865
 21
1166.3515828529
  0
LINE
  5
335
100
AcDbEntity
  8
0
100
AcDbLine
 62
7
  6
BYLAYER
 10
545.9759236865
 20
1167.3515828529
 11
533.9759236865
 21
1167.3515828529
  0
LINE
  5
336
100
AcDbEntity
  8
0
100
AcDbLine
 62
7
  6
BYLAYER
 10
398.326792798
 20
1167.3515828529
 11
386.326792798
 21
1167.3515828529
  0
LINE
  5
337
100
AcDbEntity
  8
0
100
AcDbLine
 62
7
  6
BYLAYER
 10
547.7259194037
 20
1169.3515828529
 11
545.9759236865
 21
1169.3515828529
  0
LINE
  5
338
100
AcDbEntity
  8
0
100
AcDbLine
 62
7
  6
BYLAYER
 10
533.9759236865
 20
1169.3515828529
 11
532.2259279693
 21
1169.3515828529
  0
LINE
  5
339
100
AcDbEntity
  8
0
100
AcDbLine
 62
7
  6
BYLAYER
 10
529.7259194037
 20
1169.3515828529
 11
514.2259279693
 21
1169.3515828529
  0
LINE
  5
33A
100
AcDbEntity
  8
0
100
AcDbLine
 62
7
  6
BYLAYER
 10
400.0767885152
 20
1169.3515828529
 11
398.326792798
 21
1169.3515828529
  0
LINE
  5
33B
100
AcDbEntity
  8
0
100
AcDbLine
 62
7
  6
BYLAYER
 10
386.326792798
 20
1169.3515828529
 11
384.5767970808
 21
1169.3515828529
  0
LINE
  5
33C
100
AcDbEntity
  8
0
100
AcDbLine
 62
7
  6
BYLAYER
 10
382.0767885152
 20
1169.3515828529
 11
366.5767970808
 21
1169.3515828529
  0
LINE
  5
33D
100
AcDbEntity
  8
0
100
AcDbLine
 62
7
  6
BYLAYER
 10
366.576792798
 20
1170.8515828529
 11
382.076792798
 21
1170.8515828529
  0
LINE
  5
33E
100
AcDbEntity
  8
0
100
AcDbLine
 62
7
  6
BYLAYER
 10
384.576792798
 20
1170.8515828529
 11
386.326792798
 21
1170.8515828529
  0
LINE
  5
33F
100
AcDbEntity
  8
0
100
AcDbLine
 62
7
  6
BYLAYER
 10
398.326792798
 20
1170.8515828529
 11
400.076792798
 21
1170.8515828529
  0
LINE
  5
340
100
AcDbEntity
  8
0
100
AcDbLine
 62
7
  6
BYLAYER
 10
514.2259236865
 20
1170.8515828529
 11
529.7259236865
 21
1170.8515828529
  0
LINE
  5
341
100
AcDbEntity
  8
0
100
AcDbLine
 62
7
  6
BYLAYER
 10
532.2259236865
 20
1170.8515828529
 11
533.9759236865
 21
1170.8515828529
  0
LINE
  5
342
100
AcDbEntity
  8
0
100
AcDbLine
 62
7
  6
BYLAYER
 10
545.9759236865
 20
1170.8515828529
 11
547.7259236865
 21
1170.8515828529
  0
LINE
  5
343
100
AcDbEntity
  8
0
100
AcDbLine
 62
7
  6
BYLAYER
 10
367.0767968008
 20
1171.3515828529
 11
381.5767887952
 21
1171.3515828529
  0
LINE
  5
344
100
AcDbEntity
  8
0
100
AcDbLine
 62
7
  6
BYLAYER
 10
385.0767968008
 20
1171.3515828529
 11
386.326792798
 21
1171.3515828529
  0
LINE
  5
345
100
AcDbEntity
  8
0
100
AcDbLine
 62
7
  6
BYLAYER
 10
398.326792798
 20
1171.3515828529
 11
399.5767887952
 21
1171.3515828529
  0
LINE
  5
346
100
AcDbEntity
  8
0
100
AcDbLine
 62
7
  6
BYLAYER
 10
514.7259276893
 20
1171.3515828529
 11
529.2259196837
 21
1171.3515828529
  0
LINE
  5
347
100
AcDbEntity
  8
0
100
AcDbLine
 62
7
  6
BYLAYER
 10
532.7259276893
 20
1171.3515828529
 11
533.9759236865
 21
1171.3515828529
  0
LINE
  5
348
100
AcDbEntity
  8
0
100
AcDbLine
 62
7
  6
BYLAYER
 10
545.9759236865
 20
1171.3515828529
 11
547.2259196837
 21
1171.3515828529
  0
LINE
  5
349
100
AcDbEntity
  8
0
100
AcDbLine
 62
7
  6
BYLAYER
 10
370.200032798
 20
1172.5515828529
 11
373.625032798
 21
1172.5515828529
  0
LINE
  5
34A
100
AcDbEntity
  8
0
100
AcDbLine
 62
7
  6
BYLAYER
 10
375.025032798
 20
1172.5515828529
 11
378.450032798
 21
1172.5515828529
  0
LINE
  5
34B
100
AcDbEntity
  8
0
100
AcDbLine
 62
7
  6
BYLAYER
 10
517.8491636865
 20
1172.5515828529
 11
524.3536997676
 21
1172.5515828529
  0
LINE
  5
34C
100
AcDbEntity
  8
0
100
AcDbLine
 62
7
  6
BYLAYER
 10
525.3436492613
 20
1172.5515828529
 11
526.0991636865
 21
1172.5515828529
  0
LINE
  5
34D
100
AcDbEntity
  8
0
100
AcDbLine
 62
7
  6
BYLAYER
 10
370.5000443239
 20
1172.8515828529
 11
378.1500020333
 21
1172.8515828529
  0
LINE
  5
34E
100
AcDbEntity
  8
0
100
AcDbLine
 62
7
  6
BYLAYER
 10
518.1491417952
 20
1172.8515828529
 11
525.7992240544
 21
1172.8515828529
  0
LINE
  5
34F
100
AcDbEntity
  8
0
100
AcDbLine
 62
7
  6
BYLAYER
 10
386.326792798
 20
1174.8515819154
 11
398.326792798
 21
1174.8515819154
  0
LINE
  5
350
100
AcDbEntity
  8
0
100
AcDbLine
 62
7
  6
BYLAYER
 10
533.9759236865
 20
1174.8515819154
 11
545.9759236865
 21
1174.8515819154
  0
LINE
  5
351
100
AcDbEntity
  8
0
100
AcDbLine
 62
7
  6
BYLAYER
 10
386.8267922337
 20
1175.3515828529
 11
397.8267874967
 21
1175.3515828529
  0
LINE
  5
352
100
AcDbEntity
  8
0
100
AcDbLine
 62
7
  6
BYLAYER
 10
534.4759231222
 20
1175.3515828529
 11
545.4759183852
 21
1175.3515828529
  0
ARC
  5
353
100
AcDbEntity
  8
0
100
AcDbCircle
 62
7
  6
BYLAYER
 10
401.526064987
 20
92.2515828529
 40
1.0
100
AcDbArc
 50
247.6323509957
 51
270.0
  0
ARC
  5
354
100
AcDbEntity
  8
0
100
AcDbCircle
 62
7
  6
BYLAYER
 10
365.1260649899
 20
92.2515828529
 40
1.0
100
AcDbArc
 50
270.0
 51
292.3676490044
  0
ARC
  5
355
100
AcDbEntity
  8
0
100
AcDbCircle
 62
7
  6
BYLAYER
 10
402.5265400269
 20
92.2515828529
 40
1.0
100
AcDbArc
 50
247.6323509957
 51
270.0
  0
ARC
  5
356
100
AcDbEntity
  8
0
100
AcDbCircle
 62
7
  6
BYLAYER
 10
407.1265400269
 20
92.2515828529
 40
1.0
100
AcDbArc
 50
270.0
 51
360.0
  0
ARC
  5
357
100
AcDbEntity
  8
0
100
AcDbCircle
 62
7
  6
BYLAYER
 10
359.52654003
 20
92.2515828529
 40
1.0
100
AcDbArc
 50
180.0
 51
270.0
  0
ARC
  5
358
100
AcDbEntity
  8
0
100
AcDbCircle
 62
7
  6
BYLAYER
 10
364.12654003
 20
92.2515828529
 40
1.0
100
AcDbArc
 50
270.0
 51
292.3676490043
  0
ARC
  5
359
100
AcDbEntity
  8
0
100
AcDbCircle
 62
7
  6
BYLAYER
 10
359.8146599632
 20
92.3514727144
 40
1.0
100
AcDbArc
 50
180.0
 51
270.0
  0
ARC
  5
35A
100
AcDbEntity
  8
0
100
AcDbCircle
 62
7
  6
BYLAYER
 10
406.8374700107
 20
92.3514727144
 40
1.0
100
AcDbArc
 50
270.0
 51
360.0
  0
ARC
  5
35B
100
AcDbEntity
  8
0
100
AcDbCircle
 62
7
  6
BYLAYER
 10
407.326064987
 20
92.3514727144
 40
1.0
100
AcDbArc
 50
290.1402792355
 51
360.0
  0
ARC
  5
35C
100
AcDbEntity
  8
0
100
AcDbCircle
 62
7
  6
BYLAYER
 10
363.326064987
 20
92.3514727144
 40
1.0
100
AcDbArc
 50
270.0
 51
360.0
  0
ARC
  5
35D
100
AcDbEntity
  8
0
100
AcDbCircle
 62
7
  6
BYLAYER
 10
359.326064987
 20
92.3514727144
 40
1.0
100
AcDbArc
 50
180.0
 51
249.9315512353
  0
ARC
  5
35E
100
AcDbEntity
  8
0
100
AcDbCircle
 62
7
  6
BYLAYER
 10
403.326064987
 20
92.3514727144
 40
1.0
100
AcDbArc
 50
180.0
 51
270.0
  0
ARC
  5
35F
100
AcDbEntity
  8
0
100
AcDbCircle
 62
7
  6
BYLAYER
 10
359.83390575
 20
92.2627971465
 40
0.9113244322
100
AcDbArc
 50
268.9031685193
 51
269.9995120838
  0
ARC
  5
360
100
AcDbEntity
  8
0
100
AcDbCircle
 62
7
  6
BYLAYER
 10
406.8182242972
 20
92.2619408836
 40
0.9104681692
100
AcDbArc
 50
270.0004837627
 51
271.0800850326
  0
ARC
  5
361
100
AcDbEntity
  8
0
100
AcDbCircle
 62
7
  6
BYLAYER
 10
407.826064987
 20
94.3514727144
 40
0.5
100
AcDbArc
 50
271.1642031186
 51
360.0
  0
ARC
  5
362
100
AcDbEntity
  8
0
100
AcDbCircle
 62
7
  6
BYLAYER
 10
358.826064987
 20
94.3514727144
 40
0.5
100
AcDbArc
 50
180.0
 51
268.8357968818
  0
ARC
  5
363
100
AcDbEntity
  8
0
100
AcDbCircle
 62
7
  6
BYLAYER
 10
408.1883111167
 20
93.9437884124
 40
0.3511956119
100
AcDbArc
 50
168.8863826959
 51
177.982295266
  0
ARC
  5
364
100
AcDbEntity
  8
0
100
AcDbCircle
 62
7
  6
BYLAYER
 10
365.126792798
 20
1163.9515828529
 40
1.0
100
AcDbArc
 50
67.6076884451
 51
90.0
  0
ARC
  5
365
100
AcDbEntity
  8
0
100
AcDbCircle
 62
7
  6
BYLAYER
 10
364.126792798
 20
1163.9515828529
 40
1.0
100
AcDbArc
 50
67.6076884451
 51
90.0
  0
ARC
  5
366
100
AcDbEntity
  8
0
100
AcDbCircle
 62
7
  6
BYLAYER
 10
359.526792798
 20
1163.9515828529
 40
1.0
100
AcDbArc
 50
90.0
 51
180.0
  0
ARC
  5
367
100
AcDbEntity
  8
0
100
AcDbCircle
 62
7
  6
BYLAYER
 10
359.8153877743
 20
1163.8515828529
 40
1.0
100
AcDbArc
 50
90.0
 51
180.0
  0
ARC
  5
368
100
AcDbEntity
  8
0
100
AcDbCircle
 62
7
  6
BYLAYER
 10
359.326792798
 20
1163.8515828529
 40
1.0
100
AcDbArc
 50
110.1126910722
 51
179.9999999999
  0
ARC
  5
369
100
AcDbEntity
  8
0
100
AcDbCircle
 62
7
  6
BYLAYER
 10
363.326792798
 20
1163.8515828529
 40
1.0
100
AcDbArc
 50
0.0
 51
90.0
  0
ARC
  5
36A
100
AcDbEntity
  8
0
100
AcDbCircle
 62
7
  6
BYLAYER
 10
359.8346334878
 20
1163.9411146827
 40
0.9104681702
100
AcDbArc
 50
90.0004837631
 51
91.0800850319
  0
ARC
  5
36B
100
AcDbEntity
  8
0
100
AcDbCircle
 62
7
  6
BYLAYER
 10
358.826792798
 20
1161.8515828529
 40
0.5
100
AcDbArc
 50
91.1642031186
 51
180.0
  0
ARC
  5
36C
100
AcDbEntity
  8
0
100
AcDbCircle
 62
7
  6
BYLAYER
 10
366.3268104604
 20
1161.3515830357
 40
0.4999999534
100
AcDbArc
 50
102.1571786862
 51
282.1569797606
  0
ARC
  5
36D
100
AcDbEntity
  8
0
100
AcDbCircle
 62
7
  6
BYLAYER
 10
382.3267751355
 20
1161.3515830357
 40
0.4999999534
100
AcDbArc
 50
257.8430202394
 51
77.8428213138
  0
ARC
  5
36E
100
AcDbEntity
  8
0
100
AcDbCircle
 62
7
  6
BYLAYER
 10
358.4645466679
 20
1162.259267155
 40
0.3511956123
100
AcDbArc
 50
348.8863826991
 51
357.9822949636
  0
ARC
  5
36F
100
AcDbEntity
  8
0
100
AcDbCircle
 62
7
  6
BYLAYER
 10
378.150032798
 20
1172.5515828529
 40
0.3
100
AcDbArc
 50
0.0
 51
90.0
  0
ARC
  5
370
100
AcDbEntity
  8
0
100
AcDbCircle
 62
7
  6
BYLAYER
 10
370.500032798
 20
1172.5515828529
 40
0.3
100
AcDbArc
 50
90.0
 51
180.0
  0
ARC
  5
371
100
AcDbEntity
  8
0
100
AcDbCircle
 62
7
  6
BYLAYER
 10
401.526792798
 20
1163.9515828529
 40
1.0
100
AcDbArc
 50
90.0
 51
112.3923115549
  0
ARC
  5
372
100
AcDbEntity
  8
0
100
AcDbCircle
 62
7
  6
BYLAYER
 10
407.126792798
 20
1163.9515828529
 40
1.0
100
AcDbArc
 50
0.0
 51
90.0
  0
ARC
  5
373
100
AcDbEntity
  8
0
100
AcDbCircle
 62
7
  6
BYLAYER
 10
402.526792798
 20
1163.9515828529
 40
1.0
100
AcDbArc
 50
90.0
 51
112.3923115549
  0
ARC
  5
374
100
AcDbEntity
  8
0
100
AcDbCircle
 62
7
  6
BYLAYER
 10
406.8381978217
 20
1163.8515828529
 40
1.0
100
AcDbArc
 50
0.0
 51
90.0
  0
ARC
  5
375
100
AcDbEntity
  8
0
100
AcDbCircle
 62
7
  6
BYLAYER
 10
407.326792798
 20
1163.8515828529
 40
1.0
100
AcDbArc
 50
0.0
 51
69.8873089278
  0
ARC
  5
376
100
AcDbEntity
  8
0
100
AcDbCircle
 62
7
  6
BYLAYER
 10
403.326792798
 20
1163.8515828529
 40
1.0
100
AcDbArc
 50
90.0
 51
180.0
  0
ARC
  5
377
100
AcDbEntity
  8
0
100
AcDbCircle
 62
7
  6
BYLAYER
 10
406.8189520349
 20
1163.9402584191
 40
0.9113244338
100
AcDbArc
 50
88.9031685206
 51
89.9995120831
  0
ARC
  5
378
100
AcDbEntity
  8
0
100
AcDbCircle
 62
7
  6
BYLAYER
 10
407.826792798
 20
1161.8515828529
 40
0.5
100
AcDbArc
 50
0.0
 51
88.8357968818
  0
ARC
  5
379
100
AcDbEntity
  8
0
100
AcDbCircle
 62
7
  6
BYLAYER
 10
384.3268104599
 20
1161.3515830359
 40
0.4999999532
100
AcDbArc
 50
102.1804098124
 51
282.180210997
  0
ARC
  5
37A
100
AcDbEntity
  8
0
100
AcDbCircle
 62
7
  6
BYLAYER
 10
400.3267751361
 20
1161.3515830359
 40
0.4999999532
100
AcDbArc
 50
257.819789003
 51
77.8195901876
  0
ARC
  5
37B
100
AcDbEntity
  8
0
100
AcDbCircle
 62
7
  6
BYLAYER
 10
549.1751958755
 20
92.2515828529
 40
1.0
100
AcDbArc
 50
247.6323509959
 51
270.0
  0
ARC
  5
37C
100
AcDbEntity
  8
0
100
AcDbCircle
 62
7
  6
BYLAYER
 10
512.7751958784
 20
92.2515828529
 40
1.0
100
AcDbArc
 50
270.0
 51
292.3676490041
  0
ARC
  5
37D
100
AcDbEntity
  8
0
100
AcDbCircle
 62
7
  6
BYLAYER
 10
550.1756709154
 20
92.2515828529
 40
1.0
100
AcDbArc
 50
247.6323509957
 51
270.0
  0
ARC
  5
37E
100
AcDbEntity
  8
0
100
AcDbCircle
 62
7
  6
BYLAYER
 10
554.7756709154
 20
92.2515828529
 40
1.0
100
AcDbArc
 50
270.0
 51
360.0
  0
ARC
  5
37F
100
AcDbEntity
  8
0
100
AcDbCircle
 62
7
  6
BYLAYER
 10
507.1756709185
 20
92.2515828529
 40
1.0
100
AcDbArc
 50
180.0
 51
270.0
  0
ARC
  5
380
100
AcDbEntity
  8
0
100
AcDbCircle
 62
7
  6
BYLAYER
 10
511.7756709185
 20
92.2515828529
 40
1.0
100
AcDbArc
 50
270.0
 51
292.3676490043
  0
ARC
  5
381
100
AcDbEntity
  8
0
100
AcDbCircle
 62
7
  6
BYLAYER
 10
507.4637908518
 20
92.3514727144
 40
1.0
100
AcDbArc
 50
180.0
 51
270.0
  0
ARC
  5
382
100
AcDbEntity
  8
0
100
AcDbCircle
 62
7
  6
BYLAYER
 10
554.4866008992
 20
92.3514727144
 40
1.0
100
AcDbArc
 50
270.0
 51
360.0
  0
ARC
  5
383
100
AcDbEntity
  8
0
100
AcDbCircle
 62
7
  6
BYLAYER
 10
554.9751958755
 20
92.3514727144
 40
1.0
100
AcDbArc
 50
290.1402792356
 51
360.0
  0
ARC
  5
384
100
AcDbEntity
  8
0
100
AcDbCircle
 62
7
  6
BYLAYER
 10
510.9751958755
 20
92.3514727144
 40
1.0
100
AcDbArc
 50
270.0
 51
360.0
  0
ARC
  5
385
100
AcDbEntity
  8
0
100
AcDbCircle
 62
7
  6
BYLAYER
 10
506.9751958755
 20
92.3514727144
 40
1.0
100
AcDbArc
 50
180.0
 51
249.9315512352
  0
ARC
  5
386
100
AcDbEntity
  8
0
100
AcDbCircle
 62
7
  6
BYLAYER
 10
550.9751958755
 20
92.3514727144
 40
1.0
100
AcDbArc
 50
180.0
 51
270.0
  0
ARC
  5
387
100
AcDbEntity
  8
0
100
AcDbCircle
 62
7
  6
BYLAYER
 10
507.4830366385
 20
92.2627971465
 40
0.9113244322
100
AcDbArc
 50
268.9031685193
 51
269.9995120838
  0
ARC
  5
388
100
AcDbEntity
  8
0
100
AcDbCircle
 62
7
  6
BYLAYER
 10
554.4673551857
 20
92.2619408836
 40
0.9104681692
100
AcDbArc
 50
270.0004837627
 51
271.0800850326
  0
ARC
  5
389
100
AcDbEntity
  8
0
100
AcDbCircle
 62
7
  6
BYLAYER
 10
555.4751958755
 20
94.3514727144
 40
0.5
100
AcDbArc
 50
271.1642031186
 51
360.0
  0
ARC
  5
38A
100
AcDbEntity
  8
0
100
AcDbCircle
 62
7
  6
BYLAYER
 10
506.4751958755
 20
94.3514727144
 40
0.5
100
AcDbArc
 50
180.0
 51
268.8357968818
  0
ARC
  5
38B
100
AcDbEntity
  8
0
100
AcDbCircle
 62
7
  6
BYLAYER
 10
555.8374420053
 20
93.9437884123
 40
0.351195612
100
AcDbArc
 50
168.8863826968
 51
177.9822952052
  0
ARC
  5
38C
100
AcDbEntity
  8
0
100
AcDbCircle
 62
7
  6
BYLAYER
 10
512.7759236865
 20
1163.9515828529
 40
1.0
100
AcDbArc
 50
67.6076884451
 51
90.0
  0
ARC
  5
38D
100
AcDbEntity
  8
0
100
AcDbCircle
 62
7
  6
BYLAYER
 10
511.7759236865
 20
1163.9515828529
 40
1.0
100
AcDbArc
 50
67.6076884451
 51
90.0
  0
ARC
  5
38E
100
AcDbEntity
  8
0
100
AcDbCircle
 62
7
  6
BYLAYER
 10
507.1759236865
 20
1163.9515828529
 40
1.0
100
AcDbArc
 50
90.0
 51
180.0
  0
ARC
  5
38F
100
AcDbEntity
  8
0
100
AcDbCircle
 62
7
  6
BYLAYER
 10
507.4645186628
 20
1163.8515828529
 40
1.0
100
AcDbArc
 50
90.0
 51
180.0
  0
ARC
  5
390
100
AcDbEntity
  8
0
100
AcDbCircle
 62
7
  6
BYLAYER
 10
506.9759236865
 20
1163.8515828529
 40
1.0
100
AcDbArc
 50
110.1126910722
 51
180.0
  0
ARC
  5
391
100
AcDbEntity
  8
0
100
AcDbCircle
 62
7
  6
BYLAYER
 10
510.9759236865
 20
1163.8515828529
 40
1.0
100
AcDbArc
 50
0.0
 51
90.0
  0
ARC
  5
392
100
AcDbEntity
  8
0
100
AcDbCircle
 62
7
  6
BYLAYER
 10
507.4837643763
 20
1163.9411146827
 40
0.9104681702
100
AcDbArc
 50
90.0004837631
 51
91.0800850319
  0
ARC
  5
393
100
AcDbEntity
  8
0
100
AcDbCircle
 62
7
  6
BYLAYER
 10
506.4759236865
 20
1161.8515828529
 40
0.5
100
AcDbArc
 50
91.1642031187
 51
180.0
  0
ARC
  5
394
100
AcDbEntity
  8
0
100
AcDbCircle
 62
7
  6
BYLAYER
 10
513.9759413489
 20
1161.3515830357
 40
0.4999999534
100
AcDbArc
 50
102.1571786862
 51
282.1569797606
  0
ARC
  5
395
100
AcDbEntity
  8
0
100
AcDbCircle
 62
7
  6
BYLAYER
 10
529.9759060241
 20
1161.3515830357
 40
0.4999999534
100
AcDbArc
 50
257.8430202394
 51
77.8428213138
  0
ARC
  5
396
100
AcDbEntity
  8
0
100
AcDbCircle
 62
7
  6
BYLAYER
 10
506.1136775564
 20
1162.259267155
 40
0.3511956123
100
AcDbArc
 50
348.8863826992
 51
357.9822949897
  0
ARC
  5
397
100
AcDbEntity
  8
0
100
AcDbCircle
 62
7
  6
BYLAYER
 10
525.7991636865
 20
1172.5515828529
 40
0.3
100
AcDbArc
 50
0.0
 51
90.0
  0
ARC
  5
398
100
AcDbEntity
  8
0
100
AcDbCircle
 62
7
  6
BYLAYER
 10
518.1491636865
 20
1172.5515828529
 40
0.3
100
AcDbArc
 50
90.0
 51
180.0
  0
ARC
  5
399
100
AcDbEntity
  8
0
100
AcDbCircle
 62
7
  6
BYLAYER
 10
549.1759236865
 20
1163.9515828529
 40
1.0
100
AcDbArc
 50
90.0
 51
112.3923115549
  0
ARC
  5
39A
100
AcDbEntity
  8
0
100
AcDbCircle
 62
7
  6
BYLAYER
 10
554.7759236865
 20
1163.9515828529
 40
1.0
100
AcDbArc
 50
0.0
 51
90.0
  0
ARC
  5
39B
100
AcDbEntity
  8
0
100
AcDbCircle
 62
7
  6
BYLAYER
 10
550.1759236865
 20
1163.9515828529
 40
1.0
100
AcDbArc
 50
90.0
 51
112.3923115549
  0
ARC
  5
39C
100
AcDbEntity
  8
0
100
AcDbCircle
 62
7
  6
BYLAYER
 10
554.4873287102
 20
1163.8515828529
 40
1.0
100
AcDbArc
 50
0.0
 51
90.0
  0
ARC
  5
39D
100
AcDbEntity
  8
0
100
AcDbCircle
 62
7
  6
BYLAYER
 10
554.9759236865
 20
1163.8515828529
 40
1.0
100
AcDbArc
 50
0.0
 51
69.8873089278
  0
ARC
  5
39E
100
AcDbEntity
  8
0
100
AcDbCircle
 62
7
  6
BYLAYER
 10
550.9759236865
 20
1163.8515828529
 40
1.0
100
AcDbArc
 50
90.0
 51
180.0
  0
ARC
  5
39F
100
AcDbEntity
  8
0
100
AcDbCircle
 62
7
  6
BYLAYER
 10
554.4680829234
 20
1163.9402584191
 40
0.9113244338
100
AcDbArc
 50
88.9031685206
 51
89.9995120831
  0
ARC
  5
3A0
100
AcDbEntity
  8
0
100
AcDbCircle
 62
7
  6
BYLAYER
 10
555.4759236865
 20
1161.8515828529
 40
0.5
100
AcDbArc
 50
0.0
 51
88.8357968818
  0
ARC
  5
3A1
100
AcDbEntity
  8
0
100
AcDbCircle
 62
7
  6
BYLAYER
 10
531.9759413484
 20
1161.3515830359
 40
0.4999999532
100
AcDbArc
 50
102.1804098124
 51
282.1802109969
  0
ARC
  5
3A2
100
AcDbEntity
  8
0
100
AcDbCircle
 62
7
  6
BYLAYER
 10
547.9759060246
 20
1161.3515830359
 40
0.4999999532
100
AcDbArc
 50
257.819789003
 51
77.8195901876
  0
SPLINE
  5
3A3
100
AcDbEntity
  8
0
100
AcDbSpline
 62
7
  6
BYLAYER
 70
0
 71
3
 72
11
 73
7
 74
0
 42
0.0000001
 43
0.0000001
 44
0.0000000001
 40
0.0
 40
0.0
 40
0.0
 40
0.0
 40
0.288432907
 40
0.5554725908
 40
0.7902209526
 40
1.0
 40
1.0
 40
1.0
 40
1.0
 10
524.3536997676
 20
1172.5515828529
 30
0.0
 10
524.3536997676
 20
1172.590524519
 30
0.0
 10
524.3433022841
 20
1172.6660148882
 30
0.0
 10
524.2977182934
 20
1172.7644138418
 30
0.0
 10
524.2272692126
 20
1172.8337793935
 30
0.0
 10
524.16651209
 20
1172.8515838182
 30
0.0
 10
524.138189574
 20
1172.8515828529
 30
0.0
  0
SPLINE
  5
3A4
100
AcDbEntity
  8
0
100
AcDbSpline
 62
7
  6
BYLAYER
 70
0
 71
3
 72
11
 73
7
 74
0
 42
0.0000001
 43
0.0000001
 44
0.0000000001
 40
0.0
 40
0.0
 40
0.0
 40
0.0
 40
0.2883671583
 40
0.5553852791
 40
0.7902445524
 40
1.0
 40
1.0
 40
1.0
 40
1.0
 10
525.3436492613
 20
1172.5515828529
 30
0.0
 10
525.3436492613
 20
1172.5905035589
 30
0.0
 10
525.3332096012
 20
1172.665961883
 30
0.0
 10
525.2875372896
 20
1172.7642776657
 30
0.0
 10
525.2171767437
 20
1172.8336548044
 30
0.0
 10
525.1564496081
 20
1172.8515838178
 30
0.0
 10
525.1281390676
 20
1172.8515828529
 30
0.0
  0
SPLINE
  5
3A5
100
AcDbEntity
  8
0
100
AcDbSpline
 62
7
  6
BYLAYER
 70
0
 71
3
 72
9
 73
5
 74
0
 42
0.0000001
 43
0.0000001
 44
0.0000000001
 40
0.0
 40
0.0
 40
0.0
 40
0.0
 40
0.2423551149
 40
1.0
 40
1.0
 40
1.0
 40
1.0
 10
555.4866049106
 20
93.9667852162
 30
0.0
 10
555.4866139292
 20
93.9982708857
 30
0.0
 10
555.481408929
 20
94.1281721659
 30
0.0
 10
555.4564197772
 20
94.256972061
 30
0.0
 10
555.4288867937
 20
94.3514726103
 30
0.0
  0
SPLINE
  5
3A6
100
AcDbEntity
  8
0
100
AcDbSpline
 62
7
  6
BYLAYER
 70
0
 71
3
 72
8
 73
4
 74
0
 42
0.0000001
 43
0.0000001
 44
0.0000000001
 40
0.0
 40
0.0
 40
0.0
 40
0.0
 40
1.0
 40
1.0
 40
1.0
 40
1.0
 10
555.4928324067
 20
94.0114831864
 30
0.0
 10
555.5021292584
 20
94.0590159854
 30
0.0
 10
555.5212802711
 20
94.1054905238
 30
0.0
 10
555.5479344712
 20
94.1459300102
 30
0.0
  0
SPLINE
  5
3A7
100
AcDbEntity
  8
0
100
AcDbSpline
 62
7
  6
BYLAYER
 70
0
 71
3
 72
11
 73
7
 74
0
 42
0.0000001
 43
0.0000001
 44
0.0000000001
 40
0.0
 40
0.0
 40
0.0
 40
0.0
 40
0.2455000837
 40
0.4935877931
 40
0.7454492783
 40
1.0
 40
1.0
 40
1.0
 40
1.0
 10
507.4655919282
 20
91.3516396943
 30
0.0
 10
507.3417400333
 20
91.3540099197
 30
0.0
 10
507.0908875844
 20
91.4102363833
 30
0.0
 10
506.7777123406
 20
91.6353045115
 30
0.0
 10
506.569739098
 20
91.9648983594
 30
0.0
 10
506.5215049303
 20
92.2230313652
 30
0.0
 10
506.5215049303
 20
92.3514727144
 30
0.0
  0
SPLINE
  5
3A8
100
AcDbEntity
  8
0
100
AcDbSpline
 62
7
  6
BYLAYER
 70
0
 71
3
 72
11
 73
7
 74
0
 42
0.0000001
 43
0.0000001
 44
0.0000000001
 40
0.0
 40
0.0
 40
0.0
 40
0.0
 40
0.2370154222
 40
0.4817461593
 40
0.7371748139
 40
1.0
 40
1.0
 40
1.0
 40
1.0
 10
510.633555089
 20
91.3514727144
 30
0.0
 10
510.7504413717
 20
91.3514727144
 30
0.0
 10
510.9909828213
 20
91.4057414496
 30
0.0
 10
511.2877713763
 20
91.6323884686
 30
0.0
 10
511.4830549567
 20
91.9638908221
 30
0.0
 10
511.52798228
 20
92.2218581149
 30
0.0
 10
511.52798228
 20
92.3514727144
 30
0.0
  0
SPLINE
  5
3A9
100
AcDbEntity
  8
0
100
AcDbSpline
 62
7
  6
BYLAYER
 70
0
 71
3
 72
11
 73
7
 74
0
 42
0.0000001
 43
0.0000001
 44
0.0000000001
 40
0.0
 40
0.0
 40
0.0
 40
0.0
 40
0.2429770416
 40
0.4900484521
 40
0.7429376142
 40
1.0
 40
1.0
 40
1.0
 40
1.0
 10
510.9751949986
 20
91.3514727144
 30
0.0
 10
511.0982874677
 20
91.3514798626
 30
0.0
 10
511.3494531609
 20
91.4042281013
 30
0.0
 10
511.6641501536
 20
91.628152214
 30
0.0
 10
511.8737477326
 20
91.9602538597
 30
0.0
 10
511.9224274934
 20
92.2212445923
 30
0.0
 10
511.9224283127
 20
92.3514727144
 30
0.0
  0
SPLINE
  5
3AA
100
AcDbEntity
  8
0
100
AcDbSpline
 62
7
  6
BYLAYER
 70
0
 71
3
 72
11
 73
7
 74
0
 42
0.0000001
 43
0.0000001
 44
0.0000000001
 40
0.0
 40
0.0
 40
0.0
 40
0.0
 40
0.2570642536
 40
0.5099515937
 40
0.7570212812
 40
1.0
 40
1.0
 40
1.0
 40
1.0
 10
550.0279633501
 20
92.3514727144
 30
0.0
 10
550.0279641814
 20
92.221243631
 30
0.0
 10
550.0766441445
 20
91.9602527261
 30
0.0
 10
550.2862419565
 20
91.6281523904
 30
0.0
 10
550.6009375744
 20
91.4042282746
 30
0.0
 10
550.8521034085
 20
91.3514797743
 30
0.0
 10
550.9751967415
 20
91.3514727144
 30
0.0
  0
SPLINE
  5
3AB
100
AcDbEntity
  8
0
100
AcDbSpline
 62
7
  6
BYLAYER
 70
0
 71
3
 72
11
 73
7
 74
0
 42
0.0000001
 43
0.0000001
 44
0.0000000001
 40
0.0
 40
0.0
 40
0.0
 40
0.0
 40
0.2627344212
 40
0.5180975916
 40
0.762900959
 40
1.0
 40
1.0
 40
1.0
 40
1.0
 10
550.422409471
 20
92.3514727144
 30
0.0
 10
550.422409471
 20
92.2219029468
 30
0.0
 10
550.4673055729
 20
91.9640149231
 30
0.0
 10
550.6625062727
 20
91.632519786
 30
0.0
 10
550.9592886165
 20
91.4057818347
 30
0.0
 10
551.1999092054
 20
91.3514727144
 30
0.0
 10
551.316836662
 20
91.3514727144
 30
0.0
  0
SPLINE
  5
3AC
100
AcDbEntity
  8
0
100
AcDbSpline
 62
7
  6
BYLAYER
 70
0
 71
3
 72
11
 73
7
 74
0
 42
0.0000001
 43
0.0000001
 44
0.0000000001
 40
0.0
 40
0.0
 40
0.0
 40
0.0
 40
0.2544641196
 40
0.5062554122
 40
0.7544085347
 40
1.0
 40
1.0
 40
1.0
 40
1.0
 10
555.4288868207
 20
92.3514727144
 30
0.0
 10
555.4288868207
 20
92.2230516618
 30
0.0
 10
555.3806692399
 20
91.9649514408
 30
0.0
 10
555.1727068761
 20
91.6353255978
 30
0.0
 10
554.8594363765
 20
91.4101776238
 30
0.0
 10
554.6084387057
 20
91.353969809
 30
0.0
 10
554.4845174411
 20
91.3516344823
 30
0.0
  0
SPLINE
  5
3AD
100
AcDbEntity
  8
0
100
AcDbSpline
 62
7
  6
BYLAYER
 70
0
 71
3
 72
9
 73
5
 74
0
 42
0.0000001
 43
0.0000001
 44
0.0000000001
 40
0.0
 40
0.0
 40
0.0
 40
0.0
 40
0.2799425407
 40
1.0
 40
1.0
 40
1.0
 40
1.0
 10
555.5479343577
 20
94.1459298047
 30
0.0
 10
555.5529604991
 20
94.1309977787
 30
0.0
 10
555.5684258254
 20
94.077139764
 30
0.0
 10
555.5715381115
 20
94.0177116948
 30
0.0
 10
555.5601041429
 20
93.9788331494
 30
0.0
  0
SPLINE
  5
3AE
100
AcDbEntity
  8
0
100
AcDbSpline
 62
7
  6
BYLAYER
 70
0
 71
3
 72
8
 73
4
 74
0
 42
0.0000001
 43
0.0000001
 44
0.0000000001
 40
0.0
 40
0.0
 40
0.0
 40
0.0
 40
1.0
 40
1.0
 40
1.0
 40
1.0
 10
555.5601041429
 20
93.9788331494
 30
0.0
 10
555.5551100389
 20
93.9618518627
 30
0.0
 10
555.5474240844
 20
93.945417655
 30
0.0
 10
555.5373946385
 20
93.9308328894
 30
0.0
  0
SPLINE
  5
3AF
100
AcDbEntity
  8
0
100
AcDbSpline
 62
7
  6
BYLAYER
 70
0
 71
3
 72
8
 73
4
 74
0
 42
0.0000001
 43
0.0000001
 44
0.0000000001
 40
0.0
 40
0.0
 40
0.0
 40
0.0
 40
1.0
 40
1.0
 40
1.0
 40
1.0
 10
555.5373946385
 20
93.9308328894
 30
0.0
 10
555.5243547074
 20
93.9118702927
 30
0.0
 10
555.5067801888
 20
93.8955267095
 30
0.0
 10
555.4872077856
 20
93.8834213013
 30
0.0
  0
SPLINE
  5
3B0
100
AcDbEntity
  8
0
100
AcDbSpline
 62
7
  6
BYLAYER
 70
0
 71
3
 72
8
 73
4
 74
0
 42
0.0000001
 43
0.0000001
 44
0.0000000001
 40
0.0
 40
0.0
 40
0.0
 40
0.0
 40
1.0
 40
1.0
 40
1.0
 40
1.0
 10
555.5904353519
 20
94.3514727144
 30
0.0
 10
555.5904353519
 20
94.2815091302
 30
0.0
 10
555.5757669276
 20
94.2101192422
 30
0.0
 10
555.5479344712
 20
94.1459300104
 30
0.0
  0
SPLINE
  5
3B1
100
AcDbEntity
  8
0
100
AcDbSpline
 62
7
  6
BYLAYER
 70
0
 71
3
 72
9
 73
5
 74
0
 42
0.0000001
 43
0.0000001
 44
0.0000000001
 40
0.0
 40
0.0
 40
0.0
 40
0.0
 40
0.2703934266
 40
1.0
 40
1.0
 40
1.0
 40
1.0
 10
555.4288868207
 20
94.3514727144
 30
0.0
 10
555.4420511371
 20
94.3345353834
 30
0.0
 10
555.4887500168
 20
94.2704571836
 30
0.0
 10
555.5277545241
 20
94.200181648
 30
0.0
 10
555.5479344712
 20
94.1459300104
 30
0.0
  0
SPLINE
  5
3B2
100
AcDbEntity
  8
0
100
AcDbSpline
 62
7
  6
BYLAYER
 70
0
 71
3
 72
11
 73
7
 74
0
 42
0.0000001
 43
0.0000001
 44
0.0000000001
 40
0.0
 40
0.0
 40
0.0
 40
0.0
 40
0.2454646712
 40
0.49351694
 40
0.7453862235
 40
1.0
 40
1.0
 40
1.0
 40
1.0
 10
553.4281169976
 20
91.3514727144
 30
0.0
 10
553.5533723145
 20
91.3514727144
 30
0.0
 10
553.8081223572
 20
91.4042098293
 30
0.0
 10
554.1275988963
 20
91.628281936
 30
0.0
 10
554.3402685229
 20
91.9604026302
 30
0.0
 10
554.3896409452
 20
92.2215488068
 30
0.0
 10
554.3896409452
 20
92.3514727144
 30
0.0
  0
SPLINE
  5
3B3
100
AcDbEntity
  8
0
100
AcDbSpline
 62
7
  6
BYLAYER
 70
0
 71
3
 72
9
 73
5
 74
0
 42
0.0000001
 43
0.0000001
 44
0.0000000001
 40
0.0
 40
0.0
 40
0.0
 40
0.0
 40
0.2581441244
 40
1.0
 40
1.0
 40
1.0
 40
1.0
 10
506.5215049681
 20
94.3514725686
 30
0.0
 10
506.5121253608
 20
94.3192792461
 30
0.0
 10
506.4797439918
 20
94.193492282
 30
0.0
 10
506.4637603754
 20
94.0631628749
 30
0.0
 10
506.4637868387
 20
93.966798791
 30
0.0
  0
SPLINE
  5
3B4
100
AcDbEntity
  8
0
100
AcDbSpline
 62
7
  6
BYLAYER
 70
0
 71
3
 72
8
 73
4
 74
0
 42
0.0000001
 43
0.0000001
 44
0.0000000001
 40
0.0
 40
0.0
 40
0.0
 40
0.0
 40
1.0
 40
1.0
 40
1.0
 40
1.0
 10
506.4024572797
 20
94.1459300103
 30
0.0
 10
506.4371669004
 20
94.0932689201
 30
0.0
 10
506.4592706922
 20
94.0297348272
 30
0.0
 10
506.4633965487
 20
93.9667989431
 30
0.0
  0
SPLINE
  5
3B5
100
AcDbEntity
  8
0
100
AcDbSpline
 62
7
  6
BYLAYER
 70
0
 71
3
 72
9
 73
5
 74
0
 42
0.0000001
 43
0.0000001
 44
0.0000000001
 40
0.0
 40
0.0
 40
0.0
 40
0.0
 40
0.27038548
 40
1.0
 40
1.0
 40
1.0
 40
1.0
 10
506.5215049303
 20
94.3514727144
 30
0.0
 10
506.5083409817
 20
94.334535864
 30
0.0
 10
506.4616377806
 20
94.2704606292
 30
0.0
 10
506.4226374779
 20
94.2001823001
 30
0.0
 10
506.4024572798
 20
94.1459300104
 30
0.0
  0
SPLINE
  5
3B6
100
AcDbEntity
  8
0
100
AcDbSpline
 62
7
  6
BYLAYER
 70
0
 71
3
 72
8
 73
4
 74
0
 42
0.0000001
 43
0.0000001
 44
0.0000000001
 40
0.0
 40
0.0
 40
0.0
 40
0.0
 40
1.0
 40
1.0
 40
1.0
 40
1.0
 10
506.4024572798
 20
94.1459300104
 30
0.0
 10
506.3746248234
 20
94.2101192422
 30
0.0
 10
506.3599563991
 20
94.2815091302
 30
0.0
 10
506.3599563991
 20
94.3514727144
 30
0.0
  0
SPLINE
  5
3B7
100
AcDbEntity
  8
0
100
AcDbSpline
 62
7
  6
BYLAYER
 70
0
 71
3
 72
9
 73
5
 74
0
 42
0.0000001
 43
0.0000001
 44
0.0000000001
 40
0.0
 40
0.0
 40
0.0
 40
0.0
 40
0.2666839678
 40
1.0
 40
1.0
 40
1.0
 40
1.0
 10
506.4637398175
 20
93.8830788782
 30
0.0
 10
506.454508453
 20
93.8887431485
 30
0.0
 10
506.4217041311
 20
93.9129263999
 30
0.0
 10
506.3989157145
 20
93.949798293
 30
0.0
 10
506.3904316904
 20
93.978345817
 30
0.0
  0
SPLINE
  5
3B8
100
AcDbEntity
  8
0
100
AcDbSpline
 62
7
  6
BYLAYER
 70
0
 71
3
 72
9
 73
5
 74
0
 42
0.0000001
 43
0.0000001
 44
0.0000000001
 40
0.0
 40
0.0
 40
0.0
 40
0.0
 40
0.2268944865
 40
1.0
 40
1.0
 40
1.0
 40
1.0
 10
506.3904316904
 20
93.978345817
 30
0.0
 10
506.3867763149
 20
93.9906456312
 30
0.0
 10
506.3766036846
 20
94.0467036679
 30
0.0
 10
506.3885097274
 20
94.1044930331
 30
0.0
 10
506.4024573991
 20
94.1459297939
 30
0.0
  0
SPLINE
  5
3B9
100
AcDbEntity
  8
0
100
AcDbSpline
 62
7
  6
BYLAYER
 70
0
 71
3
 72
11
 73
7
 74
0
 42
0.0000001
 43
0.0000001
 44
0.0000000001
 40
0.0
 40
0.0
 40
0.0
 40
0.0
 40
0.2545253123
 40
0.5063269197
 40
0.7544493833
 40
1.0
 40
1.0
 40
1.0
 40
1.0
 10
507.5607508057
 20
92.3514727144
 30
0.0
 10
507.5607508057
 20
92.221593973
 30
0.0
 10
507.6100881973
 20
91.9605298569
 30
0.0
 10
507.8226687204
 20
91.6284123603
 30
0.0
 10
508.1421435307
 20
91.4042481917
 30
0.0
 10
508.3969756043
 20
91.3514727144
 30
0.0
 10
508.5222747533
 20
91.3514727144
 30
0.0
  0
SPLINE
  5
3BA
100
AcDbEntity
  8
0
100
AcDbSpline
 62
7
  6
BYLAYER
 70
0
 71
3
 72
9
 73
5
 74
0
 42
0.0000001
 43
0.0000001
 44
0.0000000001
 40
0.0
 40
0.0
 40
0.0
 40
0.0
 40
0.2423551149
 40
1.0
 40
1.0
 40
1.0
 40
1.0
 10
407.8374740221
 20
93.9667852162
 30
0.0
 10
407.8374830407
 20
93.9982708858
 30
0.0
 10
407.8322780405
 20
94.1281721659
 30
0.0
 10
407.8072888887
 20
94.256972061
 30
0.0
 10
407.7797559052
 20
94.3514726103
 30
0.0
  0
SPLINE
  5
3BB
100
AcDbEntity
  8
0
100
AcDbSpline
 62
7
  6
BYLAYER
 70
0
 71
3
 72
8
 73
4
 74
0
 42
0.0000001
 43
0.0000001
 44
0.0000000001
 40
0.0
 40
0.0
 40
0.0
 40
0.0
 40
1.0
 40
1.0
 40
1.0
 40
1.0
 10
407.8437015181
 20
94.0114831864
 30
0.0
 10
407.8529983699
 20
94.0590159854
 30
0.0
 10
407.8721493826
 20
94.1054905238
 30
0.0
 10
407.8988035827
 20
94.1459300102
 30
0.0
  0
SPLINE
  5
3BC
100
AcDbEntity
  8
0
100
AcDbSpline
 62
7
  6
BYLAYER
 70
0
 71
3
 72
11
 73
7
 74
0
 42
0.0000001
 43
0.0000001
 44
0.0000000001
 40
0.0
 40
0.0
 40
0.0
 40
0.0
 40
0.2455000837
 40
0.4935877931
 40
0.7454492783
 40
1.0
 40
1.0
 40
1.0
 40
1.0
 10
359.8164610397
 20
91.3516396943
 30
0.0
 10
359.6926091448
 20
91.3540099197
 30
0.0
 10
359.4417566959
 20
91.4102363833
 30
0.0
 10
359.1285814521
 20
91.6353045115
 30
0.0
 10
358.9206082095
 20
91.9648983594
 30
0.0
 10
358.8723740418
 20
92.2230313652
 30
0.0
 10
358.8723740418
 20
92.3514727144
 30
0.0
  0
SPLINE
  5
3BD
100
AcDbEntity
  8
0
100
AcDbSpline
 62
7
  6
BYLAYER
 70
0
 71
3
 72
11
 73
7
 74
0
 42
0.0000001
 43
0.0000001
 44
0.0000000001
 40
0.0
 40
0.0
 40
0.0
 40
0.0
 40
0.2370154222
 40
0.4817461593
 40
0.7371748139
 40
1.0
 40
1.0
 40
1.0
 40
1.0
 10
362.9844242005
 20
91.3514727144
 30
0.0
 10
363.1013104832
 20
91.3514727144
 30
0.0
 10
363.3418519328
 20
91.4057414496
 30
0.0
 10
363.6386404878
 20
91.6323884686
 30
0.0
 10
363.8339240682
 20
91.9638908221
 30
0.0
 10
363.8788513915
 20
92.2218581149
 30
0.0
 10
363.8788513915
 20
92.3514727144
 30
0.0
  0
SPLINE
  5
3BE
100
AcDbEntity
  8
0
100
AcDbSpline
 62
7
  6
BYLAYER
 70
0
 71
3
 72
11
 73
7
 74
0
 42
0.0000001
 43
0.0000001
 44
0.0000000001
 40
0.0
 40
0.0
 40
0.0
 40
0.0
 40
0.2429770416
 40
0.4900484521
 40
0.7429376142
 40
1.0
 40
1.0
 40
1.0
 40
1.0
 10
363.3260641101
 20
91.3514727144
 30
0.0
 10
363.4491565792
 20
91.3514798626
 30
0.0
 10
363.7003222724
 20
91.4042281013
 30
0.0
 10
364.0150192651
 20
91.628152214
 30
0.0
 10
364.2246168441
 20
91.9602538597
 30
0.0
 10
364.2732966049
 20
92.2212445923
 30
0.0
 10
364.2732974242
 20
92.3514727144
 30
0.0
  0
SPLINE
  5
3BF
100
AcDbEntity
  8
0
100
AcDbSpline
 62
7
  6
BYLAYER
 70
0
 71
3
 72
11
 73
7
 74
0
 42
0.0000001
 43
0.0000001
 44
0.0000000001
 40
0.0
 40
0.0
 40
0.0
 40
0.0
 40
0.2570642536
 40
0.5099515937
 40
0.7570212812
 40
1.0
 40
1.0
 40
1.0
 40
1.0
 10
402.3788324616
 20
92.3514727144
 30
0.0
 10
402.3788332929
 20
92.221243631
 30
0.0
 10
402.4275132559
 20
91.9602527261
 30
0.0
 10
402.637111068
 20
91.6281523904
 30
0.0
 10
402.9518066859
 20
91.4042282746
 30
0.0
 10
403.20297252
 20
91.3514797743
 30
0.0
 10
403.326065853
 20
91.3514727144
 30
0.0
  0
SPLINE
  5
3C0
100
AcDbEntity
  8
0
100
AcDbSpline
 62
7
  6
BYLAYER
 70
0
 71
3
 72
11
 73
7
 74
0
 42
0.0000001
 43
0.0000001
 44
0.0000000001
 40
0.0
 40
0.0
 40
0.0
 40
0.0
 40
0.2627344212
 40
0.5180975916
 40
0.762900959
 40
1.0
 40
1.0
 40
1.0
 40
1.0
 10
402.7732785825
 20
92.3514727144
 30
0.0
 10
402.7732785825
 20
92.2219029468
 30
0.0
 10
402.8181746844
 20
91.9640149231
 30
0.0
 10
403.0133753842
 20
91.632519786
 30
0.0
 10
403.310157728
 20
91.4057818347
 30
0.0
 10
403.5507783169
 20
91.3514727144
 30
0.0
 10
403.6677057735
 20
91.3514727144
 30
0.0
  0
SPLINE
  5
3C1
100
AcDbEntity
  8
0
100
AcDbSpline
 62
7
  6
BYLAYER
 70
0
 71
3
 72
11
 73
7
 74
0
 42
0.0000001
 43
0.0000001
 44
0.0000000001
 40
0.0
 40
0.0
 40
0.0
 40
0.0
 40
0.2544641196
 40
0.5062554122
 40
0.7544085347
 40
1.0
 40
1.0
 40
1.0
 40
1.0
 10
407.7797559321
 20
92.3514727144
 30
0.0
 10
407.7797559321
 20
92.2230516618
 30
0.0
 10
407.7315383514
 20
91.9649514408
 30
0.0
 10
407.5235759876
 20
91.6353255978
 30
0.0
 10
407.210305488
 20
91.4101776238
 30
0.0
 10
406.9593078172
 20
91.353969809
 30
0.0
 10
406.8353865526
 20
91.3516344823
 30
0.0
  0
SPLINE
  5
3C2
100
AcDbEntity
  8
0
100
AcDbSpline
 62
7
  6
BYLAYER
 70
0
 71
3
 72
9
 73
5
 74
0
 42
0.0000001
 43
0.0000001
 44
0.0000000001
 40
0.0
 40
0.0
 40
0.0
 40
0.0
 40
0.2799425407
 40
1.0
 40
1.0
 40
1.0
 40
1.0
 10
407.8988034692
 20
94.1459298047
 30
0.0
 10
407.9038296105
 20
94.1309977787
 30
0.0
 10
407.9192949368
 20
94.077139764
 30
0.0
 10
407.9224072229
 20
94.0177116948
 30
0.0
 10
407.9109732544
 20
93.9788331494
 30
0.0
  0
SPLINE
  5
3C3
100
AcDbEntity
  8
0
100
AcDbSpline
 62
7
  6
BYLAYER
 70
0
 71
3
 72
8
 73
4
 74
0
 42
0.0000001
 43
0.0000001
 44
0.0000000001
 40
0.0
 40
0.0
 40
0.0
 40
0.0
 40
1.0
 40
1.0
 40
1.0
 40
1.0
 10
407.9109732544
 20
93.9788331494
 30
0.0
 10
407.9059791504
 20
93.9618518627
 30
0.0
 10
407.8982931959
 20
93.945417655
 30
0.0
 10
407.88826375
 20
93.9308328894
 30
0.0
  0
SPLINE
  5
3C4
100
AcDbEntity
  8
0
100
AcDbSpline
 62
7
  6
BYLAYER
 70
0
 71
3
 72
8
 73
4
 74
0
 42
0.0000001
 43
0.0000001
 44
0.0000000001
 40
0.0
 40
0.0
 40
0.0
 40
0.0
 40
1.0
 40
1.0
 40
1.0
 40
1.0
 10
407.88826375
 20
93.9308328894
 30
0.0
 10
407.8752238189
 20
93.9118702927
 30
0.0
 10
407.8576493003
 20
93.8955267095
 30
0.0
 10
407.8380768971
 20
93.8834213013
 30
0.0
  0
SPLINE
  5
3C5
100
AcDbEntity
  8
0
100
AcDbSpline
 62
7
  6
BYLAYER
 70
0
 71
3
 72
8
 73
4
 74
0
 42
0.0000001
 43
0.0000001
 44
0.0000000001
 40
0.0
 40
0.0
 40
0.0
 40
0.0
 40
1.0
 40
1.0
 40
1.0
 40
1.0
 10
407.9413044634
 20
94.3514727144
 30
0.0
 10
407.9413044634
 20
94.2815091302
 30
0.0
 10
407.926636039
 20
94.2101192422
 30
0.0
 10
407.8988035827
 20
94.1459300104
 30
0.0
  0
SPLINE
  5
3C6
100
AcDbEntity
  8
0
100
AcDbSpline
 62
7
  6
BYLAYER
 70
0
 71
3
 72
9
 73
5
 74
0
 42
0.0000001
 43
0.0000001
 44
0.0000000001
 40
0.0
 40
0.0
 40
0.0
 40
0.0
 40
0.2703934266
 40
1.0
 40
1.0
 40
1.0
 40
1.0
 10
407.7797559321
 20
94.3514727144
 30
0.0
 10
407.7929202486
 20
94.3345353834
 30
0.0
 10
407.8396191283
 20
94.2704571836
 30
0.0
 10
407.8786236355
 20
94.200181648
 30
0.0
 10
407.8988035827
 20
94.1459300104
 30
0.0
  0
SPLINE
  5
3C7
100
AcDbEntity
  8
0
100
AcDbSpline
 62
7
  6
BYLAYER
 70
0
 71
3
 72
11
 73
7
 74
0
 42
0.0000001
 43
0.0000001
 44
0.0000000001
 40
0.0
 40
0.0
 40
0.0
 40
0.0
 40
0.2454646712
 40
0.49351694
 40
0.7453862235
 40
1.0
 40
1.0
 40
1.0
 40
1.0
 10
405.7789861091
 20
91.3514727144
 30
0.0
 10
405.904241426
 20
91.3514727144
 30
0.0
 10
406.1589914687
 20
91.4042098293
 30
0.0
 10
406.4784680077
 20
91.628281936
 30
0.0
 10
406.6911376343
 20
91.9604026302
 30
0.0
 10
406.7405100567
 20
92.2215488068
 30
0.0
 10
406.7405100567
 20
92.3514727144
 30
0.0
  0
SPLINE
  5
3C8
100
AcDbEntity
  8
0
100
AcDbSpline
 62
7
  6
BYLAYER
 70
0
 71
3
 72
9
 73
5
 74
0
 42
0.0000001
 43
0.0000001
 44
0.0000000001
 40
0.0
 40
0.0
 40
0.0
 40
0.0
 40
0.2581441244
 40
1.0
 40
1.0
 40
1.0
 40
1.0
 10
358.8723740795
 20
94.3514725686
 30
0.0
 10
358.8629944722
 20
94.3192792459
 30
0.0
 10
358.8306131032
 20
94.1934922814
 30
0.0
 10
358.8146294868
 20
94.0631628737
 30
0.0
 10
358.8146559502
 20
93.9667987894
 30
0.0
  0
SPLINE
  5
3C9
100
AcDbEntity
  8
0
100
AcDbSpline
 62
7
  6
BYLAYER
 70
0
 71
3
 72
8
 73
4
 74
0
 42
0.0000001
 43
0.0000001
 44
0.0000000001
 40
0.0
 40
0.0
 40
0.0
 40
0.0
 40
1.0
 40
1.0
 40
1.0
 40
1.0
 10
358.7533263912
 20
94.1459300103
 30
0.0
 10
358.7880360122
 20
94.0932689197
 30
0.0
 10
358.810139804
 20
94.0297348261
 30
0.0
 10
358.8142656602
 20
93.9667989416
 30
0.0
  0
SPLINE
  5
3CA
100
AcDbEntity
  8
0
100
AcDbSpline
 62
7
  6
BYLAYER
 70
0
 71
3
 72
9
 73
5
 74
0
 42
0.0000001
 43
0.0000001
 44
0.0000000001
 40
0.0
 40
0.0
 40
0.0
 40
0.0
 40
0.27038548
 40
1.0
 40
1.0
 40
1.0
 40
1.0
 10
358.8723740418
 20
94.3514727144
 30
0.0
 10
358.8592100932
 20
94.334535864
 30
0.0
 10
358.8125068921
 20
94.2704606292
 30
0.0
 10
358.7735065894
 20
94.2001823001
 30
0.0
 10
358.7533263913
 20
94.1459300104
 30
0.0
  0
SPLINE
  5
3CB
100
AcDbEntity
  8
0
100
AcDbSpline
 62
7
  6
BYLAYER
 70
0
 71
3
 72
8
 73
4
 74
0
 42
0.0000001
 43
0.0000001
 44
0.0000000001
 40
0.0
 40
0.0
 40
0.0
 40
0.0
 40
1.0
 40
1.0
 40
1.0
 40
1.0
 10
358.7533263913
 20
94.1459300104
 30
0.0
 10
358.7254939349
 20
94.2101192422
 30
0.0
 10
358.7108255106
 20
94.2815091302
 30
0.0
 10
358.7108255106
 20
94.3514727144
 30
0.0
  0
SPLINE
  5
3CC
100
AcDbEntity
  8
0
100
AcDbSpline
 62
7
  6
BYLAYER
 70
0
 71
3
 72
9
 73
5
 74
0
 42
0.0000001
 43
0.0000001
 44
0.0000000001
 40
0.0
 40
0.0
 40
0.0
 40
0.0
 40
0.2666839678
 40
1.0
 40
1.0
 40
1.0
 40
1.0
 10
358.814608929
 20
93.8830788782
 30
0.0
 10
358.8053775644
 20
93.8887431485
 30
0.0
 10
358.7725732426
 20
93.9129263999
 30
0.0
 10
358.749784826
 20
93.949798293
 30
0.0
 10
358.7413008019
 20
93.978345817
 30
0.0
  0
SPLINE
  5
3CD
100
AcDbEntity
  8
0
100
AcDbSpline
 62
7
  6
BYLAYER
 70
0
 71
3
 72
9
 73
5
 74
0
 42
0.0000001
 43
0.0000001
 44
0.0000000001
 40
0.0
 40
0.0
 40
0.0
 40
0.0
 40
0.2268944865
 40
1.0
 40
1.0
 40
1.0
 40
1.0
 10
358.7413008019
 20
93.978345817
 30
0.0
 10
358.7376454264
 20
93.9906456312
 30
0.0
 10
358.7274727961
 20
94.0467036679
 30
0.0
 10
358.7393788389
 20
94.1044930331
 30
0.0
 10
358.7533265106
 20
94.1459297939
 30
0.0
  0
SPLINE
  5
3CE
100
AcDbEntity
  8
0
100
AcDbSpline
 62
7
  6
BYLAYER
 70
0
 71
3
 72
11
 73
7
 74
0
 42
0.0000001
 43
0.0000001
 44
0.0000000001
 40
0.0
 40
0.0
 40
0.0
 40
0.0
 40
0.2545253123
 40
0.5063269197
 40
0.7544493833
 40
1.0
 40
1.0
 40
1.0
 40
1.0
 10
359.9116199172
 20
92.3514727144
 30
0.0
 10
359.9116199172
 20
92.221593973
 30
0.0
 10
359.9609573088
 20
91.9605298569
 30
0.0
 10
360.1735378319
 20
91.6284123603
 30
0.0
 10
360.4930126422
 20
91.4042481917
 30
0.0
 10
360.7478447158
 20
91.3514727144
 30
0.0
 10
360.8731438648
 20
91.3514727144
 30
0.0
  0
SPLINE
  5
3CF
100
AcDbEntity
  8
0
100
AcDbSpline
 62
7
  6
BYLAYER
 70
0
 71
3
 72
8
 73
4
 74
0
 42
0.0000001
 43
0.0000001
 44
0.0000000001
 40
0.0
 40
0.0
 40
0.0
 40
0.0
 40
1.0
 40
1.0
 40
1.0
 40
1.0
 10
358.8091562668
 20
1162.1915723809
 30
0.0
 10
358.7998594151
 20
1162.1440395818
 30
0.0
 10
358.7807084023
 20
1162.0975650434
 30
0.0
 10
358.7540542022
 20
1162.057125557
 30
0.0
  0
SPLINE
  5
3D0
100
AcDbEntity
  8
0
100
AcDbSpline
 62
7
  6
BYLAYER
 70
0
 71
3
 72
9
 73
5
 74
0
 42
0.0000001
 43
0.0000001
 44
0.0000000001
 40
0.0
 40
0.0
 40
0.0
 40
0.0
 40
0.2581441241
 40
1.0
 40
1.0
 40
1.0
 40
1.0
 10
407.7804837054
 20
1161.8515829987
 30
0.0
 10
407.7898633124
 20
1161.8837763203
 30
0.0
 10
407.8222446807
 20
1162.0095632812
 30
0.0
 10
407.8382282972
 20
1162.1398926848
 30
0.0
 10
407.8382018347
 20
1162.2362567663
 30
0.0
  0
SPLINE
  5
3D1
100
AcDbEntity
  8
0
100
AcDbSpline
 62
7
  6
BYLAYER
 70
0
 71
3
 72
8
 73
4
 74
0
 42
0.0000001
 43
0.0000001
 44
0.0000000001
 40
0.0
 40
0.0
 40
0.0
 40
0.0
 40
1.0
 40
1.0
 40
1.0
 40
1.0
 10
407.8995313937
 20
1162.057125557
 30
0.0
 10
407.8648217748
 20
1162.1097866445
 30
0.0
 10
407.8427179835
 20
1162.1733207335
 30
0.0
 10
407.8385921255
 20
1162.2362566142
 30
0.0
  0
SPLINE
  5
3D2
100
AcDbEntity
  8
0
100
AcDbSpline
 62
7
  6
BYLAYER
 70
0
 71
3
 72
9
 73
5
 74
0
 42
0.0000001
 43
0.0000001
 44
0.0000000001
 40
0.0
 40
0.0
 40
0.0
 40
0.0
 40
0.27038548
 40
1.0
 40
1.0
 40
1.0
 40
1.0
 10
407.7804837432
 20
1161.8515828529
 30
0.0
 10
407.7936476918
 20
1161.8685197033
 30
0.0
 10
407.8403508929
 20
1161.9325949381
 30
0.0
 10
407.8793511956
 20
1162.0028732672
 30
0.0
 10
407.8995313937
 20
1162.0571255569
 30
0.0
  0
SPLINE
  5
3D3
100
AcDbEntity
  8
0
100
AcDbSpline
 62
7
  6
BYLAYER
 70
0
 71
3
 72
9
 73
5
 74
0
 42
0.0000001
 43
0.0000001
 44
0.0000000001
 40
0.0
 40
0.0
 40
0.0
 40
0.0
 40
0.2666839678
 40
1.0
 40
1.0
 40
1.0
 40
1.0
 10
407.838248856
 20
1162.319976689
 30
0.0
 10
407.8474802205
 20
1162.3143124188
 30
0.0
 10
407.8802845424
 20
1162.2901291673
 30
0.0
 10
407.903072959
 20
1162.2532572743
 30
0.0
 10
407.9115569831
 20
1162.2247097502
 30
0.0
  0
SPLINE
  5
3D4
100
AcDbEntity
  8
0
100
AcDbSpline
 62
7
  6
BYLAYER
 70
0
 71
3
 72
9
 73
5
 74
0
 42
0.0000001
 43
0.0000001
 44
0.0000000001
 40
0.0
 40
0.0
 40
0.0
 40
0.0
 40
0.2268944865
 40
1.0
 40
1.0
 40
1.0
 40
1.0
 10
407.9115569831
 20
1162.2247097502
 30
0.0
 10
407.9152123586
 20
1162.2124099361
 30
0.0
 10
407.9253849888
 20
1162.1563518994
 30
0.0
 10
407.9134789461
 20
1162.0985625341
 30
0.0
 10
407.8995312743
 20
1162.0571257733
 30
0.0
  0
SPLINE
  5
3D5
100
AcDbEntity
  8
0
100
AcDbSpline
 62
7
  6
BYLAYER
 70
0
 71
3
 72
8
 73
4
 74
0
 42
0.0000001
 43
0.0000001
 44
0.0000000001
 40
0.0
 40
0.0
 40
0.0
 40
0.0
 40
1.0
 40
1.0
 40
1.0
 40
1.0
 10
407.8995313937
 20
1162.0571255569
 30
0.0
 10
407.9273638501
 20
1161.992936325
 30
0.0
 10
407.9420322744
 20
1161.9215464371
 30
0.0
 10
407.9420322744
 20
1161.8515828529
 30
0.0
  0
SPLINE
  5
3D6
100
AcDbEntity
  8
0
100
AcDbSpline
 62
7
  6
BYLAYER
 70
0
 71
3
 72
9
 73
5
 74
0
 42
0.0000001
 43
0.0000001
 44
0.0000000001
 40
0.0
 40
0.0
 40
0.0
 40
0.0
 40
0.242355115
 40
1.0
 40
1.0
 40
1.0
 40
1.0
 10
358.8153837628
 20
1162.2362703503
 30
0.0
 10
358.8153747443
 20
1162.2047846808
 30
0.0
 10
358.8205797445
 20
1162.0748834009
 30
0.0
 10
358.8455688963
 20
1161.9460835061
 30
0.0
 10
358.8731018798
 20
1161.8515829569
 30
0.0
  0
SPLINE
  5
3D7
100
AcDbEntity
  8
0
100
AcDbSpline
 62
7
  6
BYLAYER
 70
0
 71
3
 72
11
 73
7
 74
0
 42
0.0000001
 43
0.0000001
 44
0.0000000001
 40
0.0
 40
0.0
 40
0.0
 40
0.0
 40
0.2545253123
 40
0.5063269197
 40
0.7544493833
 40
1.0
 40
1.0
 40
1.0
 40
1.0
 10
406.7412378678
 20
1163.8515828529
 30
0.0
 10
406.7412378678
 20
1163.9814615942
 30
0.0
 10
406.6919004761
 20
1164.2425257103
 30
0.0
 10
406.4793199531
 20
1164.5746432069
 30
0.0
 10
406.1598451427
 20
1164.7988073756
 30
0.0
 10
405.9050130692
 20
1164.8515828529
 30
0.0
 10
405.7797139201
 20
1164.8515828529
 30
0.0
  0
SPLINE
  5
3D8
100
AcDbEntity
  8
0
100
AcDbSpline
 62
7
  6
BYLAYER
 70
0
 71
3
 72
9
 73
5
 74
0
 42
0.0000001
 43
0.0000001
 44
0.0000000001
 40
0.0
 40
0.0
 40
0.0
 40
0.0
 40
0.2799425408
 40
1.0
 40
1.0
 40
1.0
 40
1.0
 10
358.7540543157
 20
1162.0571257626
 30
0.0
 10
358.7490281744
 20
1162.0720577885
 30
0.0
 10
358.7335628481
 20
1162.1259158032
 30
0.0
 10
358.730450562
 20
1162.1853438725
 30
0.0
 10
358.7418845306
 20
1162.2242224179
 30
0.0
  0
SPLINE
  5
3D9
100
AcDbEntity
  8
0
100
AcDbSpline
 62
7
  6
BYLAYER
 70
0
 71
3
 72
8
 73
4
 74
0
 42
0.0000001
 43
0.0000001
 44
0.0000000001
 40
0.0
 40
0.0
 40
0.0
 40
0.0
 40
1.0
 40
1.0
 40
1.0
 40
1.0
 10
358.7418845306
 20
1162.2242224179
 30
0.0
 10
358.7468786346
 20
1162.2412037046
 30
0.0
 10
358.7545645891
 20
1162.2576379123
 30
0.0
 10
358.764594035
 20
1162.2722226778
 30
0.0
  0
SPLINE
  5
3DA
100
AcDbEntity
  8
0
100
AcDbSpline
 62
7
  6
BYLAYER
 70
0
 71
3
 72
8
 73
4
 74
0
 42
0.0000001
 43
0.0000001
 44
0.0000000001
 40
0.0
 40
0.0
 40
0.0
 40
0.0
 40
1.0
 40
1.0
 40
1.0
 40
1.0
 10
358.764594035
 20
1162.2722226778
 30
0.0
 10
358.777633966
 20
1162.2911852746
 30
0.0
 10
358.7952084846
 20
1162.3075288577
 30
0.0
 10
358.8147808879
 20
1162.319634266
 30
0.0
  0
SPLINE
  5
3DB
100
AcDbEntity
  8
0
100
AcDbSpline
 62
7
  6
BYLAYER
 70
0
 71
3
 72
11
 73
7
 74
0
 42
0.0000001
 43
0.0000001
 44
0.0000000001
 40
0.0
 40
0.0
 40
0.0
 40
0.0
 40
0.2454646712
 40
0.49351694
 40
0.7453862235
 40
1.0
 40
1.0
 40
1.0
 40
1.0
 10
360.8738716759
 20
1164.8515828529
 30
0.0
 10
360.748616359
 20
1164.8515828529
 30
0.0
 10
360.4938663163
 20
1164.798845738
 30
0.0
 10
360.1743897772
 20
1164.5747736312
 30
0.0
 10
359.9617201506
 20
1164.242652937
 30
0.0
 10
359.9123477282
 20
1163.9815067605
 30
0.0
 10
359.9123477282
 20
1163.8515828529
 30
0.0
  0
SPLINE
  5
3DC
100
AcDbEntity
  8
0
100
AcDbSpline
 62
7
  6
BYLAYER
 70
0
 71
3
 72
9
 73
5
 74
0
 42
0.0000001
 43
0.0000001
 44
0.0000000001
 40
0.0
 40
0.0
 40
0.0
 40
0.0
 40
0.2703934266
 40
1.0
 40
1.0
 40
1.0
 40
1.0
 10
358.8731018528
 20
1161.8515828529
 30
0.0
 10
358.8599375364
 20
1161.8685201838
 30
0.0
 10
358.8132386566
 20
1161.9325983837
 30
0.0
 10
358.7742341494
 20
1162.0028739193
 30
0.0
 10
358.7540542023
 20
1162.0571255569
 30
0.0
  0
SPLINE
  5
3DD
100
AcDbEntity
  8
0
100
AcDbSpline
 62
7
  6
BYLAYER
 70
0
 71
3
 72
11
 73
7
 74
0
 42
0.0000001
 43
0.0000001
 44
0.0000000001
 40
0.0
 40
0.0
 40
0.0
 40
0.0
 40
0.2544641196
 40
0.5062554122
 40
0.7544085347
 40
1.0
 40
1.0
 40
1.0
 40
1.0
 10
358.8731018528
 20
1163.8515828529
 30
0.0
 10
358.8731018528
 20
1163.9800039054
 30
0.0
 10
358.9213194336
 20
1164.2381041264
 30
0.0
 10
359.1292817973
 20
1164.5677299694
 30
0.0
 10
359.4425522969
 20
1164.7928779435
 30
0.0
 10
359.6935499677
 20
1164.8490857583
 30
0.0
 10
359.8174712324
 20
1164.8514210849
 30
0.0
  0
SPLINE
  5
3DE
100
AcDbEntity
  8
0
100
AcDbSpline
 62
7
  6
BYLAYER
 70
0
 71
3
 72
11
 73
7
 74
0
 42
0.0000001
 43
0.0000001
 44
0.0000000001
 40
0.0
 40
0.0
 40
0.0
 40
0.0
 40
0.2627344212
 40
0.5180975916
 40
0.762900959
 40
1.0
 40
1.0
 40
1.0
 40
1.0
 10
363.8795792025
 20
1163.8515828529
 30
0.0
 10
363.8795792025
 20
1163.9811526204
 30
0.0
 10
363.8346831006
 20
1164.2390406442
 30
0.0
 10
363.6394824007
 20
1164.5705357813
 30
0.0
 10
363.342700057
 20
1164.7972737325
 30
0.0
 10
363.1020794681
 20
1164.8515828529
 30
0.0
 10
362.9851520115
 20
1164.8515828529
 30
0.0
  0
SPLINE
  5
3DF
100
AcDbEntity
  8
0
100
AcDbSpline
 62
7
  6
BYLAYER
 70
0
 71
3
 72
11
 73
7
 74
0
 42
0.0000001
 43
0.0000001
 44
0.0000000001
 40
0.0
 40
0.0
 40
0.0
 40
0.0
 40
0.2570642536
 40
0.5099515937
 40
0.7570212812
 40
1.0
 40
1.0
 40
1.0
 40
1.0
 10
364.2740253233
 20
1163.8515828529
 30
0.0
 10
364.274024492
 20
1163.9818119362
 30
0.0
 10
364.225344529
 20
1164.2428028411
 30
0.0
 10
364.0157467169
 20
1164.5749031768
 30
0.0
 10
363.701051099
 20
1164.7988272927
 30
0.0
 10
363.449885265
 20
1164.8515757929
 30
0.0
 10
363.326791932
 20
1164.8515828529
 30
0.0
  0
SPLINE
  5
3E0
100
AcDbEntity
  8
0
100
AcDbSpline
 62
7
  6
BYLAYER
 70
0
 71
3
 72
11
 73
7
 74
0
 42
0.0000001
 43
0.0000001
 44
0.0000000001
 40
0.0
 40
0.0
 40
0.0
 40
0.0
 40
0.2429770416
 40
0.4900484521
 40
0.7429376142
 40
1.0
 40
1.0
 40
1.0
 40
1.0
 10
403.3267936748
 20
1164.8515828529
 30
0.0
 10
403.2037012057
 20
1164.8515757047
 30
0.0
 10
402.9525355125
 20
1164.798827466
 30
0.0
 10
402.6378385199
 20
1164.5749033532
 30
0.0
 10
402.4282409409
 20
1164.2428017075
 30
0.0
 10
402.3795611801
 20
1163.9818109749
 30
0.0
 10
402.3795603608
 20
1163.8515828529
 30
0.0
  0
SPLINE
  5
3E1
100
AcDbEntity
  8
0
100
AcDbSpline
 62
7
  6
BYLAYER
 70
0
 71
3
 72
11
 73
7
 74
0
 42
0.0000001
 43
0.0000001
 44
0.0000000001
 40
0.0
 40
0.0
 40
0.0
 40
0.0
 40
0.2370154222
 40
0.4817461593
 40
0.7371748139
 40
1.0
 40
1.0
 40
1.0
 40
1.0
 10
403.6684335845
 20
1164.8515828529
 30
0.0
 10
403.5515473018
 20
1164.8515828529
 30
0.0
 10
403.3110058521
 20
1164.7973141176
 30
0.0
 10
403.0142172971
 20
1164.5706670986
 30
0.0
 10
402.8189337168
 20
1164.2391647451
 30
0.0
 10
402.7740063935
 20
1163.9811974523
 30
0.0
 10
402.7740063935
 20
1163.8515828529
 30
0.0
  0
SPLINE
  5
3E2
100
AcDbEntity
  8
0
100
AcDbSpline
 62
7
  6
BYLAYER
 70
0
 71
3
 72
11
 73
7
 74
0
 42
0.0000001
 43
0.0000001
 44
0.0000000001
 40
0.0
 40
0.0
 40
0.0
 40
0.0
 40
0.2455000837
 40
0.4935877931
 40
0.7454492783
 40
1.0
 40
1.0
 40
1.0
 40
1.0
 10
406.8363967452
 20
1164.851415873
 30
0.0
 10
406.9602486402
 20
1164.8490456476
 30
0.0
 10
407.2111010891
 20
1164.792819184
 30
0.0
 10
407.5242763329
 20
1164.5677510557
 30
0.0
 10
407.7322495754
 20
1164.2381572078
 30
0.0
 10
407.7804837432
 20
1163.980024202
 30
0.0
 10
407.7804837432
 20
1163.8515828529
 30
0.0
  0
SPLINE
  5
3E3
100
AcDbEntity
  8
0
100
AcDbSpline
 62
7
  6
BYLAYER
 70
0
 71
3
 72
8
 73
4
 74
0
 42
0.0000001
 43
0.0000001
 44
0.0000000001
 40
0.0
 40
0.0
 40
0.0
 40
0.0
 40
1.0
 40
1.0
 40
1.0
 40
1.0
 10
358.7115533216
 20
1161.8515828529
 30
0.0
 10
358.7115533216
 20
1161.9215464371
 30
0.0
 10
358.7262217459
 20
1161.992936325
 30
0.0
 10
358.7540542023
 20
1162.0571255569
 30
0.0
  0
SPLINE
  5
3E4
100
AcDbEntity
  8
0
100
AcDbSpline
 62
7
  6
BYLAYER
 70
0
 71
3
 72
8
 73
4
 74
0
 42
0.0000001
 43
0.0000001
 44
0.0000000001
 40
0.0
 40
0.0
 40
0.0
 40
0.0
 40
1.0
 40
1.0
 40
1.0
 40
1.0
 10
506.4582871553
 20
1162.1915723809
 30
0.0
 10
506.4489903036
 20
1162.1440395818
 30
0.0
 10
506.4298392908
 20
1162.0975650434
 30
0.0
 10
506.4031850907
 20
1162.057125557
 30
0.0
  0
SPLINE
  5
3E5
100
AcDbEntity
  8
0
100
AcDbSpline
 62
7
  6
BYLAYER
 70
0
 71
3
 72
9
 73
5
 74
0
 42
0.0000001
 43
0.0000001
 44
0.0000000001
 40
0.0
 40
0.0
 40
0.0
 40
0.0
 40
0.2581441241
 40
1.0
 40
1.0
 40
1.0
 40
1.0
 10
555.4296145939
 20
1161.8515829987
 30
0.0
 10
555.438994201
 20
1161.8837763204
 30
0.0
 10
555.4713755693
 20
1162.0095632816
 30
0.0
 10
555.4873591858
 20
1162.1398926856
 30
0.0
 10
555.4873327233
 20
1162.2362567674
 30
0.0
  0
SPLINE
  5
3E6
100
AcDbEntity
  8
0
100
AcDbSpline
 62
7
  6
BYLAYER
 70
0
 71
3
 72
8
 73
4
 74
0
 42
0.0000001
 43
0.0000001
 44
0.0000000001
 40
0.0
 40
0.0
 40
0.0
 40
0.0
 40
1.0
 40
1.0
 40
1.0
 40
1.0
 10
555.5486622822
 20
1162.057125557
 30
0.0
 10
555.5139526631
 20
1162.1097866448
 30
0.0
 10
555.4918488718
 20
1162.1733207342
 30
0.0
 10
555.4877230139
 20
1162.2362566152
 30
0.0
  0
SPLINE
  5
3E7
100
AcDbEntity
  8
0
100
AcDbSpline
 62
7
  6
BYLAYER
 70
0
 71
3
 72
9
 73
5
 74
0
 42
0.0000001
 43
0.0000001
 44
0.0000000001
 40
0.0
 40
0.0
 40
0.0
 40
0.0
 40
0.27038548
 40
1.0
 40
1.0
 40
1.0
 40
1.0
 10
555.4296146317
 20
1161.8515828529
 30
0.0
 10
555.4427785803
 20
1161.8685197033
 30
0.0
 10
555.4894817814
 20
1161.9325949381
 30
0.0
 10
555.5284820841
 20
1162.0028732672
 30
0.0
 10
555.5486622822
 20
1162.0571255569
 30
0.0
  0
SPLINE
  5
3E8
100
AcDbEntity
  8
0
100
AcDbSpline
 62
7
  6
BYLAYER
 70
0
 71
3
 72
9
 73
5
 74
0
 42
0.0000001
 43
0.0000001
 44
0.0000000001
 40
0.0
 40
0.0
 40
0.0
 40
0.0
 40
0.2666839678
 40
1.0
 40
1.0
 40
1.0
 40
1.0
 10
555.4873797445
 20
1162.319976689
 30
0.0
 10
555.496611109
 20
1162.3143124188
 30
0.0
 10
555.5294154309
 20
1162.2901291673
 30
0.0
 10
555.5522038475
 20
1162.2532572743
 30
0.0
 10
555.5606878716
 20
1162.2247097502
 30
0.0
  0
SPLINE
  5
3E9
100
AcDbEntity
  8
0
100
AcDbSpline
 62
7
  6
BYLAYER
 70
0
 71
3
 72
9
 73
5
 74
0
 42
0.0000001
 43
0.0000001
 44
0.0000000001
 40
0.0
 40
0.0
 40
0.0
 40
0.0
 40
0.2268944865
 40
1.0
 40
1.0
 40
1.0
 40
1.0
 10
555.5606878716
 20
1162.2247097502
 30
0.0
 10
555.5643432471
 20
1162.2124099361
 30
0.0
 10
555.5745158774
 20
1162.1563518994
 30
0.0
 10
555.5626098346
 20
1162.0985625341
 30
0.0
 10
555.5486621628
 20
1162.0571257733
 30
0.0
  0
SPLINE
  5
3EA
100
AcDbEntity
  8
0
100
AcDbSpline
 62
7
  6
BYLAYER
 70
0
 71
3
 72
8
 73
4
 74
0
 42
0.0000001
 43
0.0000001
 44
0.0000000001
 40
0.0
 40
0.0
 40
0.0
 40
0.0
 40
1.0
 40
1.0
 40
1.0
 40
1.0
 10
555.5486622822
 20
1162.0571255569
 30
0.0
 10
555.5764947386
 20
1161.992936325
 30
0.0
 10
555.5911631629
 20
1161.9215464371
 30
0.0
 10
555.5911631629
 20
1161.8515828529
 30
0.0
  0
SPLINE
  5
3EB
100
AcDbEntity
  8
0
100
AcDbSpline
 62
7
  6
BYLAYER
 70
0
 71
3
 72
9
 73
5
 74
0
 42
0.0000001
 43
0.0000001
 44
0.0000000001
 40
0.0
 40
0.0
 40
0.0
 40
0.0
 40
0.242355115
 40
1.0
 40
1.0
 40
1.0
 40
1.0
 10
506.4645146514
 20
1162.2362703505
 30
0.0
 10
506.4645056328
 20
1162.204784681
 30
0.0
 10
506.469710633
 20
1162.0748834011
 30
0.0
 10
506.4946997848
 20
1161.9460835061
 30
0.0
 10
506.5222327683
 20
1161.8515829569
 30
0.0
  0
SPLINE
  5
3EC
100
AcDbEntity
  8
0
100
AcDbSpline
 62
7
  6
BYLAYER
 70
0
 71
3
 72
11
 73
7
 74
0
 42
0.0000001
 43
0.0000001
 44
0.0000000001
 40
0.0
 40
0.0
 40
0.0
 40
0.0
 40
0.2545253123
 40
0.5063269197
 40
0.7544493833
 40
1.0
 40
1.0
 40
1.0
 40
1.0
 10
554.3903687563
 20
1163.8515828529
 30
0.0
 10
554.3903687563
 20
1163.9814615942
 30
0.0
 10
554.3410313646
 20
1164.2425257103
 30
0.0
 10
554.1284508416
 20
1164.5746432069
 30
0.0
 10
553.8089760312
 20
1164.7988073756
 30
0.0
 10
553.5541439577
 20
1164.8515828529
 30
0.0
 10
553.4288448086
 20
1164.8515828529
 30
0.0
  0
SPLINE
  5
3ED
100
AcDbEntity
  8
0
100
AcDbSpline
 62
7
  6
BYLAYER
 70
0
 71
3
 72
11
 73
7
 74
0
 42
0.0000001
 43
0.0000001
 44
0.0000000001
 40
0.0
 40
0.0
 40
0.0
 40
0.0
 40
0.2454646712
 40
0.49351694
 40
0.7453862235
 40
1.0
 40
1.0
 40
1.0
 40
1.0
 10
508.5230025644
 20
1164.8515828529
 30
0.0
 10
508.3977472475
 20
1164.8515828529
 30
0.0
 10
508.1429972048
 20
1164.798845738
 30
0.0
 10
507.8235206657
 20
1164.5747736312
 30
0.0
 10
507.6108510391
 20
1164.242652937
 30
0.0
 10
507.5614786167
 20
1163.9815067605
 30
0.0
 10
507.5614786167
 20
1163.8515828529
 30
0.0
  0
SPLINE
  5
3EE
100
AcDbEntity
  8
0
100
AcDbSpline
 62
7
  6
BYLAYER
 70
0
 71
3
 72
9
 73
5
 74
0
 42
0.0000001
 43
0.0000001
 44
0.0000000001
 40
0.0
 40
0.0
 40
0.0
 40
0.0
 40
0.2703934266
 40
1.0
 40
1.0
 40
1.0
 40
1.0
 10
506.5222327413
 20
1161.8515828529
 30
0.0
 10
506.5090684249
 20
1161.8685201838
 30
0.0
 10
506.4623695451
 20
1161.9325983837
 30
0.0
 10
506.4233650379
 20
1162.0028739193
 30
0.0
 10
506.4031850908
 20
1162.0571255569
 30
0.0
  0
SPLINE
  5
3EF
100
AcDbEntity
  8
0
100
AcDbSpline
 62
7
  6
BYLAYER
 70
0
 71
3
 72
11
 73
7
 74
0
 42
0.0000001
 43
0.0000001
 44
0.0000000001
 40
0.0
 40
0.0
 40
0.0
 40
0.0
 40
0.2544641196
 40
0.5062554122
 40
0.7544085347
 40
1.0
 40
1.0
 40
1.0
 40
1.0
 10
506.5222327413
 20
1163.8515828529
 30
0.0
 10
506.5222327413
 20
1163.9800039054
 30
0.0
 10
506.5704503221
 20
1164.2381041264
 30
0.0
 10
506.7784126858
 20
1164.5677299694
 30
0.0
 10
507.0916831855
 20
1164.7928779435
 30
0.0
 10
507.3426808562
 20
1164.8490857583
 30
0.0
 10
507.4666021209
 20
1164.8514210849
 30
0.0
  0
SPLINE
  5
3F0
100
AcDbEntity
  8
0
100
AcDbSpline
 62
7
  6
BYLAYER
 70
0
 71
3
 72
11
 73
7
 74
0
 42
0.0000001
 43
0.0000001
 44
0.0000000001
 40
0.0
 40
0.0
 40
0.0
 40
0.0
 40
0.2627344212
 40
0.5180975916
 40
0.762900959
 40
1.0
 40
1.0
 40
1.0
 40
1.0
 10
511.528710091
 20
1163.8515828529
 30
0.0
 10
511.528710091
 20
1163.9811526204
 30
0.0
 10
511.4838139891
 20
1164.2390406442
 30
0.0
 10
511.2886132892
 20
1164.5705357813
 30
0.0
 10
510.9918309455
 20
1164.7972737325
 30
0.0
 10
510.7512103566
 20
1164.8515828529
 30
0.0
 10
510.6342829
 20
1164.8515828529
 30
0.0
  0
SPLINE
  5
3F1
100
AcDbEntity
  8
0
100
AcDbSpline
 62
7
  6
BYLAYER
 70
0
 71
3
 72
11
 73
7
 74
0
 42
0.0000001
 43
0.0000001
 44
0.0000000001
 40
0.0
 40
0.0
 40
0.0
 40
0.0
 40
0.2570642536
 40
0.5099515937
 40
0.7570212812
 40
1.0
 40
1.0
 40
1.0
 40
1.0
 10
511.9231562119
 20
1163.8515828529
 30
0.0
 10
511.9231553805
 20
1163.9818119362
 30
0.0
 10
511.8744754175
 20
1164.2428028411
 30
0.0
 10
511.6648776055
 20
1164.5749031768
 30
0.0
 10
511.3501819875
 20
1164.7988272927
 30
0.0
 10
511.0990161535
 20
1164.8515757929
 30
0.0
 10
510.9759228205
 20
1164.8515828529
 30
0.0
  0
SPLINE
  5
3F2
100
AcDbEntity
  8
0
100
AcDbSpline
 62
7
  6
BYLAYER
 70
0
 71
3
 72
11
 73
7
 74
0
 42
0.0000001
 43
0.0000001
 44
0.0000000001
 40
0.0
 40
0.0
 40
0.0
 40
0.0
 40
0.2429770416
 40
0.4900484521
 40
0.7429376142
 40
1.0
 40
1.0
 40
1.0
 40
1.0
 10
550.9759245633
 20
1164.8515828529
 30
0.0
 10
550.8528320943
 20
1164.8515757047
 30
0.0
 10
550.6016664011
 20
1164.798827466
 30
0.0
 10
550.2869694084
 20
1164.5749033532
 30
0.0
 10
550.0773718294
 20
1164.2428017075
 30
0.0
 10
550.0286920686
 20
1163.9818109749
 30
0.0
 10
550.0286912493
 20
1163.8515828529
 30
0.0
  0
SPLINE
  5
3F3
100
AcDbEntity
  8
0
100
AcDbSpline
 62
7
  6
BYLAYER
 70
0
 71
3
 72
11
 73
7
 74
0
 42
0.0000001
 43
0.0000001
 44
0.0000000001
 40
0.0
 40
0.0
 40
0.0
 40
0.0
 40
0.2370154222
 40
0.4817461593
 40
0.7371748139
 40
1.0
 40
1.0
 40
1.0
 40
1.0
 10
551.317564473
 20
1164.8515828529
 30
0.0
 10
551.2006781903
 20
1164.8515828529
 30
0.0
 10
550.9601367406
 20
1164.7973141176
 30
0.0
 10
550.6633481856
 20
1164.5706670986
 30
0.0
 10
550.4680646053
 20
1164.2391647451
 30
0.0
 10
550.423137282
 20
1163.9811974523
 30
0.0
 10
550.423137282
 20
1163.8515828529
 30
0.0
  0
SPLINE
  5
3F4
100
AcDbEntity
  8
0
100
AcDbSpline
 62
7
  6
BYLAYER
 70
0
 71
3
 72
11
 73
7
 74
0
 42
0.0000001
 43
0.0000001
 44
0.0000000001
 40
0.0
 40
0.0
 40
0.0
 40
0.0
 40
0.2455000837
 40
0.4935877931
 40
0.7454492783
 40
1.0
 40
1.0
 40
1.0
 40
1.0
 10
554.4855276338
 20
1164.851415873
 30
0.0
 10
554.6093795287
 20
1164.8490456476
 30
0.0
 10
554.8602319776
 20
1164.792819184
 30
0.0
 10
555.1734072214
 20
1164.5677510557
 30
0.0
 10
555.3813804639
 20
1164.2381572078
 30
0.0
 10
555.4296146317
 20
1163.980024202
 30
0.0
 10
555.4296146317
 20
1163.8515828529
 30
0.0
  0
SPLINE
  5
3F5
100
AcDbEntity
  8
0
100
AcDbSpline
 62
7
  6
BYLAYER
 70
0
 71
3
 72
9
 73
5
 74
0
 42
0.0000001
 43
0.0000001
 44
0.0000000001
 40
0.0
 40
0.0
 40
0.0
 40
0.0
 40
0.2799425408
 40
1.0
 40
1.0
 40
1.0
 40
1.0
 10
506.4031852042
 20
1162.0571257626
 30
0.0
 10
506.3981590629
 20
1162.0720577885
 30
0.0
 10
506.3826937366
 20
1162.1259158032
 30
0.0
 10
506.3795814505
 20
1162.1853438725
 30
0.0
 10
506.3910154191
 20
1162.2242224179
 30
0.0
  0
SPLINE
  5
3F6
100
AcDbEntity
  8
0
100
AcDbSpline
 62
7
  6
BYLAYER
 70
0
 71
3
 72
8
 73
4
 74
0
 42
0.0000001
 43
0.0000001
 44
0.0000000001
 40
0.0
 40
0.0
 40
0.0
 40
0.0
 40
1.0
 40
1.0
 40
1.0
 40
1.0
 10
506.3910154191
 20
1162.2242224179
 30
0.0
 10
506.3960095231
 20
1162.2412037046
 30
0.0
 10
506.4036954776
 20
1162.2576379123
 30
0.0
 10
506.4137249235
 20
1162.2722226778
 30
0.0
  0
SPLINE
  5
3F7
100
AcDbEntity
  8
0
100
AcDbSpline
 62
7
  6
BYLAYER
 70
0
 71
3
 72
8
 73
4
 74
0
 42
0.0000001
 43
0.0000001
 44
0.0000000001
 40
0.0
 40
0.0
 40
0.0
 40
0.0
 40
1.0
 40
1.0
 40
1.0
 40
1.0
 10
506.4137249235
 20
1162.2722226778
 30
0.0
 10
506.4267648545
 20
1162.2911852746
 30
0.0
 10
506.4443393732
 20
1162.3075288577
 30
0.0
 10
506.4639117764
 20
1162.319634266
 30
0.0
  0
SPLINE
  5
3F8
100
AcDbEntity
  8
0
100
AcDbSpline
 62
7
  6
BYLAYER
 70
0
 71
3
 72
8
 73
4
 74
0
 42
0.0000001
 43
0.0000001
 44
0.0000000001
 40
0.0
 40
0.0
 40
0.0
 40
0.0
 40
1.0
 40
1.0
 40
1.0
 40
1.0
 10
506.3606842101
 20
1161.8515828529
 30
0.0
 10
506.3606842101
 20
1161.9215464371
 30
0.0
 10
506.3753526344
 20
1161.992936325
 30
0.0
 10
506.4031850908
 20
1162.0571255569
 30
0.0
  0
ENDSEC
  0
SECTION
  2
OBJECTS
  0
DICTIONARY
  5
C
100
AcDbDictionary
280
0
281
1
  3
ACAD_GROUP
350
D
  3
ACAD_MLINESTYLE
350
17
  3
ACAD_LAYOUT
350
1A
  3
ACAD_PLOTSETTINGS
350
19
  3
ACAD_PLOTSTYLENAME
350
E
  0
DICTIONARY
  5
D
102
{ACAD_REACTORS
330
C
102
}
100
AcDbDictionary
280
0
281
1
  0
ACDBDICTIONARYWDFLT
  5
E
102
{ACAD_REACTORS
330
C
102
}
100
AcDbDictionary
281
1
  3
Normal
350
F
100
AcDbDictionaryWithDefault
340
F
  0
DICTIONARY
  5
17
102
{ACAD_REACTORS
330
C
102
}
100
AcDbDictionary
280
0
281
1
  3
Standard
350
18
  0
DICTIONARY
  5
19
102
{ACAD_REACTORS
330
C
102
}
100
AcDbDictionary
281
1
  0
DICTIONARY
  5
1A
102
{ACAD_REACTORS
330
C
102
}
100
AcDbDictionary
281
1
  3
Model
350
3F9
  3
Layout1
350
3FA
  0
ACDBPLACEHOLDER
  5
F
102
{ACAD_REACTORS
330
E
102
}
  0
MLINESTYLE
  5
18
102
{ACAD_REACTORS
330
17
102
}
100
AcDbMlineStyle
  2
STANDARD
 70
0
  3

 62
256
 51
90.0
 52
90.0
 71
2
 49
0.5
 62
256
  6
BYLAYER
 49
-0.5
 62
256
  6
BYLAYER
  0
LAYOUT
  5
3F9
102
{ACAD_REACTORS
330
1A
102
}
100
AcDbPlotSettings
  1

  2
none_device
  4

  6

 40
0.0
 41
0.0
 42
0.0
 43
0.0
 44
210.0
 45
297.0
 46
0.0
 47
0.0
 48
0.0
 49
0.0
140
0.0
141
0.0
142
1.0
143
1.0
 70
1024
 72
1
 73
0
 74
0
  7

 75
0
147
1.0
148
0.0
149
0.0
100
AcDbLayout
  1
Model
 70
0
 71
0
 10
0.0
 20
0.0
 11
210.0
 21
297.0
 12
0.0
 22
0.0
 32
0.0
 14
0.0
 24
0.0
 34
0.0
 15
0.0
 25
0.0
 35
0.0
146
0.0
 13
0.0
 23
0.0
 33
0.0
 16
1.0
 26
0.0
 36
0.0
 17
0.0
 27
1.0
 37
0.0
 76
0
330
212
345
0
346
0
  0
LAYOUT
  5
3FA
102
{ACAD_REACTORS
330
1A
102
}
100
AcDbPlotSettings
  1

  2
none_device
  4

  6

 40
0.0
 41
0.0
 42
0.0
 43
0.0
 44
210.0
 45
297.0
 46
0.0
 47
0.0
 48
0.0
 49
0.0
140
0.0
141
0.0
142
1.0
143
1.0
 70
0
 72
1
 73
0
 74
0
  7

 75
0
147
1.0
148
0.0
149
0.0
100
AcDbLayout
  1
Layout1
 70
0
 71
1
 10
0.0
 20
0.0
 11
210.0
 21
297.0
 12
0.0
 22
0.0
 32
0.0
 14
0.0
 24
0.0
 34
0.0
 15
0.0
 25
0.0
 35
0.0
146
0.0
 13
0.0
 23
0.0
 33
0.0
 16
1.0
 26
0.0
 36
0.0
 17
0.0
 27
1.0
 37
0.0
 76
0
330
213
345
0
346
0
  0
ENDSEC
  0
EOF
