999
DXF file: C:\Users\sesa63760\Dev\_Creo\CAD\MCADPD0005433_3D-CAD\drw0001_6.dxf
999
Pro/ENGINEER 2019471 by Parametric Technology Corporation
  0
SECTION
  2
HEADER
  9
$ACADVER
  1
AC1024
  9
$DWGCODEPAGE
  3
ANSI_1252
  9
$EXTMAX
 10
299.5829360462
 20
423.6958666939
 30
0.0
  9
$EXTMIN
 10
0.0
 20
0.0
 30
0.0
  9
$LIMMIN
 10
0.0
 20
0.0
  9
$LIMMAX
 10
299.5829360462
 20
423.6958666939
  9
$VIEWCTR
 10
149.7914680231
 20
211.847933347
  9
$VIEWSIZE
 40
423.6958666939
  9
$CLAYER
  8
0
  9
$LTSCALE
 40
27.6186935326
  9
$CELTYPE
  6
BYLAYER
  9
$DIMSCALE
 40
1.0
  9
$DIMASZ
 40
3.5664635244
  9
$DIMEXO
 40
1.0
  9
$DIMDLI
 40
19.0820064407
  9
$DIMEXE
 40
1.0
  9
$DIMCEN
 40
4.5194225781
  9
$DIMLFAC
 40
1.0
  9
$DIMBLK
  1
_FILLED
  9
$DIMALT
 70
0
  9
$DIMALTF
 40
0.0393700787
  9
$DIMTXT
 40
4.9930489341
  9
$DIMTOL
 70
1
  9
$DIMLIM
 70
0
  9
$DIMTFAC
 40
1.0
  9
$DIMTP
 40
0.01
  9
$DIMTM
 40
0.01
  9
$DIMGAP
 40
0.625
  9
$DIMDSEP
 70
46
  9
$AUNITS
 70
0
  9
$PDMODE
 70
3
  9
$PDSIZE
 40
0.3125
  9
$HANDSEED
  5
29F
  9
$TILEMODE
 70
1
  9
$MEASUREMENT
 70
1
  9
$INSUNITS
 70
4
  0
ENDSEC
  0
SECTION
  2
CLASSES
  0
CLASS
  1
ACDBDICTIONARYWDFLT
  2
AcDbDictionaryWithDefault
  3
AutoCAD 2000
 90
0
 91
1
280
0
281
0
  0
CLASS
  1
ACDBPLACEHOLDER
  2
AcDbPlaceHolder
  3
AutoCAD 2000
 90
0
 91
1
280
0
281
0
  0
CLASS
  1
LAYOUT
  2
AcDbLayout
  3
AutoCAD 2000
 90
0
 91
0
280
0
281
0
  0
ENDSEC
  0
SECTION
  2
TABLES
  0
TABLE
  2
VPORT
  5
8
100
AcDbSymbolTable
 70
2
  0
VPORT
  5
1F4
100
AcDbSymbolTableRecord
100
AcDbViewportTableRecord
  2
*ACTIVE
 70
0
 10
0.0
 20
0.0
 11
1.0
 21
1.0
 12
149.7914680231
 22
211.847933347
 13
0.0
 23
0.0
 14
1.0
 24
1.0
 15
0.0
 25
0.0
 16
0.0
 26
0.0
 36
1.0
 17
0.0
 27
0.0
 37
0.0
 40
423.6958666939
 41
0.7070707071
 42
50.0
 43
0.0
 44
0.0
 50
0.0
 51
0.0
 71
0
 72
100
 73
1
 74
1
 75
0
 76
0
 77
0
 78
0
  0
ENDTAB
  0
TABLE
  2
LTYPE
  5
5
100
AcDbSymbolTable
 70
6
  0
LTYPE
  5
14
100
AcDbSymbolTableRecord
100
AcDbLinetypeTableRecord
  2
BYBLOCK
 70
0
  3

 72
65
 73
0
 40
0.0
  0
LTYPE
  5
15
100
AcDbSymbolTableRecord
100
AcDbLinetypeTableRecord
  2
BYLAYER
 70
0
  3

 72
65
 73
0
 40
0.0
  0
LTYPE
  5
16
100
AcDbSymbolTableRecord
100
AcDbLinetypeTableRecord
  2
CONTINUOUS
 70
64
  3
Solid line
 72
65
 73
0
 40
0.0
  0
LTYPE
  5
1F5
100
AcDbSymbolTableRecord
100
AcDbLinetypeTableRecord
  2
CENTER
 70
64
  3
____ _ ____ _ ____ _ ____ _ ____ _ ____ _ ____
 72
65
 73
4
 40
0.6
 49
0.375
 74
0
 49
-0.075
 74
0
 49
0.075
 74
0
 49
-0.075
 74
0
  0
LTYPE
  5
1F6
100
AcDbSymbolTableRecord
100
AcDbLinetypeTableRecord
  2
HIDDEN
 70
64
  3
- - - - - - - - - - - - - - - - - - - -
 72
65
 73
2
 40
0.2
 49
0.1
 74
0
 49
-0.1
 74
0
  0
LTYPE
  5
1F7
100
AcDbSymbolTableRecord
100
AcDbLinetypeTableRecord
  2
PHANTOM
 70
64
  3
_____ _ _ _____ _ _ _____ _ _ _____
 72
65
 73
6
 40
0.8
 49
0.45
 74
0
 49
-0.05
 74
0
 49
0.1
 74
0
 49
-0.05
 74
0
 49
0.1
 74
0
 49
-0.05
 74
0
  0
LTYPE
  5
1F8
100
AcDbSymbolTableRecord
100
AcDbLinetypeTableRecord
  2
DOT
 70
64
  3
. . . . . . . . . . . . . . . . . . . .
 72
65
 73
2
 40
0.2
 49
0.1
 74
0
 49
-0.1
 74
0
  0
LTYPE
  5
1F9
100
AcDbSymbolTableRecord
100
AcDbLinetypeTableRecord
  2
DASHED
 70
64
  3
- - - - - - - - - - - - - - - - - - - -
 72
65
 73
2
 40
0.2
 49
0.1
 74
0
 49
-0.1
 74
0
  0
ENDTAB
  0
TABLE
  2
LAYER
  5
2
100
AcDbSymbolTable
 70
36
  0
LAYER
  5
10
100
AcDbSymbolTableRecord
100
AcDbLayerTableRecord
  2
0
 70
0
 62
7
  6
CONTINUOUS
370
-3
390
F
  0
LAYER
  5
1FA
100
AcDbSymbolTableRecord
100
AcDbLayerTableRecord
  2
DEFAULT_1
 70
0
 62
7
  6
CENTER
370
-3
390
F
  0
LAYER
  5
1FB
100
AcDbSymbolTableRecord
100
AcDbLayerTableRecord
  2
DEFAULT_2
 70
0
 62
7
  6
HIDDEN
370
-3
390
F
  0
LAYER
  5
1FC
100
AcDbSymbolTableRecord
100
AcDbLayerTableRecord
  2
DEFAULT_3
 70
0
 62
7
  6
PHANTOM
370
-3
390
F
  0
LAYER
  5
1FD
100
AcDbSymbolTableRecord
100
AcDbLayerTableRecord
  2
00_COMPONENTS
 70
0
 62
7
  6
CONTINUOUS
370
-3
390
F
  0
LAYER
  5
1FE
100
AcDbSymbolTableRecord
100
AcDbLayerTableRecord
  2
01_1_DEFAULT_DATUMS
 70
0
 62
7
  6
CONTINUOUS
370
-3
390
F
  0
LAYER
  5
1FF
100
AcDbSymbolTableRecord
100
AcDbLayerTableRecord
  2
01_PLANES
 70
0
 62
7
  6
CONTINUOUS
370
-3
390
F
  0
LAYER
  5
200
100
AcDbSymbolTableRecord
100
AcDbLayerTableRecord
  2
02_COORD_SYS
 70
0
 62
7
  6
CONTINUOUS
370
-3
390
F
  0
LAYER
  5
201
100
AcDbSymbolTableRecord
100
AcDbLayerTableRecord
  2
03_AXES
 70
0
 62
7
  6
CONTINUOUS
370
-3
390
F
  0
LAYER
  5
202
100
AcDbSymbolTableRecord
100
AcDbLayerTableRecord
  2
04_POINTS
 70
0
 62
7
  6
CONTINUOUS
370
-3
390
F
  0
LAYER
  5
203
100
AcDbSymbolTableRecord
100
AcDbLayerTableRecord
  2
05_CURVES
 70
0
 62
7
  6
CONTINUOUS
370
-3
390
F
  0
LAYER
  5
204
100
AcDbSymbolTableRecord
100
AcDbLayerTableRecord
  2
06_SURFS
 70
0
 62
7
  6
CONTINUOUS
370
-3
390
F
  0
LAYER
  5
205
100
AcDbSymbolTableRecord
100
AcDbLayerTableRecord
  2
07_COSMETICS
 70
0
 62
7
  6
CONTINUOUS
370
-3
390
F
  0
LAYER
  5
206
100
AcDbSymbolTableRecord
100
AcDbLayerTableRecord
  2
10_NOTES
 70
0
 62
7
  6
CONTINUOUS
370
-3
390
F
  0
LAYER
  5
207
100
AcDbSymbolTableRecord
100
AcDbLayerTableRecord
  2
11_NOTES_PUB
 70
0
 62
7
  6
CONTINUOUS
370
-3
390
F
  0
LAYER
  5
208
100
AcDbSymbolTableRecord
100
AcDbLayerTableRecord
  2
13_REF_GTOL
 70
0
 62
7
  6
CONTINUOUS
370
-3
390
F
  0
LAYER
  5
209
100
AcDbSymbolTableRecord
100
AcDbLayerTableRecord
  2
16_MISC
 70
0
 62
7
  6
CONTINUOUS
370
-3
390
F
  0
LAYER
  5
20A
100
AcDbSymbolTableRecord
100
AcDbLayerTableRecord
  2
17_NO_PRINT
 70
0
 62
7
  6
CONTINUOUS
370
-3
390
F
  0
LAYER
  5
20B
100
AcDbSymbolTableRecord
100
AcDbLayerTableRecord
  2
18_DATUM_CAMS_JOINTS
 70
0
 62
7
  6
CONTINUOUS
370
-3
390
F
  0
LAYER
  5
20C
100
AcDbSymbolTableRecord
100
AcDbLayerTableRecord
  2
19_DATUM_FUNCTIONAL
 70
0
 62
7
  6
CONTINUOUS
370
-3
390
F
  0
LAYER
  5
20D
100
AcDbSymbolTableRecord
100
AcDbLayerTableRecord
  2
20_DATUM_KINEMATIC_SCHEME
 70
0
 62
7
  6
CONTINUOUS
370
-3
390
F
  0
ENDTAB
  0
TABLE
  2
STYLE
  5
3
100
AcDbSymbolTable
 70
1
  0
STYLE
  5
11
100
AcDbSymbolTableRecord
100
AcDbTextStyleTableRecord
  2
STANDARD
 70
0
 40
0.0
 41
1.0
 50
0.0
 71
0
 42
0.2
  3
ARIAL.TTF
  4

  0
STYLE
  5
20E
100
AcDbSymbolTableRecord
100
AcDbTextStyleTableRecord
  2
TEXTSTYLE_1
 70
0
 40
0.0
 41
0.8
 50
0.0
 71
0
 42
0.2
  3
gdt
  4

  0
ENDTAB
  0
TABLE
  2
VIEW
  5
6
100
AcDbSymbolTable
 70
0
  0
ENDTAB
  0
TABLE
  2
UCS
  5
7
100
AcDbSymbolTable
 70
0
  0
ENDTAB
  0
TABLE
  2
APPID
  5
9
100
AcDbSymbolTable
 70
1
  0
APPID
  5
20F
100
AcDbSymbolTableRecord
100
AcDbRegAppTableRecord
  2
ACAD
 70
0
  0
ENDTAB
  0
TABLE
  2
BLOCK_RECORD
  5
1
100
AcDbSymbolTable
 70
0
  0
BLOCK_RECORD
  5
210
100
AcDbSymbolTableRecord
100
AcDbBlockTableRecord
  2
*Model_Space
  0
BLOCK_RECORD
  5
211
100
AcDbSymbolTableRecord
100
AcDbBlockTableRecord
  2
*Paper_Space
  0
BLOCK_RECORD
  5
212
100
AcDbSymbolTableRecord
100
AcDbBlockTableRecord
  2
_FILLED
  0
ENDTAB
  0
TABLE
  2
DIMSTYLE
  5
A
100
AcDbSymbolTable
 70
1
100
AcDbDimStyleTable
 71
0
  0
DIMSTYLE
105
213
100
AcDbSymbolTableRecord
100
AcDbDimStyleTableRecord
  2
STANDARD
 70
0
  3

  4

 40
1.0
 41
3.5664635244
 42
1.0
 43
0.38
 44
1.0
 45
0.0
 46
0.0
 47
0.01
 48
0.01
140
4.9930489341
141
0.09
142
0.0
143
25.4
144
1.0
145
0.0
146
1.0
147
0.625
 71
1
 72
0
 73
0
 74
0
 75
0
 76
0
 77
1
 78
8
 79
2
170
0
171
1
172
0
173
0
174
0
175
0
176
0
177
0
178
0
270
2
179
2
271
2
272
2
273
2
274
2
275
0
280
0
281
0
282
0
283
1
284
8
285
0
286
0
287
3
288
0
340
11
278
46
341
212
342
212
343
212
344
212
  0
ENDTAB
  0
ENDSEC
  0
SECTION
  2
BLOCKS
  0
BLOCK
  5
20
100
AcDbEntity
  8
0
100
AcDbBlockBegin
  2
*Model_Space
 70
0
 10
0.0
 20
0.0
 30
0.0
  3
*Model_Space
  1

  0
ENDBLK
  5
21
100
AcDbEntity
  8
0
100
AcDbBlockEnd
  0
BLOCK
  5
1C
100
AcDbEntity
  8
0
100
AcDbBlockBegin
  2
*Paper_Space
 70
0
 10
0.0
 20
0.0
 30
0.0
  3
*Paper_Space
  1

  0
ENDBLK
  5
1D
100
AcDbEntity
  8
0
100
AcDbBlockEnd
  0
BLOCK
  5
214
100
AcDbEntity
  8
0
100
AcDbBlockBegin
  2
_FILLED
 70
64
 10
0.0
 20
0.0
  3
_FILLED
  1

  0
SOLID
  5
215
100
AcDbEntity
  8
0
  6
BYBLOCK
 62
0
100
AcDbTrace
 10
0.0
 20
0.0
 11
-1.0
 21
0.25
 12
-1.0
 22
-0.25
 13
-1.0
 23
-0.25
  0
ENDBLK
  5
216
100
AcDbEntity
  8
0
  6
BYBLOCK
 62
0
100
AcDbBlockEnd
  0
ENDSEC
  0
SECTION
  2
ENTITIES
  0
LINE
  5
217
100
AcDbEntity
  8
0
100
AcDbLine
 62
7
  6
BYLAYER
 10
33.8844727637
 20
199.848081393
 11
33.8844727637
 21
212.3337197846
  0
LINE
  5
218
100
AcDbEntity
  8
0
100
AcDbLine
 62
7
  6
BYLAYER
 10
33.8844727637
 20
215.897933347
 11
33.8844727637
 21
223.8477835068
  0
LINE
  5
219
100
AcDbEntity
  8
0
100
AcDbLine
 62
7
  6
BYLAYER
 10
34.2833438958
 20
215.4990622148
 11
34.2833438958
 21
208.1968044791
  0
LINE
  5
21A
100
AcDbEntity
  8
0
100
AcDbLine
 62
7
  6
BYLAYER
 10
34.3844727637
 20
224.347933347
 11
34.3844727637
 21
216.7511730405
  0
LINE
  5
21B
100
AcDbEntity
  8
0
100
AcDbLine
 62
7
  6
BYLAYER
 10
34.3844727637
 20
206.944711593
 11
34.3844727637
 21
199.347933347
  0
LINE
  5
21C
100
AcDbEntity
  8
0
100
AcDbLine
 62
7
  6
BYLAYER
 10
35.3844727637
 20
208.847933347
 11
35.3844727637
 21
214.847933347
  0
LINE
  5
21D
100
AcDbEntity
  8
0
100
AcDbLine
 62
7
  6
BYLAYER
 10
37.8844727637
 20
199.3479655438
 11
37.8844727637
 21
224.3479120007
  0
LINE
  5
21E
100
AcDbEntity
  8
0
100
AcDbLine
 62
7
  6
BYLAYER
 10
41.8844727637
 20
203.8481520603
 11
41.8844727637
 21
208.847933347
  0
LINE
  5
21F
100
AcDbEntity
  8
0
100
AcDbLine
 62
7
  6
BYLAYER
 10
41.8844727637
 20
214.847933347
 11
41.8844727637
 21
219.8477146336
  0
LINE
  5
220
100
AcDbEntity
  8
0
100
AcDbLine
 62
7
  6
BYLAYER
 10
33.8844727637
 20
212.3337197846
 11
34.2833438958
 21
213.2966798815
  0
LINE
  5
221
100
AcDbEntity
  8
0
100
AcDbLine
 62
7
  6
BYLAYER
 10
35.5915768283
 20
208.2021000136
 11
34.3844727637
 21
206.944711593
  0
LINE
  5
222
100
AcDbEntity
  8
0
100
AcDbLine
 62
7
  6
BYLAYER
 10
33.8844727637
 20
207.797933347
 11
34.2833438958
 21
208.1968044791
  0
LINE
  5
223
100
AcDbEntity
  8
0
100
AcDbLine
 62
7
  6
BYLAYER
 10
35.3844727637
 20
208.847933347
 11
33.8844727637
 21
207.347933347
  0
LINE
  5
224
100
AcDbEntity
  8
0
100
AcDbLine
 62
7
  6
BYLAYER
 10
33.8844727637
 20
215.897933347
 11
34.2833438958
 21
215.4990622148
  0
LINE
  5
225
100
AcDbEntity
  8
0
100
AcDbLine
 62
7
  6
BYLAYER
 10
35.3844727637
 20
214.847933347
 11
33.8844727637
 21
216.347933347
  0
LINE
  5
226
100
AcDbEntity
  8
0
100
AcDbLine
 62
7
  6
BYLAYER
 10
34.3844727637
 20
216.7511730405
 11
35.5915899558
 21
215.4937666803
  0
LINE
  5
227
100
AcDbEntity
  8
0
100
AcDbLine
 62
7
  6
BYLAYER
 10
50.8844727637
 20
205.897933347
 11
51.3344727637
 21
206.347933347
  0
LINE
  5
228
100
AcDbEntity
  8
0
100
AcDbLine
 62
7
  6
BYLAYER
 10
94.3844727637
 20
206.347933347
 11
94.3844727637
 21
217.347933347
  0
LINE
  5
229
100
AcDbEntity
  8
0
100
AcDbLine
 62
7
  6
BYLAYER
 10
33.8844727637
 20
207.8837197846
 11
34.0309193731
 21
207.9443799564
  0
LINE
  5
22A
100
AcDbEntity
  8
0
100
AcDbLine
 62
7
  6
BYLAYER
 10
242.5844727637
 20
192.847933347
 11
243.5844727637
 21
192.847933347
  0
LINE
  5
22B
100
AcDbEntity
  8
0
100
AcDbLine
 62
7
  6
BYLAYER
 10
246.1844727637
 20
192.847933347
 11
247.1844727637
 21
192.847933347
  0
LINE
  5
22C
100
AcDbEntity
  8
0
100
AcDbLine
 62
7
  6
BYLAYER
 10
34.3844727637
 20
199.347933347
 11
37.8844727637
 21
199.347933347
  0
LINE
  5
22D
100
AcDbEntity
  8
0
100
AcDbLine
 62
7
  6
BYLAYER
 10
248.8844727637
 20
201.922933347
 11
247.1844727637
 21
201.922933347
  0
LINE
  5
22E
100
AcDbEntity
  8
0
100
AcDbLine
 62
7
  6
BYLAYER
 10
248.8844727494
 20
202.897933347
 11
253.9844727637
 21
202.897933347
  0
LINE
  5
22F
100
AcDbEntity
  8
0
100
AcDbLine
 62
7
  6
BYLAYER
 10
37.8844727637
 20
203.847933347
 11
41.8844727637
 21
203.847933347
  0
LINE
  5
230
100
AcDbEntity
  8
0
100
AcDbLine
 62
7
  6
BYLAYER
 10
255.0844727637
 20
205.1080469848
 11
255.1844727637
 21
205.1080469848
  0
LINE
  5
231
100
AcDbEntity
  8
0
100
AcDbLine
 62
7
  6
BYLAYER
 10
244.8844727637
 20
205.597933347
 11
244.0844727637
 21
205.597933347
  0
LINE
  5
232
100
AcDbEntity
  8
0
100
AcDbLine
 62
7
  6
BYLAYER
 10
50.8844727637
 20
205.897933347
 11
41.8844727637
 21
205.897933347
  0
LINE
  5
233
100
AcDbEntity
  8
0
100
AcDbLine
 62
7
  6
BYLAYER
 10
251.5844727637
 20
206.0580469848
 11
249.1844727637
 21
206.0580469848
  0
LINE
  5
234
100
AcDbEntity
  8
0
100
AcDbLine
 62
7
  6
BYLAYER
 10
94.3844727637
 20
206.347933347
 11
41.8844727637
 21
206.347933347
  0
LINE
  5
235
100
AcDbEntity
  8
0
100
AcDbLine
 62
7
  6
BYLAYER
 10
94.3844727637
 20
206.6479473583
 11
41.8844727637
 21
206.6479473583
  0
LINE
  5
236
100
AcDbEntity
  8
0
100
AcDbLine
 62
7
  6
BYLAYER
 10
246.1844727637
 20
206.897933347
 11
245.7844727637
 21
206.897933347
  0
LINE
  5
237
100
AcDbEntity
  8
0
100
AcDbLine
 62
7
  6
BYLAYER
 10
252.3844727637
 20
207.5580469848
 11
255.0844727637
 21
207.5580469848
  0
LINE
  5
238
100
AcDbEntity
  8
0
100
AcDbLine
 62
7
  6
BYLAYER
 10
243.5844727637
 20
207.597933347
 11
245.3844727637
 21
207.5979333453
  0
LINE
  5
239
100
AcDbEntity
  8
0
100
AcDbLine
 62
7
  6
BYLAYER
 10
94.3844727637
 20
208.191683347
 11
41.8844727637
 21
208.191683347
  0
LINE
  5
23A
100
AcDbEntity
  8
0
100
AcDbLine
 62
7
  6
BYLAYER
 10
37.8844727637
 20
208.2021000136
 11
35.5915795134
 21
208.2021000136
  0
LINE
  5
23B
100
AcDbEntity
  8
0
100
AcDbLine
 62
7
  6
BYLAYER
 10
35.3844727637
 20
208.847933347
 11
37.8844727637
 21
208.847933347
  0
LINE
  5
23C
100
AcDbEntity
  8
0
100
AcDbLine
 62
7
  6
BYLAYER
 10
41.8844727637
 20
208.847933347
 11
242.5844727637
 21
208.847933347
  0
LINE
  5
23D
100
AcDbEntity
  8
0
100
AcDbLine
 62
7
  6
BYLAYER
 10
256.1844727637
 20
208.847933347
 11
270.3844727637
 21
208.847933347
  0
LINE
  5
23E
100
AcDbEntity
  8
0
100
AcDbLine
 62
7
  6
BYLAYER
 10
84.1844727634
 20
211.8479333194
 11
83.6844727624
 21
211.8479332522
  0
LINE
  5
23F
100
AcDbEntity
  8
0
100
AcDbLine
 62
7
  6
BYLAYER
 10
74.1844727634
 20
211.8479333194
 11
73.6844727624
 21
211.8479332522
  0
LINE
  5
240
100
AcDbEntity
  8
0
100
AcDbLine
 62
7
  6
BYLAYER
 10
64.1844727634
 20
211.8479333194
 11
63.6844727624
 21
211.8479332522
  0
LINE
  5
241
100
AcDbEntity
  8
0
100
AcDbLine
 62
7
  6
BYLAYER
 10
54.1844727634
 20
211.8479333194
 11
53.6844727624
 21
211.8479332522
  0
LINE
  5
242
100
AcDbEntity
  8
0
100
AcDbLine
 62
7
  6
BYLAYER
 10
86.5844727638
 20
211.8479333998
 11
87.084472764
 21
211.8479336021
  0
LINE
  5
243
100
AcDbEntity
  8
0
100
AcDbLine
 62
7
  6
BYLAYER
 10
76.5844727638
 20
211.8479333998
 11
77.084472764
 21
211.8479336021
  0
LINE
  5
244
100
AcDbEntity
  8
0
100
AcDbLine
 62
7
  6
BYLAYER
 10
66.5844727638
 20
211.8479333998
 11
67.084472764
 21
211.8479336021
  0
LINE
  5
245
100
AcDbEntity
  8
0
100
AcDbLine
 62
7
  6
BYLAYER
 10
56.5844727638
 20
211.8479333998
 11
57.084472764
 21
211.8479336021
  0
LINE
  5
246
100
AcDbEntity
  8
0
100
AcDbLine
 62
7
  6
BYLAYER
 10
256.1844727637
 20
212.847933347
 11
270.3844727637
 21
212.847933347
  0
LINE
  5
247
100
AcDbEntity
  8
0
100
AcDbLine
 62
7
  6
BYLAYER
 10
37.8844727637
 20
214.847933347
 11
35.3844727637
 21
214.847933347
  0
LINE
  5
248
100
AcDbEntity
  8
0
100
AcDbLine
 62
7
  6
BYLAYER
 10
41.8844727637
 20
214.847933347
 11
242.5844727637
 21
214.847933347
  0
LINE
  5
249
100
AcDbEntity
  8
0
100
AcDbLine
 62
7
  6
BYLAYER
 10
256.1844727637
 20
214.847933347
 11
270.3844727637
 21
214.847933347
  0
LINE
  5
24A
100
AcDbEntity
  8
0
100
AcDbLine
 62
7
  6
BYLAYER
 10
35.5915795135
 20
215.4937666803
 11
37.8844727637
 21
215.4937666803
  0
LINE
  5
24B
100
AcDbEntity
  8
0
100
AcDbLine
 62
7
  6
BYLAYER
 10
94.3844727637
 20
215.504183347
 11
41.8844727637
 21
215.504183347
  0
LINE
  5
24C
100
AcDbEntity
  8
0
100
AcDbLine
 62
7
  6
BYLAYER
 10
245.3844727637
 20
216.097933347
 11
243.5844727637
 21
216.097933347
  0
LINE
  5
24D
100
AcDbEntity
  8
0
100
AcDbLine
 62
7
  6
BYLAYER
 10
252.3844727637
 20
216.1378197091
 11
255.0844727637
 21
216.1378197091
  0
LINE
  5
24E
100
AcDbEntity
  8
0
100
AcDbLine
 62
7
  6
BYLAYER
 10
246.1844727637
 20
216.797933347
 11
245.7844727637
 21
216.797933347
  0
LINE
  5
24F
100
AcDbEntity
  8
0
100
AcDbLine
 62
7
  6
BYLAYER
 10
94.3844727637
 20
217.047933347
 11
41.8844727637
 21
217.047933347
  0
LINE
  5
250
100
AcDbEntity
  8
0
100
AcDbLine
 62
7
  6
BYLAYER
 10
41.8844727637
 20
217.347933347
 11
94.3844727637
 21
217.347933347
  0
LINE
  5
251
100
AcDbEntity
  8
0
100
AcDbLine
 62
7
  6
BYLAYER
 10
251.5844727637
 20
217.6378197091
 11
249.1844727637
 21
217.6378197091
  0
LINE
  5
252
100
AcDbEntity
  8
0
100
AcDbLine
 62
7
  6
BYLAYER
 10
244.0844727637
 20
218.097933347
 11
244.8844727637
 21
218.097933347
  0
LINE
  5
253
100
AcDbEntity
  8
0
100
AcDbLine
 62
7
  6
BYLAYER
 10
255.0844727637
 20
218.5878197091
 11
255.1844727637
 21
218.5878197091
  0
LINE
  5
254
100
AcDbEntity
  8
0
100
AcDbLine
 62
7
  6
BYLAYER
 10
37.8844727637
 20
219.847933347
 11
41.8844727637
 21
219.847933347
  0
LINE
  5
255
100
AcDbEntity
  8
0
100
AcDbLine
 62
7
  6
BYLAYER
 10
248.8844727499
 20
220.797933347
 11
253.9844727637
 21
220.797933347
  0
LINE
  5
256
100
AcDbEntity
  8
0
100
AcDbLine
 62
7
  6
BYLAYER
 10
248.8844727637
 20
221.772933347
 11
247.1844727637
 21
221.772933347
  0
LINE
  5
257
100
AcDbEntity
  8
0
100
AcDbLine
 62
7
  6
BYLAYER
 10
34.3844727637
 20
224.347933347
 11
37.8844727637
 21
224.347933347
  0
LINE
  5
258
100
AcDbEntity
  8
0
100
AcDbLine
 62
7
  6
BYLAYER
 10
242.5844727637
 20
230.847933347
 11
243.5844727637
 21
230.847933347
  0
LINE
  5
259
100
AcDbEntity
  8
0
100
AcDbLine
 62
7
  6
BYLAYER
 10
246.1844727637
 20
230.847933347
 11
247.1844727637
 21
230.847933347
  0
LINE
  5
25A
100
AcDbEntity
  8
0
100
AcDbLine
 62
7
  6
BYLAYER
 10
255.1844727637
 20
207.4580469848
 11
256.1844727637
 21
207.8722605472
  0
LINE
  5
25B
100
AcDbEntity
  8
0
100
AcDbLine
 62
7
  6
BYLAYER
 10
255.1844727637
 20
216.2378197091
 11
256.1844727637
 21
215.8236061467
  0
LINE
  5
25C
100
AcDbEntity
  8
0
100
AcDbLine
 62
7
  6
BYLAYER
 10
270.8844727637
 20
212.6408265658
 11
270.3844727637
 21
212.847933347
  0
LINE
  5
25D
100
AcDbEntity
  8
0
100
AcDbLine
 62
7
  6
BYLAYER
 10
255.1844727637
 20
216.2378197091
 11
255.0844727637
 21
216.1378197091
  0
LINE
  5
25E
100
AcDbEntity
  8
0
100
AcDbLine
 62
7
  6
BYLAYER
 10
255.1844727637
 20
207.4580469848
 11
255.0844727637
 21
207.5580469848
  0
LINE
  5
25F
100
AcDbEntity
  8
0
100
AcDbLine
 62
7
  6
BYLAYER
 10
255.0844727637
 20
203.997933347
 11
253.9844727637
 21
202.897933347
  0
LINE
  5
260
100
AcDbEntity
  8
0
100
AcDbLine
 62
7
  6
BYLAYER
 10
255.0844727637
 20
219.697933347
 11
253.9844727637
 21
220.797933347
  0
LINE
  5
261
100
AcDbEntity
  8
0
100
AcDbLine
 62
7
  6
BYLAYER
 10
255.1844727637
 20
205.1080469848
 11
256.1844727637
 21
206.5222605472
  0
LINE
  5
262
100
AcDbEntity
  8
0
100
AcDbLine
 62
7
  6
BYLAYER
 10
270.3844727637
 20
208.847933347
 11
270.8844727637
 21
209.347933347
  0
LINE
  5
263
100
AcDbEntity
  8
0
100
AcDbLine
 62
7
  6
BYLAYER
 10
270.3844727637
 20
214.847933347
 11
270.8844727637
 21
214.347933347
  0
LINE
  5
264
100
AcDbEntity
  8
0
100
AcDbLine
 62
7
  6
BYLAYER
 10
255.1844727637
 20
218.5878197091
 11
256.1844727637
 21
217.1736061467
  0
LINE
  5
265
100
AcDbEntity
  8
0
100
AcDbLine
 62
7
  6
BYLAYER
 10
242.5844727637
 20
230.8477763475
 11
242.5844727637
 21
192.8480903464
  0
LINE
  5
266
100
AcDbEntity
  8
0
100
AcDbLine
 62
7
  6
BYLAYER
 10
243.5844727637
 20
192.8480903464
 11
243.5844727637
 21
230.8477763475
  0
LINE
  5
267
100
AcDbEntity
  8
0
100
AcDbLine
 62
7
  6
BYLAYER
 10
244.0844727637
 20
218.097933347
 11
244.0844727637
 21
205.597933347
  0
LINE
  5
268
100
AcDbEntity
  8
0
100
AcDbLine
 62
7
  6
BYLAYER
 10
244.8844727637
 20
205.597933347
 11
244.8844727637
 21
218.097933347
  0
LINE
  5
269
100
AcDbEntity
  8
0
100
AcDbLine
 62
7
  6
BYLAYER
 10
245.3844727637
 20
206.097933347
 11
245.3844727637
 21
217.597933347
  0
LINE
  5
26A
100
AcDbEntity
  8
0
100
AcDbLine
 62
7
  6
BYLAYER
 10
245.7844727637
 20
216.797933347
 11
245.7844727637
 21
206.897933347
  0
LINE
  5
26B
100
AcDbEntity
  8
0
100
AcDbLine
 62
7
  6
BYLAYER
 10
246.1844727637
 20
230.8477750389
 11
246.1844727637
 21
192.848091655
  0
LINE
  5
26C
100
AcDbEntity
  8
0
100
AcDbLine
 62
7
  6
BYLAYER
 10
247.1844727637
 20
192.848091655
 11
247.1844727637
 21
230.8477750389
  0
LINE
  5
26D
100
AcDbEntity
  8
0
100
AcDbLine
 62
7
  6
BYLAYER
 10
248.8844727637
 20
201.922933347
 11
248.8844727637
 21
221.772933347
  0
LINE
  5
26E
100
AcDbEntity
  8
0
100
AcDbLine
 62
7
  6
BYLAYER
 10
249.1844727637
 20
202.2230550544
 11
249.1844727637
 21
202.897933347
  0
LINE
  5
26F
100
AcDbEntity
  8
0
100
AcDbLine
 62
7
  6
BYLAYER
 10
249.1844727637
 20
203.6479063772
 11
249.1844727637
 21
220.0479603168
  0
LINE
  5
270
100
AcDbEntity
  8
0
100
AcDbLine
 62
7
  6
BYLAYER
 10
249.1844727637
 20
220.797933347
 11
249.1844727637
 21
221.4728116395
  0
LINE
  5
271
100
AcDbEntity
  8
0
100
AcDbLine
 62
7
  6
BYLAYER
 10
251.5844727637
 20
206.0580469848
 11
251.5844727637
 21
217.6378197091
  0
LINE
  5
272
100
AcDbEntity
  8
0
100
AcDbLine
 62
7
  6
BYLAYER
 10
252.3844727637
 20
216.8378197091
 11
252.3844727637
 21
206.8580469848
  0
LINE
  5
273
100
AcDbEntity
  8
0
100
AcDbLine
 62
7
  6
BYLAYER
 10
255.0844727637
 20
216.1378197091
 11
255.0844727637
 21
207.5580469848
  0
LINE
  5
274
100
AcDbEntity
  8
0
100
AcDbLine
 62
7
  6
BYLAYER
 10
255.0844727637
 20
203.997933347
 11
255.0844727637
 21
205.1080469848
  0
LINE
  5
275
100
AcDbEntity
  8
0
100
AcDbLine
 62
7
  6
BYLAYER
 10
255.0844727637
 20
218.5878197091
 11
255.0844727637
 21
219.697933347
  0
LINE
  5
276
100
AcDbEntity
  8
0
100
AcDbLine
 62
7
  6
BYLAYER
 10
255.1844727637
 20
218.5878197091
 11
255.1844727637
 21
216.2378197091
  0
LINE
  5
277
100
AcDbEntity
  8
0
100
AcDbLine
 62
7
  6
BYLAYER
 10
255.1844727637
 20
207.4580469848
 11
255.1844727637
 21
205.1080469848
  0
LINE
  5
278
100
AcDbEntity
  8
0
100
AcDbLine
 62
7
  6
BYLAYER
 10
256.1844727637
 20
206.5222605472
 11
256.1844727637
 21
217.1736061467
  0
LINE
  5
279
100
AcDbEntity
  8
0
100
AcDbLine
 62
7
  6
BYLAYER
 10
270.3844727637
 20
208.847933347
 11
270.3844727637
 21
214.847933347
  0
LINE
  5
27A
100
AcDbEntity
  8
0
100
AcDbLine
 62
7
  6
BYLAYER
 10
270.8844727637
 20
209.347933347
 11
270.8844727637
 21
214.347933347
  0
CIRCLE
  5
27B
100
AcDbEntity
  8
0
100
AcDbCircle
 62
7
  6
BYLAYER
 10
65.3844727637
 20
211.847933347
 40
1.2
  0
CIRCLE
  5
27C
100
AcDbEntity
  8
0
100
AcDbCircle
 62
7
  6
BYLAYER
 10
85.3844727637
 20
211.847933347
 40
1.2
  0
CIRCLE
  5
27D
100
AcDbEntity
  8
0
100
AcDbCircle
 62
7
  6
BYLAYER
 10
75.3844727637
 20
211.847933347
 40
1.2
  0
CIRCLE
  5
27E
100
AcDbEntity
  8
0
100
AcDbCircle
 62
7
  6
BYLAYER
 10
55.3844727637
 20
211.847933347
 40
1.2
  0
ARC
  5
27F
100
AcDbEntity
  8
0
100
AcDbCircle
 62
7
  6
BYLAYER
 10
244.0844727637
 20
205.097933347
 40
0.5
100
AcDbArc
 50
90.0
 51
180.0
  0
ARC
  5
280
100
AcDbEntity
  8
0
100
AcDbCircle
 62
7
  6
BYLAYER
 10
244.0844727637
 20
218.597933347
 40
0.5
100
AcDbArc
 50
180.0
 51
270.0
  0
ARC
  5
281
100
AcDbEntity
  8
0
100
AcDbCircle
 62
7
  6
BYLAYER
 10
244.8844727637
 20
206.097933347
 40
0.5
100
AcDbArc
 50
270.0
 51
360.0
  0
ARC
  5
282
100
AcDbEntity
  8
0
100
AcDbCircle
 62
7
  6
BYLAYER
 10
244.8844727637
 20
217.597933347
 40
0.5
100
AcDbArc
 50
0.0
 51
90.0
  0
ARC
  5
283
100
AcDbEntity
  8
0
100
AcDbCircle
 62
7
  6
BYLAYER
 10
34.3844727637
 20
199.847933347
 40
0.5
100
AcDbArc
 50
180.0
 51
270.0
  0
ARC
  5
284
100
AcDbEntity
  8
0
100
AcDbCircle
 62
7
  6
BYLAYER
 10
34.3844727637
 20
223.847933347
 40
0.5
100
AcDbArc
 50
90.0
 51
180.0
  0
ARC
  5
285
100
AcDbEntity
  8
0
100
AcDbCircle
 62
7
  6
BYLAYER
 10
245.7844727637
 20
207.297933347
 40
0.4
100
AcDbArc
 50
180.0
 51
270.0
  0
ARC
  5
286
100
AcDbEntity
  8
0
100
AcDbCircle
 62
7
  6
BYLAYER
 10
245.7844727637
 20
216.397933347
 40
0.4
100
AcDbArc
 50
90.0
 51
180.0
  0
ARC
  5
287
100
AcDbEntity
  8
0
100
AcDbCircle
 62
7
  6
BYLAYER
 10
248.8844727637
 20
221.472933347
 40
0.3
100
AcDbArc
 50
0.0
 51
90.0
  0
ARC
  5
288
100
AcDbEntity
  8
0
100
AcDbCircle
 62
7
  6
BYLAYER
 10
248.8844727637
 20
202.222933347
 40
0.3
100
AcDbArc
 50
270.0
 51
360.0
  0
SPLINE
  5
289
100
AcDbEntity
  8
0
100
AcDbSpline
 62
7
  6
BYLAYER
 70
0
 71
3
 72
16
 73
12
 74
0
 42
0.0000001
 43
0.0000001
 44
0.0000000001
 40
0.0
 40
0.0
 40
0.0
 40
0.0
 40
0.062283648
 40
0.1247186151
 40
0.1872284543
 40
0.2497653464
 40
0.3747364025
 40
0.4997796839
 40
0.6248476275
 40
0.7499247274
 40
1.0
 40
1.0
 40
1.0
 40
1.0
 10
248.8844727517
 20
216.1378197089
 30
0.0
 10
248.9024165466
 20
216.1378197089
 30
0.0
 10
248.9386301097
 20
216.1298968981
 30
0.0
 10
248.9846837683
 20
216.1005072896
 30
0.0
 10
249.0225757262
 20
216.0615725456
 30
0.0
 10
249.0641381537
 20
216.0024988669
 30
0.0
 10
249.1031579065
 20
215.9207507089
 30
0.0
 10
249.1362338722
 20
215.8176963289
 30
0.0
 10
249.1592462173
 20
215.7119390007
 30
0.0
 10
249.1793059678
 20
215.5691446503
 30
0.0
 10
249.1844727637
 20
215.4609010252
 30
0.0
 10
249.1844727637
 20
215.3888548372
 30
0.0
  0
SPLINE
  5
28A
100
AcDbEntity
  8
0
100
AcDbSpline
 62
7
  6
BYLAYER
 70
0
 71
3
 72
16
 73
12
 74
0
 42
0.0000001
 43
0.0000001
 44
0.0000000001
 40
0.0
 40
0.0
 40
0.0
 40
0.0
 40
0.2500752584
 40
0.3751523495
 40
0.500220281
 40
0.6252635428
 40
0.7502345597
 40
0.812771408
 40
0.8752812346
 40
0.9377162262
 40
1.0
 40
1.0
 40
1.0
 40
1.0
 10
249.1844727637
 20
208.3070118567
 30
0.0
 10
249.1844727637
 20
208.234965673
 30
0.0
 10
249.1793059695
 20
208.1267220547
 30
0.0
 10
249.1592462196
 20
207.9839277149
 30
0.0
 10
249.1362338791
 20
207.8781703979
 30
0.0
 10
249.1031579261
 20
207.7751160359
 30
0.0
 10
249.0641381927
 20
207.6933679017
 30
0.0
 10
249.0225757876
 20
207.6342942418
 30
0.0
 10
248.9846838558
 20
207.5953594882
 30
0.0
 10
248.9386301896
 20
207.5659698178
 30
0.0
 10
248.9024165808
 20
207.5580469848
 30
0.0
 10
248.8844727497
 20
207.5580469848
 30
0.0
  0
SPLINE
  5
28B
100
AcDbEntity
  8
0
100
AcDbSpline
 62
7
  6
BYLAYER
 70
0
 71
3
 72
16
 73
12
 74
0
 42
0.0000001
 43
0.0000001
 44
0.0000000001
 40
0.0
 40
0.0
 40
0.0
 40
0.0
 40
0.2361644945
 40
0.3546289554
 40
0.473730183
 40
0.594129593
 40
0.7173081786
 40
0.7811242435
 40
0.8478183721
 40
0.9198761611
 40
1.0
 40
1.0
 40
1.0
 40
1.0
 10
249.1844727637
 20
206.8080739546
 30
0.0
 10
249.1844727637
 20
206.8764699154
 30
0.0
 10
249.1807661517
 20
206.9792962891
 30
0.0
 10
249.1647118112
 20
207.1156222414
 30
0.0
 10
249.145494564
 20
207.217614503
 30
0.0
 10
249.1166930639
 20
207.3187876405
 30
0.0
 10
249.0813428747
 20
207.4010017845
 30
0.0
 10
249.0420951641
 20
207.4633207663
 30
0.0
 10
249.003622068
 20
207.5080087462
 30
0.0
 10
248.9521570797
 20
207.5462919703
 30
0.0
 10
248.9076775373
 20
207.5580469848
 30
0.0
 10
248.8844727497
 20
207.5580469848
 30
0.0
  0
SPLINE
  5
28C
100
AcDbEntity
  8
0
100
AcDbSpline
 62
7
  6
BYLAYER
 70
0
 71
3
 72
16
 73
12
 74
0
 42
0.0000001
 43
0.0000001
 44
0.0000000001
 40
0.0
 40
0.0
 40
0.0
 40
0.0
 40
0.2361645071
 40
0.3546289745
 40
0.4737302076
 40
0.5941296224
 40
0.7173082116
 40
0.7811242765
 40
0.8478184029
 40
0.9198761376
 40
1.0
 40
1.0
 40
1.0
 40
1.0
 10
249.1844727637
 20
216.8877927393
 30
0.0
 10
249.1844727637
 20
216.8193967753
 30
0.0
 10
249.1807661495
 20
216.7165703967
 30
0.0
 10
249.1647118116
 20
216.5802444375
 30
0.0
 10
249.1454945586
 20
216.4782521725
 30
0.0
 10
249.1166930533
 20
216.3770790329
 30
0.0
 10
249.0813428632
 20
216.2948648873
 30
0.0
 10
249.0420951519
 20
216.2325459058
 30
0.0
 10
249.003622059
 20
216.1878579438
 30
0.0
 10
248.952157077
 20
216.1495747341
 30
0.0
 10
248.907677546
 20
216.1378197089
 30
0.0
 10
248.8844727517
 20
216.1378197089
 30
0.0
  0
SPLINE
  5
28D
100
AcDbEntity
  8
0
100
AcDbSpline
 62
7
  6
BYLAYER
 70
0
 71
3
 72
16
 73
12
 74
0
 42
0.0000001
 43
0.0000001
 44
0.0000000001
 40
0.0
 40
0.0
 40
0.0
 40
0.0
 40
0.2361645074
 40
0.354628975
 40
0.4737302084
 40
0.5941296237
 40
0.7173082138
 40
0.7811242793
 40
0.8478184067
 40
0.9198761476
 40
1.0
 40
1.0
 40
1.0
 40
1.0
 10
249.1844727637
 20
203.6479063772
 30
0.0
 10
249.1844727637
 20
203.5795104128
 30
0.0
 10
249.1807661496
 20
203.4766840339
 30
0.0
 10
249.1647118112
 20
203.3403580741
 30
0.0
 10
249.1454945583
 20
203.2383658085
 30
0.0
 10
249.1166930526
 20
203.1371926682
 30
0.0
 10
249.0813428619
 20
203.0549785219
 30
0.0
 10
249.0420951492
 20
202.9926595402
 30
0.0
 10
249.0036220547
 20
202.9479715763
 30
0.0
 10
248.952157071
 20
202.9096883691
 30
0.0
 10
248.9076775409
 20
202.897933347
 30
0.0
 10
248.8844727494
 20
202.897933347
 30
0.0
  0
SPLINE
  5
28E
100
AcDbEntity
  8
0
100
AcDbSpline
 62
7
  6
BYLAYER
 70
0
 71
3
 72
16
 73
12
 74
0
 42
0.0000001
 43
0.0000001
 44
0.0000000001
 40
0.0
 40
0.0
 40
0.0
 40
0.0
 40
0.2361641776
 40
0.3546284724
 40
0.4737295335
 40
0.5941287672
 40
0.717307145
 40
0.7811230832
 40
0.8478170464
 40
0.9198751352
 40
1.0
 40
1.0
 40
1.0
 40
1.0
 10
249.1844727637
 20
220.0479603168
 30
0.0
 10
249.1844727637
 20
220.116356187
 30
0.0
 10
249.1807661747
 20
220.2191824236
 30
0.0
 10
249.1647118495
 20
220.3555081906
 30
0.0
 10
249.1454946911
 20
220.4575003177
 30
0.0
 10
249.1166933344
 20
220.558673336
 30
0.0
 10
249.0813432412
 20
220.6408873533
 30
0.0
 10
249.0420957278
 20
220.7032062931
 30
0.0
 10
249.0036227697
 20
220.7478943631
 30
0.0
 10
248.9521578321
 20
220.7861782562
 30
0.0
 10
248.9076778351
 20
220.797933347
 30
0.0
 10
248.8844727499
 20
220.797933347
 30
0.0
  0
SPLINE
  5
28F
100
AcDbEntity
  8
0
100
AcDbSpline
 62
7
  6
BYLAYER
 70
0
 71
3
 72
15
 73
11
 74
0
 42
0.0000001
 43
0.0000001
 44
0.0000000001
 40
0.0
 40
0.0
 40
0.0
 40
0.0
 40
0.3357464326
 40
0.5006228208
 40
0.6538321835
 40
0.7875003966
 40
0.8934761203
 40
0.9650028327
 40
0.9867793461
 40
1.0
 40
1.0
 40
1.0
 40
1.0
 10
35.5915795134
 20
208.2021000136
 30
0.0
 10
35.5606183822
 20
208.2718638961
 30
0.0
 10
35.5168976366
 20
208.376989223
 30
0.0
 10
35.4644177501
 20
208.5160753113
 30
0.0
 10
35.4306908945
 20
208.6130587177
 30
0.0
 10
35.4039953853
 20
208.698404133
 30
0.0
 10
35.3862740454
 20
208.7666778149
 30
0.0
 10
35.3780434262
 20
208.8117757616
 30
0.0
 10
35.3781747847
 20
208.8357207681
 30
0.0
 10
35.3804849682
 20
208.8439492712
 30
0.0
 10
35.3826120112
 20
208.8460725945
 30
0.0
  0
SPLINE
  5
290
100
AcDbEntity
  8
0
100
AcDbSpline
 62
7
  6
BYLAYER
 70
0
 71
3
 72
19
 73
15
 74
0
 42
0.0000001
 43
0.0000001
 44
0.0000000001
 40
0.0
 40
0.0
 40
0.0
 40
0.0
 40
0.1250769135
 40
0.2495393505
 40
0.3119624305
 40
0.3744838236
 40
0.4371739459
 40
0.4999961695
 40
0.5628166999
 40
0.6255032226
 40
0.6880211599
 40
0.7504437929
 40
0.8749086581
 40
1.0
 40
1.0
 40
1.0
 40
1.0
 10
87.0844727645
 20
211.8479336021
 30
0.0
 10
87.0855014988
 20
212.077217385
 30
0.0
 10
87.0014359491
 20
212.538711562
 30
0.0
 10
86.6987240648
 20
213.0403378667
 30
0.0
 10
86.3578131201
 20
213.3490594299
 30
0.0
 10
86.059604803
 20
213.5254230445
 30
0.0
 10
85.7304029218
 20
213.6360783441
 30
0.0
 10
85.3844879187
 20
213.673878227
 30
0.0
 10
85.0385779072
 20
213.636090152
 30
0.0
 10
84.7093890373
 20
213.5254512637
 30
0.0
 10
84.4111848832
 20
213.3490945644
 30
0.0
 10
84.0703048183
 20
213.0403872586
 30
0.0
 10
83.7672167266
 20
212.5387946721
 30
0.0
 10
83.6838915684
 20
212.077245056
 30
0.0
 10
83.6844727619
 20
211.8479332522
 30
0.0
  0
SPLINE
  5
291
100
AcDbEntity
  8
0
100
AcDbSpline
 62
7
  6
BYLAYER
 70
0
 71
3
 72
19
 73
15
 74
0
 42
0.0000001
 43
0.0000001
 44
0.0000000001
 40
0.0
 40
0.0
 40
0.0
 40
0.0
 40
0.1250769089
 40
0.2495390018
 40
0.3119620645
 40
0.3744834576
 40
0.4371734672
 40
0.4999955734
 40
0.5628160558
 40
0.6255025816
 40
0.6880205127
 40
0.7504430739
 40
0.8749082577
 40
1.0
 40
1.0
 40
1.0
 40
1.0
 10
83.6844727619
 20
211.8479332522
 30
0.0
 10
83.6834311849
 20
211.6186494422
 30
0.0
 10
83.7675166529
 20
211.1571560796
 30
0.0
 10
84.070219135
 20
210.6555287876
 30
0.0
 10
84.4111313907
 20
210.3468081932
 30
0.0
 10
84.7093393954
 20
210.1704447382
 30
0.0
 10
85.038540775
 20
210.0597887798
 30
0.0
 10
85.3844553607
 20
210.0219882402
 30
0.0
 10
85.7303652614
 20
210.0597764163
 30
0.0
 10
86.0595541814
 20
210.1704142418
 30
0.0
 10
86.3577599876
 20
210.3467700064
 30
0.0
 10
86.6986345946
 20
210.6554793168
 30
0.0
 10
87.0017633808
 20
211.1570670451
 30
0.0
 10
87.0850008931
 20
211.6186208423
 30
0.0
 10
87.0844727645
 20
211.8479336021
 30
0.0
  0
SPLINE
  5
292
100
AcDbEntity
  8
0
100
AcDbSpline
 62
7
  6
BYLAYER
 70
0
 71
3
 72
15
 73
11
 74
0
 42
0.0000001
 43
0.0000001
 44
0.0000000001
 40
0.0
 40
0.0
 40
0.0
 40
0.0
 40
0.3357509076
 40
0.5006275378
 40
0.6538373117
 40
0.787506137
 40
0.8934800697
 40
0.9650046771
 40
0.9867816714
 40
1.0
 40
1.0
 40
1.0
 40
1.0
 10
35.5915795135
 20
215.4937666803
 30
0.0
 10
35.5606225996
 20
215.4239998025
 30
0.0
 10
35.5169099338
 20
215.3188700981
 30
0.0
 10
35.4644253383
 20
215.1797846303
 30
0.0
 10
35.4306854558
 20
215.0828055772
 30
0.0
 10
35.4039752736
 20
214.9974647605
 30
0.0
 10
35.3862581551
 20
214.9291904325
 30
0.0
 10
35.3780398041
 20
214.8840906466
 30
0.0
 10
35.3781807923
 20
214.8601463742
 30
0.0
 10
35.3804873849
 20
214.851919094
 30
0.0
 10
35.3826120112
 20
214.8497940994
 30
0.0
  0
SPLINE
  5
293
100
AcDbEntity
  8
0
100
AcDbSpline
 62
7
  6
BYLAYER
 70
0
 71
3
 72
19
 73
15
 74
0
 42
0.0000001
 43
0.0000001
 44
0.0000000001
 40
0.0
 40
0.0
 40
0.0
 40
0.0
 40
0.1250769135
 40
0.2495393505
 40
0.3119624305
 40
0.3744838236
 40
0.4371739459
 40
0.4999961695
 40
0.5628166999
 40
0.6255032226
 40
0.6880211599
 40
0.7504437929
 40
0.8749086581
 40
1.0
 40
1.0
 40
1.0
 40
1.0
 10
77.0844727645
 20
211.8479336021
 30
0.0
 10
77.0855014988
 20
212.077217385
 30
0.0
 10
77.0014359491
 20
212.538711562
 30
0.0
 10
76.6987240648
 20
213.0403378667
 30
0.0
 10
76.3578131201
 20
213.3490594299
 30
0.0
 10
76.059604803
 20
213.5254230445
 30
0.0
 10
75.7304029218
 20
213.6360783441
 30
0.0
 10
75.3844879187
 20
213.673878227
 30
0.0
 10
75.0385779072
 20
213.636090152
 30
0.0
 10
74.7093890373
 20
213.5254512637
 30
0.0
 10
74.4111848832
 20
213.3490945644
 30
0.0
 10
74.0703048183
 20
213.0403872586
 30
0.0
 10
73.7672167267
 20
212.5387946721
 30
0.0
 10
73.6838915683
 20
212.077245056
 30
0.0
 10
73.6844727619
 20
211.8479332522
 30
0.0
  0
SPLINE
  5
294
100
AcDbEntity
  8
0
100
AcDbSpline
 62
7
  6
BYLAYER
 70
0
 71
3
 72
12
 73
8
 74
0
 42
0.0000001
 43
0.0000001
 44
0.0000000001
 40
0.0
 40
0.0
 40
0.0
 40
0.0
 40
0.3135094779
 40
0.6065117095
 40
0.8429046795
 40
0.9313628663
 40
1.0
 40
1.0
 40
1.0
 40
1.0
 10
34.3844727637
 20
216.7511695257
 30
0.0
 10
34.3209088168
 20
216.7282411587
 30
0.0
 10
34.200533185
 20
216.6759106672
 30
0.0
 10
34.0446996063
 20
216.5822140172
 30
0.0
 10
33.9418674208
 20
216.4946240576
 30
0.0
 10
33.8943105759
 20
216.4238232228
 30
0.0
 10
33.8844727637
 20
216.3901892977
 30
0.0
 10
33.8844727637
 20
216.3753954727
 30
0.0
  0
SPLINE
  5
295
100
AcDbEntity
  8
0
100
AcDbSpline
 62
7
  6
BYLAYER
 70
0
 71
3
 72
19
 73
15
 74
0
 42
0.0000001
 43
0.0000001
 44
0.0000000001
 40
0.0
 40
0.0
 40
0.0
 40
0.0
 40
0.1250769089
 40
0.2495390018
 40
0.3119620645
 40
0.3744834576
 40
0.4371734672
 40
0.4999955734
 40
0.5628160558
 40
0.6255025816
 40
0.6880205127
 40
0.7504430739
 40
0.8749082577
 40
1.0
 40
1.0
 40
1.0
 40
1.0
 10
73.6844727619
 20
211.8479332522
 30
0.0
 10
73.6834311849
 20
211.6186494422
 30
0.0
 10
73.7675166529
 20
211.1571560796
 30
0.0
 10
74.070219135
 20
210.6555287876
 30
0.0
 10
74.4111313907
 20
210.3468081932
 30
0.0
 10
74.7093393954
 20
210.1704447382
 30
0.0
 10
75.038540775
 20
210.0597887798
 30
0.0
 10
75.3844553607
 20
210.0219882402
 30
0.0
 10
75.7303652614
 20
210.0597764163
 30
0.0
 10
76.0595541814
 20
210.1704142418
 30
0.0
 10
76.3577599876
 20
210.3467700064
 30
0.0
 10
76.6986345946
 20
210.6554793168
 30
0.0
 10
77.0017633808
 20
211.1570670451
 30
0.0
 10
77.0850008931
 20
211.6186208423
 30
0.0
 10
77.0844727645
 20
211.8479336021
 30
0.0
  0
SPLINE
  5
296
100
AcDbEntity
  8
0
100
AcDbSpline
 62
7
  6
BYLAYER
 70
0
 71
3
 72
19
 73
15
 74
0
 42
0.0000001
 43
0.0000001
 44
0.0000000001
 40
0.0
 40
0.0
 40
0.0
 40
0.0
 40
0.1250769135
 40
0.2495393505
 40
0.3119624306
 40
0.3744838236
 40
0.437173946
 40
0.4999961695
 40
0.5628167
 40
0.6255032227
 40
0.68802116
 40
0.750443793
 40
0.874908658
 40
1.0
 40
1.0
 40
1.0
 40
1.0
 10
67.0844727645
 20
211.8479336021
 30
0.0
 10
67.0855014988
 20
212.077217385
 30
0.0
 10
67.0014359491
 20
212.538711562
 30
0.0
 10
66.6987240648
 20
213.0403378667
 30
0.0
 10
66.3578131201
 20
213.3490594299
 30
0.0
 10
66.059604803
 20
213.5254230445
 30
0.0
 10
65.7304029218
 20
213.6360783441
 30
0.0
 10
65.3844879187
 20
213.673878227
 30
0.0
 10
65.0385779072
 20
213.6360901519
 30
0.0
 10
64.7093890372
 20
213.5254512638
 30
0.0
 10
64.4111848836
 20
213.3490945643
 30
0.0
 10
64.0703048165
 20
213.0403872593
 30
0.0
 10
63.7672167415
 20
212.5387946709
 30
0.0
 10
63.6838915451
 20
212.0772450561
 30
0.0
 10
63.6844727619
 20
211.8479332522
 30
0.0
  0
SPLINE
  5
297
100
AcDbEntity
  8
0
100
AcDbSpline
 62
7
  6
BYLAYER
 70
0
 71
3
 72
19
 73
15
 74
0
 42
0.0000001
 43
0.0000001
 44
0.0000000001
 40
0.0
 40
0.0
 40
0.0
 40
0.0
 40
0.1250769089
 40
0.2495390018
 40
0.3119620645
 40
0.3744834576
 40
0.4371734672
 40
0.4999955734
 40
0.5628160558
 40
0.6255025816
 40
0.6880205127
 40
0.7504430739
 40
0.8749082577
 40
1.0
 40
1.0
 40
1.0
 40
1.0
 10
63.6844727619
 20
211.8479332522
 30
0.0
 10
63.6834311849
 20
211.6186494422
 30
0.0
 10
63.7675166529
 20
211.1571560796
 30
0.0
 10
64.070219135
 20
210.6555287876
 30
0.0
 10
64.4111313907
 20
210.3468081932
 30
0.0
 10
64.7093393954
 20
210.1704447382
 30
0.0
 10
65.038540775
 20
210.0597887798
 30
0.0
 10
65.3844553607
 20
210.0219882402
 30
0.0
 10
65.7303652614
 20
210.0597764163
 30
0.0
 10
66.0595541814
 20
210.1704142418
 30
0.0
 10
66.3577599876
 20
210.3467700064
 30
0.0
 10
66.6986345946
 20
210.6554793168
 30
0.0
 10
67.0017633809
 20
211.1570670451
 30
0.0
 10
67.0850008931
 20
211.6186208423
 30
0.0
 10
67.0844727645
 20
211.8479336021
 30
0.0
  0
SPLINE
  5
298
100
AcDbEntity
  8
0
100
AcDbSpline
 62
7
  6
BYLAYER
 70
0
 71
3
 72
19
 73
15
 74
0
 42
0.0000001
 43
0.0000001
 44
0.0000000001
 40
0.0
 40
0.0
 40
0.0
 40
0.0
 40
0.1250769135
 40
0.2495393505
 40
0.3119624306
 40
0.3744838236
 40
0.437173946
 40
0.4999961695
 40
0.5628167
 40
0.6255032227
 40
0.68802116
 40
0.750443793
 40
0.874908658
 40
1.0
 40
1.0
 40
1.0
 40
1.0
 10
57.0844727645
 20
211.8479336021
 30
0.0
 10
57.0855014988
 20
212.077217385
 30
0.0
 10
57.0014359491
 20
212.538711562
 30
0.0
 10
56.6987240648
 20
213.0403378667
 30
0.0
 10
56.3578131201
 20
213.3490594299
 30
0.0
 10
56.059604803
 20
213.5254230445
 30
0.0
 10
55.7304029218
 20
213.6360783441
 30
0.0
 10
55.3844879187
 20
213.673878227
 30
0.0
 10
55.0385779072
 20
213.6360901519
 30
0.0
 10
54.7093890372
 20
213.5254512638
 30
0.0
 10
54.4111848836
 20
213.3490945643
 30
0.0
 10
54.0703048165
 20
213.0403872593
 30
0.0
 10
53.7672167415
 20
212.5387946709
 30
0.0
 10
53.6838915451
 20
212.0772450561
 30
0.0
 10
53.6844727619
 20
211.8479332522
 30
0.0
  0
SPLINE
  5
299
100
AcDbEntity
  8
0
100
AcDbSpline
 62
7
  6
BYLAYER
 70
0
 71
3
 72
19
 73
15
 74
0
 42
0.0000001
 43
0.0000001
 44
0.0000000001
 40
0.0
 40
0.0
 40
0.0
 40
0.0
 40
0.1250769089
 40
0.2495390018
 40
0.3119620645
 40
0.3744834576
 40
0.4371734672
 40
0.4999955734
 40
0.5628160558
 40
0.6255025816
 40
0.6880205127
 40
0.7504430739
 40
0.8749082577
 40
1.0
 40
1.0
 40
1.0
 40
1.0
 10
53.6844727619
 20
211.8479332522
 30
0.0
 10
53.6834311849
 20
211.6186494422
 30
0.0
 10
53.7675166529
 20
211.1571560796
 30
0.0
 10
54.070219135
 20
210.6555287876
 30
0.0
 10
54.4111313907
 20
210.3468081932
 30
0.0
 10
54.7093393954
 20
210.1704447382
 30
0.0
 10
55.038540775
 20
210.0597887798
 30
0.0
 10
55.3844553607
 20
210.0219882402
 30
0.0
 10
55.7303652614
 20
210.0597764163
 30
0.0
 10
56.0595541814
 20
210.1704142418
 30
0.0
 10
56.3577599876
 20
210.3467700064
 30
0.0
 10
56.6986345945
 20
210.6554793168
 30
0.0
 10
57.0017633814
 20
211.1570670451
 30
0.0
 10
57.0850008922
 20
211.6186208423
 30
0.0
 10
57.0844727645
 20
211.8479336021
 30
0.0
  0
SPLINE
  5
29A
100
AcDbEntity
  8
0
100
AcDbSpline
 62
7
  6
BYLAYER
 70
0
 71
3
 72
12
 73
8
 74
0
 42
0.0000001
 43
0.0000001
 44
0.0000000001
 40
0.0
 40
0.0
 40
0.0
 40
0.0
 40
0.3135091842
 40
0.6065171773
 40
0.8429173291
 40
0.931380193
 40
1.0
 40
1.0
 40
1.0
 40
1.0
 10
34.3844649527
 20
206.944721663
 30
0.0
 10
34.3209014112
 20
206.9676523613
 30
0.0
 10
34.20052579
 20
207.0199850211
 30
0.0
 10
34.04466898
 20
207.1136487314
 30
0.0
 10
33.9418302458
 20
207.2012458922
 30
0.0
 10
33.8942934951
 20
207.2720599388
 30
0.0
 10
33.8844606356
 20
207.3056912517
 30
0.0
 10
33.8844606356
 20
207.3204814457
 30
0.0
  0
ELLIPSE
  5
29B
100
AcDbEntity
  8
0
100
AcDbEllipse
 62
7
  6
BYLAYER
 10
251.5844727637
 20
206.8580469848
 30
0.0
 11
0.0
 21
0.8
 31
0.0
 40
1.0
 41
-3.1415926536
 42
-1.5707963268
  0
ELLIPSE
  5
29C
100
AcDbEntity
  8
0
100
AcDbEllipse
 62
7
  6
BYLAYER
 10
251.5844727637
 20
216.8378197091
 30
0.0
 11
0.0
 21
0.8
 31
0.0
 40
1.0
 41
-1.5707963268
 42
0.0
  0
ENDSEC
  0
SECTION
  2
OBJECTS
  0
DICTIONARY
  5
C
100
AcDbDictionary
280
0
281
1
  3
ACAD_GROUP
350
D
  3
ACAD_MLINESTYLE
350
17
  3
ACAD_LAYOUT
350
1A
  3
ACAD_PLOTSETTINGS
350
19
  3
ACAD_PLOTSTYLENAME
350
E
  0
DICTIONARY
  5
D
102
{ACAD_REACTORS
330
C
102
}
100
AcDbDictionary
280
0
281
1
  0
ACDBDICTIONARYWDFLT
  5
E
102
{ACAD_REACTORS
330
C
102
}
100
AcDbDictionary
281
1
  3
Normal
350
F
100
AcDbDictionaryWithDefault
340
F
  0
DICTIONARY
  5
17
102
{ACAD_REACTORS
330
C
102
}
100
AcDbDictionary
280
0
281
1
  3
Standard
350
18
  0
DICTIONARY
  5
19
102
{ACAD_REACTORS
330
C
102
}
100
AcDbDictionary
281
1
  0
DICTIONARY
  5
1A
102
{ACAD_REACTORS
330
C
102
}
100
AcDbDictionary
281
1
  3
Model
350
29D
  3
Layout1
350
29E
  0
ACDBPLACEHOLDER
  5
F
102
{ACAD_REACTORS
330
E
102
}
  0
MLINESTYLE
  5
18
102
{ACAD_REACTORS
330
17
102
}
100
AcDbMlineStyle
  2
STANDARD
 70
0
  3

 62
256
 51
90.0
 52
90.0
 71
2
 49
0.5
 62
256
  6
BYLAYER
 49
-0.5
 62
256
  6
BYLAYER
  0
LAYOUT
  5
29D
102
{ACAD_REACTORS
330
1A
102
}
100
AcDbPlotSettings
  1

  2
none_device
  4

  6

 40
0.0
 41
0.0
 42
0.0
 43
0.0
 44
210.0
 45
297.0
 46
0.0
 47
0.0
 48
0.0
 49
0.0
140
0.0
141
0.0
142
1.0
143
1.0
 70
1024
 72
1
 73
0
 74
0
  7

 75
0
147
1.0
148
0.0
149
0.0
100
AcDbLayout
  1
Model
 70
0
 71
0
 10
0.0
 20
0.0
 11
210.0
 21
297.0
 12
0.0
 22
0.0
 32
0.0
 14
0.0
 24
0.0
 34
0.0
 15
0.0
 25
0.0
 35
0.0
146
0.0
 13
0.0
 23
0.0
 33
0.0
 16
1.0
 26
0.0
 36
0.0
 17
0.0
 27
1.0
 37
0.0
 76
0
330
210
345
0
346
0
  0
LAYOUT
  5
29E
102
{ACAD_REACTORS
330
1A
102
}
100
AcDbPlotSettings
  1

  2
none_device
  4

  6

 40
0.0
 41
0.0
 42
0.0
 43
0.0
 44
210.0
 45
297.0
 46
0.0
 47
0.0
 48
0.0
 49
0.0
140
0.0
141
0.0
142
1.0
143
1.0
 70
0
 72
1
 73
0
 74
0
  7

 75
0
147
1.0
148
0.0
149
0.0
100
AcDbLayout
  1
Layout1
 70
0
 71
1
 10
0.0
 20
0.0
 11
210.0
 21
297.0
 12
0.0
 22
0.0
 32
0.0
 14
0.0
 24
0.0
 34
0.0
 15
0.0
 25
0.0
 35
0.0
146
0.0
 13
0.0
 23
0.0
 33
0.0
 16
1.0
 26
0.0
 36
0.0
 17
0.0
 27
1.0
 37
0.0
 76
0
330
211
345
0
346
0
  0
ENDSEC
  0
EOF
