999
DXF file: C:\Users\sesa63760\Dev\_Creo\CAD\MCADID0005507_3D-CAD\drw0001_2.dxf
999
Pro/ENGINEER 2019471 by Parametric Technology Corporation
  0
SECTION
  2
HEADER
  9
$ACADVER
  1
AC1024
  9
$DWGCODEPAGE
  3
ANSI_1252
  9
$EXTMAX
 10
60.5536357092
 20
85.6401419316
 30
0.0
  9
$EXTMIN
 10
0.0
 20
0.0
 30
0.0
  9
$LIMMIN
 10
0.0
 20
0.0
  9
$LIMMAX
 10
60.5536357092
 20
85.6401419316
  9
$VIEWCTR
 10
30.2768178546
 20
42.8200709658
  9
$VIEWSIZE
 40
85.6401419316
  9
$CLAYER
  8
0
  9
$LTSCALE
 40
5.5824685111
  9
$CELTYPE
  6
BYLAYER
  9
$DIMSCALE
 40
1.0
  9
$DIMASZ
 40
0.7208766156
  9
$DIMEXO
 40
1.0
  9
$DIMDLI
 40
3.856978244
  9
$DIMEXE
 40
1.0
  9
$DIMCEN
 40
0.9134948473
  9
$DIMLFAC
 40
1.0
  9
$DIMBLK
  1
_FILLED
  9
$DIMALT
 70
0
  9
$DIMALTF
 40
0.0393700787
  9
$DIMTXT
 40
1.0092272618
  9
$DIMTOL
 70
1
  9
$DIMLIM
 70
0
  9
$DIMTFAC
 40
1.0
  9
$DIMTP
 40
0.01
  9
$DIMTM
 40
0.01
  9
$DIMGAP
 40
0.625
  9
$DIMDSEP
 70
46
  9
$AUNITS
 70
0
  9
$PDMODE
 70
3
  9
$PDSIZE
 40
0.3125
  9
$HANDSEED
  5
2BC
  9
$TILEMODE
 70
1
  9
$MEASUREMENT
 70
1
  9
$INSUNITS
 70
4
  0
ENDSEC
  0
SECTION
  2
CLASSES
  0
CLASS
  1
ACDBDICTIONARYWDFLT
  2
AcDbDictionaryWithDefault
  3
AutoCAD 2000
 90
0
 91
1
280
0
281
0
  0
CLASS
  1
ACDBPLACEHOLDER
  2
AcDbPlaceHolder
  3
AutoCAD 2000
 90
0
 91
1
280
0
281
0
  0
CLASS
  1
LAYOUT
  2
AcDbLayout
  3
AutoCAD 2000
 90
0
 91
0
280
0
281
0
  0
ENDSEC
  0
SECTION
  2
TABLES
  0
TABLE
  2
VPORT
  5
8
100
AcDbSymbolTable
 70
2
  0
VPORT
  5
1F4
100
AcDbSymbolTableRecord
100
AcDbViewportTableRecord
  2
*ACTIVE
 70
0
 10
0.0
 20
0.0
 11
1.0
 21
1.0
 12
30.2768178546
 22
42.8200709658
 13
0.0
 23
0.0
 14
1.0
 24
1.0
 15
0.0
 25
0.0
 16
0.0
 26
0.0
 36
1.0
 17
0.0
 27
0.0
 37
0.0
 40
85.6401419316
 41
0.7070707071
 42
50.0
 43
0.0
 44
0.0
 50
0.0
 51
0.0
 71
0
 72
100
 73
1
 74
1
 75
0
 76
0
 77
0
 78
0
  0
ENDTAB
  0
TABLE
  2
LTYPE
  5
5
100
AcDbSymbolTable
 70
6
  0
LTYPE
  5
14
100
AcDbSymbolTableRecord
100
AcDbLinetypeTableRecord
  2
BYBLOCK
 70
0
  3

 72
65
 73
0
 40
0.0
  0
LTYPE
  5
15
100
AcDbSymbolTableRecord
100
AcDbLinetypeTableRecord
  2
BYLAYER
 70
0
  3

 72
65
 73
0
 40
0.0
  0
LTYPE
  5
16
100
AcDbSymbolTableRecord
100
AcDbLinetypeTableRecord
  2
CONTINUOUS
 70
64
  3
Solid line
 72
65
 73
0
 40
0.0
  0
LTYPE
  5
1F5
100
AcDbSymbolTableRecord
100
AcDbLinetypeTableRecord
  2
CENTER
 70
64
  3
____ _ ____ _ ____ _ ____ _ ____ _ ____ _ ____
 72
65
 73
4
 40
0.6
 49
0.375
 74
0
 49
-0.075
 74
0
 49
0.075
 74
0
 49
-0.075
 74
0
  0
LTYPE
  5
1F6
100
AcDbSymbolTableRecord
100
AcDbLinetypeTableRecord
  2
HIDDEN
 70
64
  3
- - - - - - - - - - - - - - - - - - - -
 72
65
 73
2
 40
0.2
 49
0.1
 74
0
 49
-0.1
 74
0
  0
LTYPE
  5
1F7
100
AcDbSymbolTableRecord
100
AcDbLinetypeTableRecord
  2
PHANTOM
 70
64
  3
_____ _ _ _____ _ _ _____ _ _ _____
 72
65
 73
6
 40
0.8
 49
0.45
 74
0
 49
-0.05
 74
0
 49
0.1
 74
0
 49
-0.05
 74
0
 49
0.1
 74
0
 49
-0.05
 74
0
  0
LTYPE
  5
1F8
100
AcDbSymbolTableRecord
100
AcDbLinetypeTableRecord
  2
DOT
 70
64
  3
. . . . . . . . . . . . . . . . . . . .
 72
65
 73
2
 40
0.2
 49
0.1
 74
0
 49
-0.1
 74
0
  0
LTYPE
  5
1F9
100
AcDbSymbolTableRecord
100
AcDbLinetypeTableRecord
  2
DASHED
 70
64
  3
- - - - - - - - - - - - - - - - - - - -
 72
65
 73
2
 40
0.2
 49
0.1
 74
0
 49
-0.1
 74
0
  0
ENDTAB
  0
TABLE
  2
LAYER
  5
2
100
AcDbSymbolTable
 70
36
  0
LAYER
  5
10
100
AcDbSymbolTableRecord
100
AcDbLayerTableRecord
  2
0
 70
0
 62
7
  6
CONTINUOUS
370
-3
390
F
  0
LAYER
  5
1FA
100
AcDbSymbolTableRecord
100
AcDbLayerTableRecord
  2
DEFAULT_1
 70
0
 62
7
  6
CENTER
370
-3
390
F
  0
LAYER
  5
1FB
100
AcDbSymbolTableRecord
100
AcDbLayerTableRecord
  2
DEFAULT_2
 70
0
 62
7
  6
HIDDEN
370
-3
390
F
  0
LAYER
  5
1FC
100
AcDbSymbolTableRecord
100
AcDbLayerTableRecord
  2
DEFAULT_3
 70
0
 62
7
  6
PHANTOM
370
-3
390
F
  0
LAYER
  5
1FD
100
AcDbSymbolTableRecord
100
AcDbLayerTableRecord
  2
00_COMPONENTS
 70
0
 62
7
  6
CONTINUOUS
370
-3
390
F
  0
LAYER
  5
1FE
100
AcDbSymbolTableRecord
100
AcDbLayerTableRecord
  2
00_COMPONENTS_1
 70
0
 62
7
  6
CONTINUOUS
370
-3
390
F
  0
LAYER
  5
1FF
100
AcDbSymbolTableRecord
100
AcDbLayerTableRecord
  2
00_COMPONENTS_10
 70
0
 62
7
  6
CONTINUOUS
370
-3
390
F
  0
LAYER
  5
200
100
AcDbSymbolTableRecord
100
AcDbLayerTableRecord
  2
00_COMPONENTS_11
 70
0
 62
7
  6
CONTINUOUS
370
-3
390
F
  0
LAYER
  5
201
100
AcDbSymbolTableRecord
100
AcDbLayerTableRecord
  2
00_COMPONENTS_12
 70
0
 62
7
  6
CONTINUOUS
370
-3
390
F
  0
LAYER
  5
202
100
AcDbSymbolTableRecord
100
AcDbLayerTableRecord
  2
00_COMPONENTS_13
 70
0
 62
7
  6
CONTINUOUS
370
-3
390
F
  0
LAYER
  5
203
100
AcDbSymbolTableRecord
100
AcDbLayerTableRecord
  2
00_COMPONENTS_2
 70
0
 62
7
  6
CONTINUOUS
370
-3
390
F
  0
LAYER
  5
204
100
AcDbSymbolTableRecord
100
AcDbLayerTableRecord
  2
00_COMPONENTS_3
 70
0
 62
7
  6
CONTINUOUS
370
-3
390
F
  0
LAYER
  5
205
100
AcDbSymbolTableRecord
100
AcDbLayerTableRecord
  2
00_COMPONENTS_4
 70
0
 62
7
  6
CONTINUOUS
370
-3
390
F
  0
LAYER
  5
206
100
AcDbSymbolTableRecord
100
AcDbLayerTableRecord
  2
00_COMPONENTS_5
 70
0
 62
7
  6
CONTINUOUS
370
-3
390
F
  0
LAYER
  5
207
100
AcDbSymbolTableRecord
100
AcDbLayerTableRecord
  2
00_COMPONENTS_8
 70
0
 62
7
  6
CONTINUOUS
370
-3
390
F
  0
LAYER
  5
208
100
AcDbSymbolTableRecord
100
AcDbLayerTableRecord
  2
00_COMPONENTS_9
 70
0
 62
7
  6
CONTINUOUS
370
-3
390
F
  0
LAYER
  5
209
100
AcDbSymbolTableRecord
100
AcDbLayerTableRecord
  2
01_1_DEFAULT_DATUMS
 70
0
 62
7
  6
CONTINUOUS
370
-3
390
F
  0
LAYER
  5
20A
100
AcDbSymbolTableRecord
100
AcDbLayerTableRecord
  2
01_PLANES
 70
0
 62
7
  6
CONTINUOUS
370
-3
390
F
  0
LAYER
  5
20B
100
AcDbSymbolTableRecord
100
AcDbLayerTableRecord
  2
02_COORD_SYS
 70
0
 62
7
  6
CONTINUOUS
370
-3
390
F
  0
LAYER
  5
20C
100
AcDbSymbolTableRecord
100
AcDbLayerTableRecord
  2
03_AXES
 70
0
 62
7
  6
CONTINUOUS
370
-3
390
F
  0
LAYER
  5
20D
100
AcDbSymbolTableRecord
100
AcDbLayerTableRecord
  2
04_POINTS
 70
0
 62
7
  6
CONTINUOUS
370
-3
390
F
  0
LAYER
  5
20E
100
AcDbSymbolTableRecord
100
AcDbLayerTableRecord
  2
05_CURVES
 70
0
 62
7
  6
CONTINUOUS
370
-3
390
F
  0
LAYER
  5
20F
100
AcDbSymbolTableRecord
100
AcDbLayerTableRecord
  2
06_SURFS
 70
0
 62
7
  6
CONTINUOUS
370
-3
390
F
  0
LAYER
  5
210
100
AcDbSymbolTableRecord
100
AcDbLayerTableRecord
  2
07_COSMETICS
 70
0
 62
7
  6
CONTINUOUS
370
-3
390
F
  0
LAYER
  5
211
100
AcDbSymbolTableRecord
100
AcDbLayerTableRecord
  2
10_NOTES
 70
0
 62
7
  6
CONTINUOUS
370
-3
390
F
  0
LAYER
  5
212
100
AcDbSymbolTableRecord
100
AcDbLayerTableRecord
  2
11_NOTES_PUB
 70
0
 62
7
  6
CONTINUOUS
370
-3
390
F
  0
LAYER
  5
213
100
AcDbSymbolTableRecord
100
AcDbLayerTableRecord
  2
13_REF_GTOL
 70
0
 62
7
  6
CONTINUOUS
370
-3
390
F
  0
LAYER
  5
214
100
AcDbSymbolTableRecord
100
AcDbLayerTableRecord
  2
16_MISC
 70
0
 62
7
  6
CONTINUOUS
370
-3
390
F
  0
LAYER
  5
215
100
AcDbSymbolTableRecord
100
AcDbLayerTableRecord
  2
17_NO_PRINT
 70
0
 62
7
  6
CONTINUOUS
370
-3
390
F
  0
LAYER
  5
216
100
AcDbSymbolTableRecord
100
AcDbLayerTableRecord
  2
18_DATUM_CAMS_JOINTS
 70
0
 62
7
  6
CONTINUOUS
370
-3
390
F
  0
LAYER
  5
217
100
AcDbSymbolTableRecord
100
AcDbLayerTableRecord
  2
19_DATUM_FUNCTIONAL
 70
0
 62
7
  6
CONTINUOUS
370
-3
390
F
  0
LAYER
  5
218
100
AcDbSymbolTableRecord
100
AcDbLayerTableRecord
  2
20_DATUM_KINEMATIC_SCHEME
 70
0
 62
7
  6
CONTINUOUS
370
-3
390
F
  0
ENDTAB
  0
TABLE
  2
STYLE
  5
3
100
AcDbSymbolTable
 70
1
  0
STYLE
  5
11
100
AcDbSymbolTableRecord
100
AcDbTextStyleTableRecord
  2
STANDARD
 70
0
 40
0.0
 41
1.0
 50
0.0
 71
0
 42
0.2
  3
ARIAL.TTF
  4

  0
STYLE
  5
219
100
AcDbSymbolTableRecord
100
AcDbTextStyleTableRecord
  2
TEXTSTYLE_1
 70
0
 40
0.0
 41
0.8
 50
0.0
 71
0
 42
0.2
  3
gdt
  4

  0
ENDTAB
  0
TABLE
  2
VIEW
  5
6
100
AcDbSymbolTable
 70
0
  0
ENDTAB
  0
TABLE
  2
UCS
  5
7
100
AcDbSymbolTable
 70
0
  0
ENDTAB
  0
TABLE
  2
APPID
  5
9
100
AcDbSymbolTable
 70
1
  0
APPID
  5
21A
100
AcDbSymbolTableRecord
100
AcDbRegAppTableRecord
  2
ACAD
 70
0
  0
ENDTAB
  0
TABLE
  2
BLOCK_RECORD
  5
1
100
AcDbSymbolTable
 70
0
  0
BLOCK_RECORD
  5
21B
100
AcDbSymbolTableRecord
100
AcDbBlockTableRecord
  2
*Model_Space
  0
BLOCK_RECORD
  5
21C
100
AcDbSymbolTableRecord
100
AcDbBlockTableRecord
  2
*Paper_Space
  0
BLOCK_RECORD
  5
21D
100
AcDbSymbolTableRecord
100
AcDbBlockTableRecord
  2
_FILLED
  0
ENDTAB
  0
TABLE
  2
DIMSTYLE
  5
A
100
AcDbSymbolTable
 70
1
100
AcDbDimStyleTable
 71
0
  0
DIMSTYLE
105
21E
100
AcDbSymbolTableRecord
100
AcDbDimStyleTableRecord
  2
STANDARD
 70
0
  3

  4

 40
1.0
 41
0.7208766156
 42
1.0
 43
0.38
 44
1.0
 45
0.0
 46
0.0
 47
0.01
 48
0.01
140
1.0092272618
141
0.09
142
0.0
143
25.4
144
1.0
145
0.0
146
1.0
147
0.625
 71
1
 72
0
 73
0
 74
0
 75
0
 76
0
 77
1
 78
8
 79
2
170
0
171
1
172
0
173
0
174
0
175
0
176
0
177
0
178
0
270
2
179
2
271
2
272
2
273
2
274
2
275
0
280
0
281
0
282
0
283
1
284
8
285
0
286
0
287
3
288
0
340
11
278
46
341
21D
342
21D
343
21D
344
21D
  0
ENDTAB
  0
ENDSEC
  0
SECTION
  2
BLOCKS
  0
BLOCK
  5
20
100
AcDbEntity
  8
0
100
AcDbBlockBegin
  2
*Model_Space
 70
0
 10
0.0
 20
0.0
 30
0.0
  3
*Model_Space
  1

  0
ENDBLK
  5
21
100
AcDbEntity
  8
0
100
AcDbBlockEnd
  0
BLOCK
  5
1C
100
AcDbEntity
  8
0
100
AcDbBlockBegin
  2
*Paper_Space
 70
0
 10
0.0
 20
0.0
 30
0.0
  3
*Paper_Space
  1

  0
ENDBLK
  5
1D
100
AcDbEntity
  8
0
100
AcDbBlockEnd
  0
BLOCK
  5
21F
100
AcDbEntity
  8
0
100
AcDbBlockBegin
  2
_FILLED
 70
64
 10
0.0
 20
0.0
  3
_FILLED
  1

  0
SOLID
  5
220
100
AcDbEntity
  8
0
  6
BYBLOCK
 62
0
100
AcDbTrace
 10
0.0
 20
0.0
 11
-1.0
 21
0.25
 12
-1.0
 22
-0.25
 13
-1.0
 23
-0.25
  0
ENDBLK
  5
221
100
AcDbEntity
  8
0
  6
BYBLOCK
 62
0
100
AcDbBlockEnd
  0
ENDSEC
  0
SECTION
  2
ENTITIES
  0
LINE
  5
222
100
AcDbEntity
  8
00_COMPONENTS_10
100
AcDbLine
 62
7
  6
BYLAYER
 10
16.8962285309
 20
5.7128369609
 11
44.4959896291
 21
5.7128369609
  0
LINE
  5
223
100
AcDbEntity
  8
00_COMPONENTS_10
100
AcDbLine
 62
7
  6
BYLAYER
 10
16.6961086352
 20
5.9128369609
 11
28.3381434107
 21
5.9128369609
  0
LINE
  5
224
100
AcDbEntity
  8
00_COMPONENTS_10
100
AcDbLine
 62
7
  6
BYLAYER
 10
33.0540738597
 20
5.9128369609
 11
44.6961086352
 21
5.9128369609
  0
LINE
  5
225
100
AcDbEntity
  8
00_COMPONENTS_10
100
AcDbLine
 62
7
  6
BYLAYER
 10
16.6961086352
 20
6.3628369609
 11
44.6961086352
 21
6.3628369609
  0
LINE
  5
226
100
AcDbEntity
  8
00_COMPONENTS_11
100
AcDbLine
 62
7
  6
BYLAYER
 10
16.4961086352
 20
6.6628369609
 11
44.8961086352
 21
6.6628369609
  0
LINE
  5
227
100
AcDbEntity
  8
00_COMPONENTS_11
100
AcDbLine
 62
7
  6
BYLAYER
 10
15.6961086352
 20
7.4628369609
 11
45.6961086352
 21
7.4628369609
  0
LINE
  5
228
100
AcDbEntity
  8
00_COMPONENTS_11
100
AcDbLine
 62
7
  6
BYLAYER
 10
15.6961086352
 20
7.4628369609
 11
16.4961086352
 21
6.6628369609
  0
LINE
  5
229
100
AcDbEntity
  8
00_COMPONENTS_5
100
AcDbLine
 62
7
  6
BYLAYER
 10
48.6961086352
 20
13.7128369609
 11
50.6961086352
 21
14.2487353458
  0
LINE
  5
22A
100
AcDbEntity
  8
00_COMPONENTS_5
100
AcDbLine
 62
7
  6
BYLAYER
 10
12.6961086352
 20
13.7128369609
 11
10.6961086352
 21
14.2487353458
  0
LINE
  5
22B
100
AcDbEntity
  8
00_COMPONENTS_13
100
AcDbLine
 62
7
  6
BYLAYER
 10
25.1961086352
 20
77.4128369609
 11
24.6961086352
 21
76.9128369609
  0
LINE
  5
22C
100
AcDbEntity
  8
00_COMPONENTS_5
100
AcDbLine
 62
7
  6
BYLAYER
 10
12.6961147927
 20
13.7128369609
 11
48.6961024776
 21
13.7128369609
  0
LINE
  5
22D
100
AcDbEntity
  8
00_COMPONENTS_5
100
AcDbLine
 62
7
  6
BYLAYER
 10
10.6961086352
 20
14.2487353458
 11
10.7475098485
 21
14.2487353458
  0
LINE
  5
22E
100
AcDbEntity
  8
00_COMPONENTS_5
100
AcDbLine
 62
7
  6
BYLAYER
 10
19.4522891815
 20
14.2487353458
 11
21.9627987007
 21
14.2487353458
  0
LINE
  5
22F
100
AcDbEntity
  8
00_COMPONENTS_5
100
AcDbLine
 62
7
  6
BYLAYER
 10
39.3983879978
 20
14.2487353458
 11
41.9113974874
 21
14.2487353458
  0
LINE
  5
230
100
AcDbEntity
  8
00_COMPONENTS_5
100
AcDbLine
 62
7
  6
BYLAYER
 10
50.6422074515
 20
14.2487353458
 11
50.6961086352
 21
14.2487353458
  0
LINE
  5
231
100
AcDbEntity
  8
00_COMPONENTS_5
100
AcDbLine
 62
7
  6
BYLAYER
 10
50.6961086352
 20
17.176938576
 11
50.6422074515
 21
17.176938576
  0
LINE
  5
232
100
AcDbEntity
  8
00_COMPONENTS_5
100
AcDbLine
 62
7
  6
BYLAYER
 10
41.9113974874
 20
17.176938576
 11
39.3983879978
 21
17.176938576
  0
LINE
  5
233
100
AcDbEntity
  8
00_COMPONENTS_5
100
AcDbLine
 62
7
  6
BYLAYER
 10
21.9627987007
 20
17.176938576
 11
19.4522891815
 21
17.176938576
  0
LINE
  5
234
100
AcDbEntity
  8
00_COMPONENTS_5
100
AcDbLine
 62
7
  6
BYLAYER
 10
10.7475098485
 20
17.176938576
 11
10.6961086352
 21
17.176938576
  0
LINE
  5
235
100
AcDbEntity
  8
00_COMPONENTS_5
100
AcDbLine
 62
7
  6
BYLAYER
 10
48.6961024776
 20
17.7128369609
 11
12.6961147927
 21
17.7128369609
  0
LINE
  5
236
100
AcDbEntity
  8
00_COMPONENTS_5
100
AcDbLine
 62
7
  6
BYLAYER
 10
48.6961086352
 20
23.1128369609
 11
50.6961086352
 21
23.6487353458
  0
LINE
  5
237
100
AcDbEntity
  8
00_COMPONENTS_5
100
AcDbLine
 62
7
  6
BYLAYER
 10
12.6961086352
 20
23.1128369609
 11
10.6961086352
 21
23.6487353458
  0
LINE
  5
238
100
AcDbEntity
  8
00_COMPONENTS_5
100
AcDbLine
 62
7
  6
BYLAYER
 10
10.6961086352
 20
17.176938576
 11
10.6961086352
 21
14.2487353458
  0
LINE
  5
239
100
AcDbEntity
  8
00_COMPONENTS_5
100
AcDbLine
 62
7
  6
BYLAYER
 10
10.6961086352
 20
23.6487353458
 11
10.6961086352
 21
26.576938576
  0
LINE
  5
23A
100
AcDbEntity
  8
00_COMPONENTS_5
100
AcDbLine
 62
7
  6
BYLAYER
 10
10.7475098485
 20
17.176938576
 11
10.7475098485
 21
14.2487353458
  0
LINE
  5
23B
100
AcDbEntity
  8
00_COMPONENTS_5
100
AcDbLine
 62
7
  6
BYLAYER
 10
10.7487524235
 20
26.576938576
 11
10.7487524235
 21
23.6487353458
  0
LINE
  5
23C
100
AcDbEntity
  8
00_COMPONENTS_11
100
AcDbLine
 62
7
  6
BYLAYER
 10
16.9461086352
 20
60.6896318801
 11
17.0461086352
 21
60.8628369609
  0
LINE
  5
23D
100
AcDbEntity
  8
00_COMPONENTS_11
100
AcDbLine
 62
7
  6
BYLAYER
 10
15.6961086352
 20
56.6128369609
 11
16.9461086352
 21
57.8628369609
  0
LINE
  5
23E
100
AcDbEntity
  8
00_COMPONENTS_5
100
AcDbLine
 62
7
  6
BYLAYER
 10
12.6961086352
 20
17.7128369609
 11
10.6961086352
 21
17.176938576
  0
LINE
  5
23F
100
AcDbEntity
  8
00_COMPONENTS_5
100
AcDbLine
 62
7
  6
BYLAYER
 10
12.6961147076
 20
23.1128369609
 11
48.6961025627
 21
23.1128369609
  0
LINE
  5
240
100
AcDbEntity
  8
00_COMPONENTS_5
100
AcDbLine
 62
7
  6
BYLAYER
 10
48.6961086352
 20
17.7128369609
 11
50.6961086352
 21
17.176938576
  0
LINE
  5
241
100
AcDbEntity
  8
00_COMPONENTS_5
100
AcDbLine
 62
7
  6
BYLAYER
 10
10.6961086352
 20
23.6487353458
 11
10.7487524235
 21
23.6487353458
  0
LINE
  5
242
100
AcDbEntity
  8
00_COMPONENTS_5
100
AcDbLine
 62
7
  6
BYLAYER
 10
19.4665503106
 20
23.6487353458
 11
21.9783107481
 21
23.6487353458
  0
LINE
  5
243
100
AcDbEntity
  8
00_COMPONENTS_5
100
AcDbLine
 62
7
  6
BYLAYER
 10
39.4139065223
 20
23.6487353458
 11
41.9256669598
 21
23.6487353458
  0
LINE
  5
244
100
AcDbEntity
  8
00_COMPONENTS_5
100
AcDbLine
 62
7
  6
BYLAYER
 10
50.6434648468
 20
23.6487353458
 11
50.6961086352
 21
23.6487353458
  0
LINE
  5
245
100
AcDbEntity
  8
00_COMPONENTS_11
100
AcDbLine
 62
7
  6
BYLAYER
 10
15.6961086352
 20
7.4628369609
 11
15.6961086352
 21
13.7128369609
  0
LINE
  5
246
100
AcDbEntity
  8
00_COMPONENTS_11
100
AcDbLine
 62
7
  6
BYLAYER
 10
15.6961086352
 20
17.7128369609
 11
15.6961086352
 21
23.1128369609
  0
LINE
  5
247
100
AcDbEntity
  8
00_COMPONENTS_11
100
AcDbLine
 62
7
  6
BYLAYER
 10
15.6961086352
 20
27.1128369609
 11
15.6961086352
 21
56.6128369609
  0
LINE
  5
248
100
AcDbEntity
  8
00_COMPONENTS_10
100
AcDbLine
 62
7
  6
BYLAYER
 10
16.6961086352
 20
5.9128369609
 11
16.6961086352
 21
6.6628369609
  0
LINE
  5
249
100
AcDbEntity
  8
00_COMPONENTS_13
100
AcDbLine
 62
7
  6
BYLAYER
 10
16.9461086352
 20
64.3628369609
 11
16.9461086352
 21
63.8628369609
  0
LINE
  5
24A
100
AcDbEntity
  8
00_COMPONENTS_11
100
AcDbLine
 62
7
  6
BYLAYER
 10
16.9461086352
 20
57.8628369609
 11
16.9461086352
 21
60.6896318801
  0
LINE
  5
24B
100
AcDbEntity
  8
00_COMPONENTS_11
100
AcDbLine
 62
7
  6
BYLAYER
 10
16.9461086352
 20
61.0360420417
 11
16.9461086352
 21
63.8628369609
  0
LINE
  5
24C
100
AcDbEntity
  8
00_COMPONENTS_13
100
AcDbLine
 62
7
  6
BYLAYER
 10
36.1961086352
 20
70.6128369609
 11
36.6961086352
 21
71.1128369609
  0
LINE
  5
24D
100
AcDbEntity
  8
00_COMPONENTS_5
100
AcDbLine
 62
7
  6
BYLAYER
 10
50.6961086352
 20
26.576938576
 11
50.6434648468
 21
26.576938576
  0
LINE
  5
24E
100
AcDbEntity
  8
00_COMPONENTS_5
100
AcDbLine
 62
7
  6
BYLAYER
 10
41.9256669598
 20
26.576938576
 11
39.4139065223
 21
26.576938576
  0
LINE
  5
24F
100
AcDbEntity
  8
00_COMPONENTS_5
100
AcDbLine
 62
7
  6
BYLAYER
 10
21.9783107481
 20
26.576938576
 11
19.4665503106
 21
26.576938576
  0
LINE
  5
250
100
AcDbEntity
  8
00_COMPONENTS_5
100
AcDbLine
 62
7
  6
BYLAYER
 10
10.7487524235
 20
26.576938576
 11
10.6961086352
 21
26.576938576
  0
LINE
  5
251
100
AcDbEntity
  8
00_COMPONENTS_5
100
AcDbLine
 62
7
  6
BYLAYER
 10
48.6961025627
 20
27.1128369609
 11
12.6961147076
 21
27.1128369609
  0
LINE
  5
252
100
AcDbEntity
  8
00_COMPONENTS_5
100
AcDbLine
 62
7
  6
BYLAYER
 10
19.4522891815
 20
14.2487353458
 11
19.4522891815
 21
17.176938576
  0
LINE
  5
253
100
AcDbEntity
  8
00_COMPONENTS_5
100
AcDbLine
 62
7
  6
BYLAYER
 10
19.4665503106
 20
23.6487353458
 11
19.4665503106
 21
26.576938576
  0
LINE
  5
254
100
AcDbEntity
  8
00_COMPONENTS_13
100
AcDbLine
 62
7
  6
BYLAYER
 10
25.1962653696
 20
64.4634187617
 11
25.1961086352
 21
64.4628370073
  0
LINE
  5
255
100
AcDbEntity
  8
00_COMPONENTS_5
100
AcDbLine
 62
7
  6
BYLAYER
 10
21.9627987007
 20
17.176938576
 11
21.9627987007
 21
14.2487353458
  0
LINE
  5
256
100
AcDbEntity
  8
00_COMPONENTS_5
100
AcDbLine
 62
7
  6
BYLAYER
 10
21.9783107481
 20
26.576938576
 11
21.9783107481
 21
23.6487353458
  0
LINE
  5
257
100
AcDbEntity
  8
00_COMPONENTS_5
100
AcDbLine
 62
7
  6
BYLAYER
 10
12.6961086352
 20
27.1128369609
 11
10.6961086352
 21
26.576938576
  0
LINE
  5
258
100
AcDbEntity
  8
00_COMPONENTS_5
100
AcDbLine
 62
7
  6
BYLAYER
 10
48.6961086352
 20
27.1128369609
 11
50.6961086352
 21
26.576938576
  0
LINE
  5
259
100
AcDbEntity
  8
00_COMPONENTS_13
100
AcDbLine
 62
7
  6
BYLAYER
 10
24.6961086352
 20
76.9128369609
 11
24.6961086352
 21
71.1128369609
  0
LINE
  5
25A
100
AcDbEntity
  8
00_COMPONENTS_13
100
AcDbLine
 62
7
  6
BYLAYER
 10
25.1961086352
 20
78.6128369609
 11
25.1961086352
 21
77.4128369609
  0
LINE
  5
25B
100
AcDbEntity
  8
00_COMPONENTS_13
100
AcDbLine
 62
7
  6
BYLAYER
 10
25.1961086352
 20
70.6128369609
 11
25.1961086352
 21
67.4628369609
  0
LINE
  5
25C
100
AcDbEntity
  8
00_COMPONENTS_9
100
AcDbLine
 62
7
  6
BYLAYER
 10
25.3461086352
 20
79.4128369609
 11
25.3461086352
 21
78.6128369609
  0
LINE
  5
25D
100
AcDbEntity
  8
00_COMPONENTS_11
100
AcDbLine
 62
7
  6
BYLAYER
 10
17.0461086352
 20
60.8628369609
 11
16.9461086352
 21
61.0360420417
  0
LINE
  5
25E
100
AcDbEntity
  8
00_COMPONENTS_10
100
AcDbLine
 62
7
  6
BYLAYER
 10
28.3381434107
 20
6.3628369609
 11
28.3381434107
 21
5.9128369609
  0
LINE
  5
25F
100
AcDbEntity
  8
00_COMPONENTS_9
100
AcDbLine
 62
7
  6
BYLAYER
 10
29.8461086352
 20
77.9142137914
 11
29.8461086352
 21
78.6128369609
  0
LINE
  5
260
100
AcDbEntity
  8
00_COMPONENTS_13
100
AcDbLine
 62
7
  6
BYLAYER
 10
36.1933519287
 20
67.4526614294
 11
36.1961086352
 21
67.4628276233
  0
LINE
  5
261
100
AcDbEntity
  8
00_COMPONENTS_9
100
AcDbLine
 62
7
  6
BYLAYER
 10
31.5461086352
 20
78.6128369609
 11
31.5461086352
 21
77.9143889549
  0
LINE
  5
262
100
AcDbEntity
  8
00_COMPONENTS_10
100
AcDbLine
 62
7
  6
BYLAYER
 10
33.0540738597
 20
5.9128369609
 11
33.0540738597
 21
6.3628369609
  0
LINE
  5
263
100
AcDbEntity
  8
00_COMPONENTS_11
100
AcDbLine
 62
7
  6
BYLAYER
 10
44.3461086352
 20
60.8628369609
 11
44.4461086352
 21
61.0360420417
  0
LINE
  5
264
100
AcDbEntity
  8
00_COMPONENTS_13
100
AcDbLine
 62
7
  6
BYLAYER
 10
25.1961225393
 20
67.4627666987
 11
25.1988529466
 21
67.4527183418
  0
LINE
  5
265
100
AcDbEntity
  8
00_COMPONENTS_9
100
AcDbLine
 62
7
  6
BYLAYER
 10
36.0461086352
 20
79.4128369609
 11
36.0461086352
 21
78.6128369609
  0
LINE
  5
266
100
AcDbEntity
  8
00_COMPONENTS_13
100
AcDbLine
 62
7
  6
BYLAYER
 10
36.1961086352
 20
78.6128369609
 11
36.1961086352
 21
77.4128369609
  0
LINE
  5
267
100
AcDbEntity
  8
00_COMPONENTS_13
100
AcDbLine
 62
7
  6
BYLAYER
 10
36.1961086352
 20
70.6128369609
 11
36.1961086352
 21
67.4628369609
  0
LINE
  5
268
100
AcDbEntity
  8
00_COMPONENTS_13
100
AcDbLine
 62
7
  6
BYLAYER
 10
36.6961086352
 20
76.9128369609
 11
36.6961086352
 21
71.1128369609
  0
LINE
  5
269
100
AcDbEntity
  8
00_COMPONENTS_5
100
AcDbLine
 62
7
  6
BYLAYER
 10
39.3983879978
 20
14.2487353458
 11
39.3983879978
 21
17.176938576
  0
LINE
  5
26A
100
AcDbEntity
  8
00_COMPONENTS_5
100
AcDbLine
 62
7
  6
BYLAYER
 10
39.4139065223
 20
23.6487353458
 11
39.4139065223
 21
26.576938576
  0
LINE
  5
26B
100
AcDbEntity
  8
00_COMPONENTS_5
100
AcDbLine
 62
7
  6
BYLAYER
 10
41.9113974874
 20
17.176938576
 11
41.9113974874
 21
14.2487353458
  0
LINE
  5
26C
100
AcDbEntity
  8
00_COMPONENTS_5
100
AcDbLine
 62
7
  6
BYLAYER
 10
41.9256669598
 20
26.576938576
 11
41.9256669598
 21
23.6487353458
  0
LINE
  5
26D
100
AcDbEntity
  8
00_COMPONENTS_13
100
AcDbLine
 62
7
  6
BYLAYER
 10
44.4461086352
 20
64.3628369609
 11
44.4461086352
 21
63.8628369609
  0
LINE
  5
26E
100
AcDbEntity
  8
00_COMPONENTS_11
100
AcDbLine
 62
7
  6
BYLAYER
 10
44.4461086352
 20
57.8628369609
 11
44.4461086352
 21
60.6896318801
  0
LINE
  5
26F
100
AcDbEntity
  8
00_COMPONENTS_11
100
AcDbLine
 62
7
  6
BYLAYER
 10
44.4461086352
 20
61.0360420417
 11
44.4461086352
 21
63.8628369609
  0
LINE
  5
270
100
AcDbEntity
  8
00_COMPONENTS_10
100
AcDbLine
 62
7
  6
BYLAYER
 10
44.6961086352
 20
5.9128369609
 11
44.6961086352
 21
6.6628369609
  0
LINE
  5
271
100
AcDbEntity
  8
00_COMPONENTS_11
100
AcDbLine
 62
7
  6
BYLAYER
 10
45.6961086352
 20
56.6128369609
 11
15.6961086352
 21
56.6128369609
  0
LINE
  5
272
100
AcDbEntity
  8
00_COMPONENTS_11
100
AcDbLine
 62
7
  6
BYLAYER
 10
45.6961086352
 20
7.4628369609
 11
45.6961086352
 21
13.7128369609
  0
LINE
  5
273
100
AcDbEntity
  8
00_COMPONENTS_11
100
AcDbLine
 62
7
  6
BYLAYER
 10
45.6961086352
 20
17.7128369609
 11
45.6961086352
 21
23.1128369609
  0
LINE
  5
274
100
AcDbEntity
  8
00_COMPONENTS_11
100
AcDbLine
 62
7
  6
BYLAYER
 10
45.6961086352
 20
27.1128369609
 11
45.6961086352
 21
56.6128369609
  0
LINE
  5
275
100
AcDbEntity
  8
00_COMPONENTS_11
100
AcDbLine
 62
7
  6
BYLAYER
 10
16.9461086352
 20
57.8628369609
 11
44.4461086352
 21
57.8628369609
  0
LINE
  5
276
100
AcDbEntity
  8
00_COMPONENTS_13
100
AcDbLine
 62
7
  6
BYLAYER
 10
25.1961086352
 20
70.6128369609
 11
24.6961086352
 21
71.1128369609
  0
LINE
  5
277
100
AcDbEntity
  8
00_COMPONENTS_5
100
AcDbLine
 62
7
  6
BYLAYER
 10
50.6422074514
 20
14.2487353458
 11
50.6422074514
 21
17.176938576
  0
LINE
  5
278
100
AcDbEntity
  8
00_COMPONENTS_5
100
AcDbLine
 62
7
  6
BYLAYER
 10
50.6434648468
 20
23.6487353458
 11
50.6434648468
 21
26.576938576
  0
LINE
  5
279
100
AcDbEntity
  8
00_COMPONENTS_11
100
AcDbLine
 62
7
  6
BYLAYER
 10
44.4461086352
 20
60.6896318801
 11
16.9461086352
 21
60.6896318801
  0
LINE
  5
27A
100
AcDbEntity
  8
00_COMPONENTS_11
100
AcDbLine
 62
7
  6
BYLAYER
 10
17.0461086352
 20
60.8628369609
 11
44.3461086352
 21
60.8628369609
  0
LINE
  5
27B
100
AcDbEntity
  8
00_COMPONENTS_11
100
AcDbLine
 62
7
  6
BYLAYER
 10
16.9461086352
 20
61.0360420417
 11
44.4461086352
 21
61.0360420417
  0
LINE
  5
27C
100
AcDbEntity
  8
00_COMPONENTS_5
100
AcDbLine
 62
7
  6
BYLAYER
 10
50.6961086352
 20
17.176938576
 11
50.6961086352
 21
14.2487353458
  0
LINE
  5
27D
100
AcDbEntity
  8
00_COMPONENTS_5
100
AcDbLine
 62
7
  6
BYLAYER
 10
50.6961086352
 20
23.6487353458
 11
50.6961086352
 21
26.576938576
  0
LINE
  5
27E
100
AcDbEntity
  8
00_COMPONENTS_11
100
AcDbLine
 62
7
  6
BYLAYER
 10
44.4461086352
 20
63.8628369609
 11
16.9461086352
 21
63.8628369609
  0
LINE
  5
27F
100
AcDbEntity
  8
00_COMPONENTS_13
100
AcDbLine
 62
7
  6
BYLAYER
 10
16.9461086352
 20
63.8628369609
 11
44.4461086352
 21
63.8628369609
  0
LINE
  5
280
100
AcDbEntity
  8
00_COMPONENTS_13
100
AcDbLine
 62
7
  6
BYLAYER
 10
44.4461086352
 20
64.3628369609
 11
16.9461086352
 21
64.3628369609
  0
LINE
  5
281
100
AcDbEntity
  8
00_COMPONENTS_13
100
AcDbLine
 62
7
  6
BYLAYER
 10
30.6961652477
 20
64.4628369609
 11
36.1961086336
 21
64.4628369609
  0
LINE
  5
282
100
AcDbEntity
  8
00_COMPONENTS_9
100
AcDbLine
 62
7
  6
BYLAYER
 10
31.8906795177
 20
65.0736064764
 11
29.4920506173
 21
65.0736064764
  0
LINE
  5
283
100
AcDbEntity
  8
00_COMPONENTS_13
100
AcDbLine
 62
7
  6
BYLAYER
 10
30.6000207799
 20
64.46591775
 11
30.6961798648
 21
64.4628369626
  0
LINE
  5
284
100
AcDbEntity
  8
00_COMPONENTS_11
100
AcDbLine
 62
7
  6
BYLAYER
 10
45.6961086352
 20
56.6128369609
 11
44.4461086352
 21
57.8628369609
  0
LINE
  5
285
100
AcDbEntity
  8
00_COMPONENTS_11
100
AcDbLine
 62
7
  6
BYLAYER
 10
44.4461086352
 20
60.6896318801
 11
44.3461086352
 21
60.8628369609
  0
LINE
  5
286
100
AcDbEntity
  8
00_COMPONENTS_9
100
AcDbLine
 62
7
  6
BYLAYER
 10
29.2737383208
 20
65.5499204484
 11
32.1195857726
 21
65.5499204484
  0
LINE
  5
287
100
AcDbEntity
  8
00_COMPONENTS_13
100
AcDbLine
 62
7
  6
BYLAYER
 10
36.1961086352
 20
70.6128369609
 11
25.1961086352
 21
70.6128369609
  0
LINE
  5
288
100
AcDbEntity
  8
00_COMPONENTS_13
100
AcDbLine
 62
7
  6
BYLAYER
 10
24.6961086352
 20
71.1128369609
 11
36.6961086352
 21
71.1128369609
  0
LINE
  5
289
100
AcDbEntity
  8
00_COMPONENTS_13
100
AcDbLine
 62
7
  6
BYLAYER
 10
36.1961086352
 20
77.4128369609
 11
36.6961086352
 21
76.9128369609
  0
LINE
  5
28A
100
AcDbEntity
  8
00_COMPONENTS_11
100
AcDbLine
 62
7
  6
BYLAYER
 10
45.6961086352
 20
7.4628369609
 11
44.8961086352
 21
6.6628369609
  0
LINE
  5
28B
100
AcDbEntity
  8
00_COMPONENTS_13
100
AcDbLine
 62
7
  6
BYLAYER
 10
36.6961086352
 20
76.9128369609
 11
24.6961086352
 21
76.9128369609
  0
LINE
  5
28C
100
AcDbEntity
  8
00_COMPONENTS_13
100
AcDbLine
 62
7
  6
BYLAYER
 10
25.1961086352
 20
77.4128369609
 11
36.1961086352
 21
77.4128369609
  0
LINE
  5
28D
100
AcDbEntity
  8
00_COMPONENTS_13
100
AcDbLine
 62
7
  6
BYLAYER
 10
36.1960480169
 20
78.6128369609
 11
32.1103221976
 21
78.6128369609
  0
LINE
  5
28E
100
AcDbEntity
  8
00_COMPONENTS_13
100
AcDbLine
 62
7
  6
BYLAYER
 10
29.2818950728
 20
78.6128369609
 11
25.1961881723
 21
78.6128369609
  0
LINE
  5
28F
100
AcDbEntity
  8
00_COMPONENTS_9
100
AcDbLine
 62
7
  6
BYLAYER
 10
29.2818950728
 20
78.6128369609
 11
32.1103221976
 21
78.6128369609
  0
LINE
  5
290
100
AcDbEntity
  8
00_COMPONENTS_9
100
AcDbLine
 62
7
  6
BYLAYER
 10
36.0461086352
 20
79.4128369609
 11
25.3461086352
 21
79.4128369609
  0
LINE
  5
291
100
AcDbEntity
  8
00_COMPONENTS_9
100
AcDbLine
 62
7
  6
BYLAYER
 10
35.8460984169
 20
79.6128369609
 11
25.5461086352
 21
79.6128369609
  0
ARC
  5
292
100
AcDbEntity
  8
00_COMPONENTS_13
100
AcDbCircle
 62
7
  6
BYLAYER
 10
30.6961086352
 20
79.1128369609
 40
1.5
100
AcDbArc
 50
199.4712206345
 51
340.5287793655
  0
ARC
  5
293
100
AcDbEntity
  8
00_COMPONENTS_13
100
AcDbCircle
 62
7
  6
BYLAYER
 10
30.6961086352
 20
65.9628369609
 40
1.5
100
AcDbArc
 50
270.0027207693
 51
266.3271994715
  0
ARC
  5
294
100
AcDbEntity
  8
00_COMPONENTS_9
100
AcDbCircle
 62
7
  6
BYLAYER
 10
30.6961086352
 20
78.6128369609
 40
0.85
100
AcDbArc
 50
180.0
 51
360.0
  0
ARC
  5
295
100
AcDbEntity
  8
00_COMPONENTS_9
100
AcDbCircle
 62
7
  6
BYLAYER
 10
35.8461086352
 20
79.4128369609
 40
0.2
100
AcDbArc
 50
0.0
 51
90.0
  0
ARC
  5
296
100
AcDbEntity
  8
00_COMPONENTS_9
100
AcDbCircle
 62
7
  6
BYLAYER
 10
25.5461086352
 20
79.4128369609
 40
0.2
100
AcDbArc
 50
90.0
 51
180.0
  0
ARC
  5
297
100
AcDbEntity
  8
00_COMPONENTS_10
100
AcDbCircle
 62
7
  6
BYLAYER
 10
16.8961086352
 20
5.9128369609
 40
0.2
100
AcDbArc
 50
180.0
 51
270.0
  0
ARC
  5
298
100
AcDbEntity
  8
00_COMPONENTS_10
100
AcDbCircle
 62
7
  6
BYLAYER
 10
44.4961086352
 20
5.9128369609
 40
0.2
100
AcDbArc
 50
270.0
 51
360.0
  0
ARC
  5
299
100
AcDbEntity
  8
00_COMPONENTS_13
100
AcDbCircle
 62
7
  6
BYLAYER
 10
25.0961086352
 20
64.4628369609
 40
0.1
100
AcDbArc
 50
270.0000802674
 51
360.0
  0
ARC
  5
29A
100
AcDbEntity
  8
00_COMPONENTS_13
100
AcDbCircle
 62
7
  6
BYLAYER
 10
36.2961086352
 20
64.4628369609
 40
0.1
100
AcDbArc
 50
180.0
 51
269.9999197326
  0
SPLINE
  5
29B
100
AcDbEntity
  8
00_COMPONENTS_5
100
AcDbSpline
 62
7
  6
BYLAYER
 70
0
 71
3
 72
10
 73
6
 74
0
 42
0.0000001
 43
0.0000001
 44
0.0000000001
 40
0.0
 40
0.0
 40
0.0
 40
0.0
 40
0.4999779593
 40
0.7499889629
 40
1.0
 40
1.0
 40
1.0
 40
1.0
 10
21.9783107481
 20
23.6487353458
 30
0.0
 10
23.4248417788
 20
23.4797858082
 30
0.0
 10
25.6014168315
 20
23.2769735073
 30
0.0
 10
28.51124795
 20
23.1366260678
 30
0.0
 10
29.9678624075
 20
23.1128369609
 30
0.0
 10
30.6961086352
 20
23.1128369609
 30
0.0
  0
SPLINE
  5
29C
100
AcDbEntity
  8
00_COMPONENTS_5
100
AcDbSpline
 62
7
  6
BYLAYER
 70
0
 71
3
 72
10
 73
6
 74
0
 42
0.0000001
 43
0.0000001
 44
0.0000000001
 40
0.0
 40
0.0
 40
0.0
 40
0.0
 40
0.2483514051
 40
0.497455769
 40
1.0
 40
1.0
 40
1.0
 40
1.0
 10
46.2845659034
 20
23.1128369609
 30
0.0
 10
46.6488322638
 20
23.1128369609
 30
0.0
 10
47.3787092844
 20
23.1367164484
 30
0.0
 10
48.839375166
 20
23.2778174007
 30
0.0
 10
49.925687169
 20
23.4810677269
 30
0.0
 10
50.6434648468
 20
23.6487353458
 30
0.0
  0
SPLINE
  5
29D
100
AcDbEntity
  8
00_COMPONENTS_5
100
AcDbSpline
 62
7
  6
BYLAYER
 70
0
 71
3
 72
10
 73
6
 74
0
 42
0.0000001
 43
0.0000001
 44
0.0000000001
 40
0.0
 40
0.0
 40
0.0
 40
0.0
 40
0.2500110371
 40
0.5000220409
 40
1.0
 40
1.0
 40
1.0
 40
1.0
 10
30.6961086352
 20
23.1128369609
 30
0.0
 10
31.4243548627
 20
23.1128369609
 30
0.0
 10
32.8809693209
 20
23.136626064
 30
0.0
 10
35.7908004395
 20
23.2769735054
 30
0.0
 10
37.9673754921
 20
23.4797858083
 30
0.0
 10
39.4139065223
 20
23.6487353458
 30
0.0
  0
SPLINE
  5
29E
100
AcDbEntity
  8
00_COMPONENTS_5
100
AcDbSpline
 62
7
  6
BYLAYER
 70
0
 71
3
 72
10
 73
6
 74
0
 42
0.0000001
 43
0.0000001
 44
0.0000000001
 40
0.0
 40
0.0
 40
0.0
 40
0.0
 40
0.5025442323
 40
0.7516485949
 40
1.0
 40
1.0
 40
1.0
 40
1.0
 10
41.9256669598
 20
23.6487353458
 30
0.0
 10
42.6434446392
 20
23.4810677265
 30
0.0
 10
43.7297566313
 20
23.2778173041
 30
0.0
 10
45.1904225294
 20
23.1367165472
 30
0.0
 10
45.920299543
 20
23.1128369609
 30
0.0
 10
46.2845659034
 20
23.1128369609
 30
0.0
  0
SPLINE
  5
29F
100
AcDbEntity
  8
00_COMPONENTS_5
100
AcDbSpline
 62
7
  6
BYLAYER
 70
0
 71
3
 72
10
 73
6
 74
0
 42
0.0000001
 43
0.0000001
 44
0.0000000001
 40
0.0
 40
0.0
 40
0.0
 40
0.0
 40
0.2500110372
 40
0.5000220408
 40
1.0
 40
1.0
 40
1.0
 40
1.0
 10
30.6961086358
 20
27.1128369609
 30
0.0
 10
29.9678624079
 20
27.1128369609
 30
0.0
 10
28.51124795
 20
27.0890478539
 30
0.0
 10
25.6014168313
 20
26.9487004141
 30
0.0
 10
23.4248417786
 20
26.7458881136
 30
0.0
 10
21.9783107481
 20
26.576938576
 30
0.0
  0
SPLINE
  5
2A0
100
AcDbEntity
  8
00_COMPONENTS_5
100
AcDbSpline
 62
7
  6
BYLAYER
 70
0
 71
3
 72
10
 73
6
 74
0
 42
0.0000001
 43
0.0000001
 44
0.0000000001
 40
0.0
 40
0.0
 40
0.0
 40
0.0
 40
0.5025442315
 40
0.7516485952
 40
1.0
 40
1.0
 40
1.0
 40
1.0
 10
19.4665503106
 20
26.576938576
 30
0.0
 10
18.7487726321
 20
26.7446061951
 30
0.0
 10
17.6624606288
 20
26.9478565225
 30
0.0
 10
16.2017947468
 20
27.088957474
 30
0.0
 10
15.4719177267
 20
27.1128369609
 30
0.0
 10
15.1076513666
 20
27.1128369609
 30
0.0
  0
SPLINE
  5
2A1
100
AcDbEntity
  8
00_COMPONENTS_5
100
AcDbSpline
 62
7
  6
BYLAYER
 70
0
 71
3
 72
10
 73
6
 74
0
 42
0.0000001
 43
0.0000001
 44
0.0000000001
 40
0.0
 40
0.0
 40
0.0
 40
0.0
 40
0.2483514051
 40
0.497455769
 40
1.0
 40
1.0
 40
1.0
 40
1.0
 10
15.1076513666
 20
23.1128369609
 30
0.0
 10
15.4719177271
 20
23.1128369609
 30
0.0
 10
16.2017947477
 20
23.1367164484
 30
0.0
 10
17.6624606296
 20
23.2778174007
 30
0.0
 10
18.7487726327
 20
23.4810677269
 30
0.0
 10
19.4665503106
 20
23.6487353458
 30
0.0
  0
SPLINE
  5
2A2
100
AcDbEntity
  8
00_COMPONENTS_5
100
AcDbSpline
 62
7
  6
BYLAYER
 70
0
 71
3
 72
10
 73
6
 74
0
 42
0.0000001
 43
0.0000001
 44
0.0000000001
 40
0.0
 40
0.0
 40
0.0
 40
0.0
 40
0.5025442323
 40
0.7516485949
 40
1.0
 40
1.0
 40
1.0
 40
1.0
 10
10.7487524235
 20
23.6487353458
 30
0.0
 10
11.4665301028
 20
23.4810677266
 30
0.0
 10
12.5528420948
 20
23.2778173041
 30
0.0
 10
14.0135079928
 20
23.1367165472
 30
0.0
 10
14.7433850063
 20
23.1128369609
 30
0.0
 10
15.1076513666
 20
23.1128369609
 30
0.0
  0
SPLINE
  5
2A3
100
AcDbEntity
  8
00_COMPONENTS_5
100
AcDbSpline
 62
7
  6
BYLAYER
 70
0
 71
3
 72
10
 73
6
 74
0
 42
0.0000001
 43
0.0000001
 44
0.0000000001
 40
0.0
 40
0.0
 40
0.0
 40
0.0
 40
0.2483514053
 40
0.4974557681
 40
1.0
 40
1.0
 40
1.0
 40
1.0
 10
15.1076513666
 20
27.1128369609
 30
0.0
 10
14.7433850059
 20
27.1128369609
 30
0.0
 10
14.0135079919
 20
27.088957374
 30
0.0
 10
12.5528420941
 20
26.9478566163
 30
0.0
 10
11.4665301023
 20
26.7446061951
 30
0.0
 10
10.7487524235
 20
26.576938576
 30
0.0
  0
SPLINE
  5
2A4
100
AcDbEntity
  8
00_COMPONENTS_5
100
AcDbSpline
 62
7
  6
BYLAYER
 70
0
 71
3
 72
10
 73
6
 74
0
 42
0.0000001
 43
0.0000001
 44
0.0000000001
 40
0.0
 40
0.0
 40
0.0
 40
0.0
 40
0.4999779592
 40
0.749988963
 40
1.0
 40
1.0
 40
1.0
 40
1.0
 10
39.4139065223
 20
26.576938576
 30
0.0
 10
37.9673754919
 20
26.7458881136
 30
0.0
 10
35.7908004393
 20
26.9487004168
 30
0.0
 10
32.8809693208
 20
27.0890478579
 30
0.0
 10
31.424354863
 20
27.1128369609
 30
0.0
 10
30.6961086358
 20
27.1128369609
 30
0.0
  0
SPLINE
  5
2A5
100
AcDbEntity
  8
00_COMPONENTS_5
100
AcDbSpline
 62
7
  6
BYLAYER
 70
0
 71
3
 72
10
 73
6
 74
0
 42
0.0000001
 43
0.0000001
 44
0.0000000001
 40
0.0
 40
0.0
 40
0.0
 40
0.0
 40
0.2483514053
 40
0.4974557681
 40
1.0
 40
1.0
 40
1.0
 40
1.0
 10
46.2845659034
 20
27.1128369609
 30
0.0
 10
45.9202995426
 20
27.1128369609
 30
0.0
 10
45.1904225285
 20
27.088957374
 30
0.0
 10
43.7297566305
 20
26.9478566164
 30
0.0
 10
42.6434446386
 20
26.7446061951
 30
0.0
 10
41.9256669598
 20
26.576938576
 30
0.0
  0
SPLINE
  5
2A6
100
AcDbEntity
  8
00_COMPONENTS_5
100
AcDbSpline
 62
7
  6
BYLAYER
 70
0
 71
3
 72
10
 73
6
 74
0
 42
0.0000001
 43
0.0000001
 44
0.0000000001
 40
0.0
 40
0.0
 40
0.0
 40
0.0
 40
0.5025442315
 40
0.7516485952
 40
1.0
 40
1.0
 40
1.0
 40
1.0
 10
50.6434648468
 20
26.576938576
 30
0.0
 10
49.9256871684
 20
26.744606195
 30
0.0
 10
48.8393751652
 20
26.9478565225
 30
0.0
 10
47.3787092834
 20
27.088957474
 30
0.0
 10
46.6488322635
 20
27.1128369609
 30
0.0
 10
46.2845659034
 20
27.1128369609
 30
0.0
  0
SPLINE
  5
2A7
100
AcDbEntity
  8
00_COMPONENTS_5
100
AcDbSpline
 62
7
  6
BYLAYER
 70
0
 71
3
 72
10
 73
6
 74
0
 42
0.0000001
 43
0.0000001
 44
0.0000000001
 40
0.0
 40
0.0
 40
0.0
 40
0.0
 40
0.5025341815
 40
0.7516420876
 40
1.0
 40
1.0
 40
1.0
 40
1.0
 10
50.6422074514
 20
17.176938576
 30
0.0
 10
49.9233373634
 20
17.344611108
 30
0.0
 10
48.8353956458
 20
17.5478599542
 30
0.0
 10
47.3725721558
 20
17.6889577284
 30
0.0
 10
46.6416119603
 20
17.7128369609
 30
0.0
 10
46.2768024702
 20
17.7128369609
 30
0.0
  0
SPLINE
  5
2A8
100
AcDbEntity
  8
00_COMPONENTS_5
100
AcDbSpline
 62
7
  6
BYLAYER
 70
0
 71
3
 72
10
 73
6
 74
0
 42
0.0000001
 43
0.0000001
 44
0.0000000001
 40
0.0
 40
0.0
 40
0.0
 40
0.0
 40
0.248344866
 40
0.4974456692
 40
1.0
 40
1.0
 40
1.0
 40
1.0
 10
15.0998995149
 20
17.7128369609
 30
0.0
 10
14.7361765537
 20
17.7128369609
 30
0.0
 10
14.0073832453
 20
17.6889571178
 30
0.0
 10
12.5488759985
 20
17.547853168
 30
0.0
 10
11.4641945483
 20
17.344601259
 30
0.0
 10
10.7475098485
 20
17.176938576
 30
0.0
  0
SPLINE
  5
2A9
100
AcDbEntity
  8
00_COMPONENTS_5
100
AcDbSpline
 62
7
  6
BYLAYER
 70
0
 71
3
 72
10
 73
6
 74
0
 42
0.0000001
 43
0.0000001
 44
0.0000000001
 40
0.0
 40
0.0
 40
0.0
 40
0.0
 40
0.2500110366
 40
0.5000220403
 40
1.0
 40
1.0
 40
1.0
 40
1.0
 10
30.6805933492
 20
17.7128369609
 30
0.0
 10
29.9523473922
 20
17.7128369609
 30
0.0
 10
28.4957334743
 20
17.6890478578
 30
0.0
 10
25.5859034338
 20
17.5487004162
 30
0.0
 10
23.4093291906
 20
17.3458881132
 30
0.0
 10
21.9627987007
 20
17.176938576
 30
0.0
  0
SPLINE
  5
2AA
100
AcDbEntity
  8
00_COMPONENTS_5
100
AcDbSpline
 62
7
  6
BYLAYER
 70
0
 71
3
 72
10
 73
6
 74
0
 42
0.0000001
 43
0.0000001
 44
0.0000000001
 40
0.0
 40
0.0
 40
0.0
 40
0.0
 40
0.502554332
 40
0.751655134
 40
1.0
 40
1.0
 40
1.0
 40
1.0
 10
19.4522891815
 20
17.176938576
 30
0.0
 10
18.7356044802
 20
17.3446012594
 30
0.0
 10
17.6509230408
 20
17.5478532646
 30
0.0
 10
16.1924157775
 20
17.6889570191
 30
0.0
 10
15.463622476
 20
17.7128369609
 30
0.0
 10
15.0998995149
 20
17.7128369609
 30
0.0
  0
SPLINE
  5
2AB
100
AcDbEntity
  8
00_COMPONENTS_5
100
AcDbSpline
 62
7
  6
BYLAYER
 70
0
 71
3
 72
10
 73
6
 74
0
 42
0.0000001
 43
0.0000001
 44
0.0000000001
 40
0.0
 40
0.0
 40
0.0
 40
0.0
 40
0.2483579123
 40
0.4974658197
 40
1.0
 40
1.0
 40
1.0
 40
1.0
 10
46.2768024702
 20
17.7128369609
 30
0.0
 10
45.9119929799
 20
17.7128369609
 30
0.0
 10
45.1810327772
 20
17.6889578273
 30
0.0
 10
43.7182093029
 20
17.5478598577
 30
0.0
 10
42.6302675741
 20
17.3446111077
 30
0.0
 10
41.9113974874
 20
17.176938576
 30
0.0
  0
SPLINE
  5
2AC
100
AcDbEntity
  8
00_COMPONENTS_5
100
AcDbSpline
 62
7
  6
BYLAYER
 70
0
 71
3
 72
10
 73
6
 74
0
 42
0.0000001
 43
0.0000001
 44
0.0000000001
 40
0.0
 40
0.0
 40
0.0
 40
0.0
 40
0.4999779599
 40
0.7499889633
 40
1.0
 40
1.0
 40
1.0
 40
1.0
 10
39.3983879978
 20
17.176938576
 30
0.0
 10
37.9518575073
 20
17.3458881133
 30
0.0
 10
35.7752832641
 20
17.5487004143
 30
0.0
 10
32.8654532236
 20
17.689047854
 30
0.0
 10
31.4088393064
 20
17.7128369609
 30
0.0
 10
30.6805933492
 20
17.7128369609
 30
0.0
  0
SPLINE
  5
2AD
100
AcDbEntity
  8
00_COMPONENTS_5
100
AcDbSpline
 62
7
  6
BYLAYER
 70
0
 71
3
 72
10
 73
6
 74
0
 42
0.0000001
 43
0.0000001
 44
0.0000000001
 40
0.0
 40
0.0
 40
0.0
 40
0.0
 40
0.5025543312
 40
0.7516551343
 40
1.0
 40
1.0
 40
1.0
 40
1.0
 10
10.7475098485
 20
14.2487353458
 30
0.0
 10
11.4641945489
 20
14.0810726627
 30
0.0
 10
12.5488759993
 20
13.8778207524
 30
0.0
 10
14.0073832463
 20
13.7367168033
 30
0.0
 10
14.7361765541
 20
13.7128369609
 30
0.0
 10
15.0998995149
 20
13.7128369609
 30
0.0
  0
SPLINE
  5
2AE
100
AcDbEntity
  8
00_COMPONENTS_5
100
AcDbSpline
 62
7
  6
BYLAYER
 70
0
 71
3
 72
10
 73
6
 74
0
 42
0.0000001
 43
0.0000001
 44
0.0000000001
 40
0.0
 40
0.0
 40
0.0
 40
0.0
 40
0.2483448663
 40
0.4974456684
 40
1.0
 40
1.0
 40
1.0
 40
1.0
 10
15.0998995149
 20
13.7128369609
 30
0.0
 10
15.4636224764
 20
13.7128369609
 30
0.0
 10
16.1924157784
 20
13.7367169034
 30
0.0
 10
17.6509230416
 20
13.8778206585
 30
0.0
 10
18.7356044808
 20
14.0810726626
 30
0.0
 10
19.4522891815
 20
14.2487353458
 30
0.0
  0
SPLINE
  5
2AF
100
AcDbEntity
  8
00_COMPONENTS_5
100
AcDbSpline
 62
7
  6
BYLAYER
 70
0
 71
3
 72
10
 73
6
 74
0
 42
0.0000001
 43
0.0000001
 44
0.0000000001
 40
0.0
 40
0.0
 40
0.0
 40
0.0
 40
0.4999779598
 40
0.7499889634
 40
1.0
 40
1.0
 40
1.0
 40
1.0
 10
21.9627987007
 20
14.2487353458
 30
0.0
 10
23.4093291908
 20
14.0797858086
 30
0.0
 10
25.585903434
 20
13.8769735052
 30
0.0
 10
28.4957334744
 20
13.7366260639
 30
0.0
 10
29.9523473918
 20
13.7128369609
 30
0.0
 10
30.6805933487
 20
13.7128369609
 30
0.0
  0
SPLINE
  5
2B0
100
AcDbEntity
  8
00_COMPONENTS_5
100
AcDbSpline
 62
7
  6
BYLAYER
 70
0
 71
3
 72
10
 73
6
 74
0
 42
0.0000001
 43
0.0000001
 44
0.0000000001
 40
0.0
 40
0.0
 40
0.0
 40
0.0
 40
0.2500110367
 40
0.5000220402
 40
1.0
 40
1.0
 40
1.0
 40
1.0
 10
30.6805933487
 20
13.7128369609
 30
0.0
 10
31.4088393061
 20
13.7128369609
 30
0.0
 10
32.8654532236
 20
13.7366260679
 30
0.0
 10
35.7752832643
 20
13.8769735079
 30
0.0
 10
37.9518575075
 20
14.0797858085
 30
0.0
 10
39.3983879978
 20
14.2487353458
 30
0.0
  0
SPLINE
  5
2B1
100
AcDbEntity
  8
00_COMPONENTS_5
100
AcDbSpline
 62
7
  6
BYLAYER
 70
0
 71
3
 72
10
 73
6
 74
0
 42
0.0000001
 43
0.0000001
 44
0.0000000001
 40
0.0
 40
0.0
 40
0.0
 40
0.0
 40
0.5025341807
 40
0.7516420879
 40
1.0
 40
1.0
 40
1.0
 40
1.0
 10
41.9113974874
 20
14.2487353458
 30
0.0
 10
42.6302675747
 20
14.081062814
 30
0.0
 10
43.7182093036
 20
13.8778140627
 30
0.0
 10
45.1810327779
 20
13.7367160939
 30
0.0
 10
45.9119929799
 20
13.7128369609
 30
0.0
 10
46.2768024698
 20
13.7128369609
 30
0.0
  0
SPLINE
  5
2B2
100
AcDbEntity
  8
00_COMPONENTS_5
100
AcDbSpline
 62
7
  6
BYLAYER
 70
0
 71
3
 72
10
 73
6
 74
0
 42
0.0000001
 43
0.0000001
 44
0.0000000001
 40
0.0
 40
0.0
 40
0.0
 40
0.0
 40
0.2483579126
 40
0.4974658189
 40
1.0
 40
1.0
 40
1.0
 40
1.0
 10
46.2768024698
 20
13.7128369609
 30
0.0
 10
46.6416119603
 20
13.7128369609
 30
0.0
 10
47.3725721565
 20
13.736716194
 30
0.0
 10
48.8353956465
 20
13.8778139689
 30
0.0
 10
49.923337364
 20
14.0810628139
 30
0.0
 10
50.6422074514
 20
14.2487353458
 30
0.0
  0
SPLINE
  5
2B3
100
AcDbEntity
  8
00_COMPONENTS_10
100
AcDbSpline
 62
7
  6
BYLAYER
 70
0
 71
3
 72
28
 73
24
 74
0
 42
0.0000001
 43
0.0000001
 44
0.0000000001
 40
0.0
 40
0.0
 40
0.0
 40
0.0
 40
0.1250104387
 40
0.2500208529
 40
0.3750310923
 40
0.437536291
 40
0.5000414461
 40
0.5625465114
 40
0.6250514118
 40
0.6875559701
 40
0.7500597958
 40
0.8125618115
 40
0.8438138705
 40
0.8750653429
 40
0.9063152634
 40
0.9219412662
 40
0.9375668482
 40
0.9531910889
 40
0.9688106666
 40
0.9766234217
 40
0.9844342246
 40
0.9922364295
 40
1.0
 40
1.0
 40
1.0
 40
1.0
 10
30.7318264538
 20
5.7128368946
 30
0.0
 10
30.8304005635
 20
5.7128368957
 30
0.0
 10
31.02754881
 20
5.7128213014
 30
0.0
 10
31.3232707366
 20
5.7131281415
 30
0.0
 10
31.5697046573
 20
5.7144669499
 30
0.0
 10
31.7668373565
 20
5.7170135149
 30
0.0
 10
31.9146707034
 20
5.7199509464
 30
0.0
 10
32.0624714237
 20
5.7242610067
 30
0.0
 10
32.2102093876
 20
5.7303866919
 30
0.0
 10
32.3578318689
 20
5.7389115538
 30
0.0
 10
32.5052344737
 20
5.7506639458
 30
0.0
 10
32.6277381391
 20
5.7641781193
 30
0.0
 10
32.7252932505
 20
5.7783683873
 30
0.0
 10
32.7981070741
 20
5.7912209011
 30
0.0
 10
32.8583147684
 20
5.8044172287
 30
0.0
 10
32.905915337
 20
5.8172239094
 30
0.0
 10
32.9411963937
 20
5.8283017188
 30
0.0
 10
32.975778421
 20
5.8413942274
 30
0.0
 10
33.0036061944
 20
5.8547869957
 30
0.0
 10
33.024403532
 20
5.8680665661
 30
0.0
 10
33.0386693047
 20
5.8799054132
 30
0.0
 10
33.0504030695
 20
5.8943793087
 30
0.0
 10
33.0540738597
 20
5.9067151757
 30
0.0
 10
33.0540738597
 20
5.9128369609
 30
0.0
  0
SPLINE
  5
2B4
100
AcDbEntity
  8
00_COMPONENTS_10
100
AcDbSpline
 62
7
  6
BYLAYER
 70
0
 71
3
 72
28
 73
24
 74
0
 42
0.0000001
 43
0.0000001
 44
0.0000000001
 40
0.0
 40
0.0
 40
0.0
 40
0.0
 40
0.1250106367
 40
0.2500212534
 40
0.3750317087
 40
0.4375370081
 40
0.5000422655
 40
0.5625474346
 40
0.6250524428
 40
0.6875571128
 40
0.7500610596
 40
0.8125632144
 40
0.8438153322
 40
0.8750668681
 40
0.9063168725
 40
0.9219429001
 40
0.9375685114
 40
0.9531928015
 40
0.9688124907
 40
0.9766252362
 40
0.9844359615
 40
0.9922379914
 40
1.0
 40
1.0
 40
1.0
 40
1.0
 10
30.6936047813
 20
5.7128369609
 30
0.0
 10
30.5936468162
 20
5.7128369609
 30
0.0
 10
30.3937308566
 20
5.7128185741
 30
0.0
 10
30.0938573338
 20
5.713064426
 30
0.0
 10
29.8439633136
 20
5.7142907285
 30
0.0
 10
29.6440612132
 20
5.7167171226
 30
0.0
 10
29.4941497731
 20
5.719553497
 30
0.0
 10
29.3442694078
 20
5.7237567731
 30
0.0
 10
29.1944496457
 20
5.7297764937
 30
0.0
 10
29.0447425144
 20
5.7382045066
 30
0.0
 10
28.8952515806
 20
5.7498795298
 30
0.0
 10
28.7710037301
 20
5.7633571754
 30
0.0
 10
28.6720501514
 20
5.7775458129
 30
0.0
 10
28.5981855843
 20
5.7904154961
 30
0.0
 10
28.5371002174
 20
5.8036465081
 30
0.0
 10
28.4887956815
 20
5.8164991434
 30
0.0
 10
28.4529853973
 20
5.8276231317
 30
0.0
 10
28.4178722884
 20
5.8407778615
 30
0.0
 10
28.3895996618
 20
5.8542426668
 30
0.0
 10
28.3684446744
 20
5.8676043798
 30
0.0
 10
28.3539132177
 20
5.8795286731
 30
0.0
 10
28.341922147
 20
5.8941261829
 30
0.0
 10
28.3381434107
 20
5.9066304924
 30
0.0
 10
28.3381434107
 20
5.9128369609
 30
0.0
  0
SPLINE
  5
2B5
100
AcDbEntity
  8
00_COMPONENTS_13
100
AcDbSpline
 62
7
  6
BYLAYER
 70
0
 71
3
 72
24
 73
20
 74
0
 42
0.0000001
 43
0.0000001
 44
0.0000000001
 40
0.0
 40
0.0
 40
0.0
 40
0.0
 40
0.1935567065
 40
0.3797239306
 40
0.5515214465
 40
0.6300816325
 40
0.7027479421
 40
0.7688839219
 40
0.8278596495
 40
0.879043199
 40
0.9218046826
 40
0.9556367884
 40
0.9690811898
 40
0.9801463761
 40
0.9887955948
 40
0.9950039066
 40
0.9971850836
 40
0.9987468646
 40
1.0
 40
1.0
 40
1.0
 40
1.0
 10
35.9876112573
 20
65.9628369609
 30
0.0
 10
35.9876112573
 20
65.8648417384
 30
0.0
 10
35.9929744414
 20
65.6725491193
 30
0.0
 10
36.0158320821
 20
65.3941388656
 30
0.0
 10
36.0448263631
 20
65.1749533868
 30
0.0
 10
36.07167552
 20
65.0136203516
 30
0.0
 10
36.0919108147
 20
64.9054417319
 30
0.0
 10
36.1120707985
 20
64.8073552439
 30
0.0
 10
36.131373747
 20
64.7202083732
 30
0.0
 10
36.149133365
 20
64.6448490026
 30
0.0
 10
36.1646867483
 20
64.5820533964
 30
0.0
 10
36.1760636539
 20
64.5379103828
 30
0.0
 10
36.18360239
 20
64.5093507754
 30
0.0
 10
36.187932615
 20
64.4931313189
 30
0.0
 10
36.1913218219
 20
64.4804512521
 30
0.0
 10
36.1935964503
 20
64.4721318231
 30
0.0
 10
36.1948827045
 20
64.4672580709
 30
0.0
 10
36.1956074815
 20
64.4648380251
 30
0.0
 10
36.1958670648
 20
64.4634236115
 30
0.0
 10
36.1961086351
 20
64.4628369552
 30
0.0
  0
SPLINE
  5
2B6
100
AcDbEntity
  8
00_COMPONENTS_13
100
AcDbSpline
 62
7
  6
BYLAYER
 70
0
 71
3
 72
21
 73
17
 74
0
 42
0.0000001
 43
0.0000001
 44
0.0000000001
 40
0.0
 40
0.0
 40
0.0
 40
0.0
 40
0.0012360127
 40
0.0049498218
 40
0.0111406351
 40
0.0197854888
 40
0.030846695
 40
0.0442864106
 40
0.078147863
 40
0.1209502758
 40
0.1721196617
 40
0.2971906851
 40
0.4484484526
 40
0.6202546695
 40
0.8064564493
 40
1.0
 40
1.0
 40
1.0
 40
1.0
 10
36.1960946865
 20
67.4627665075
 30
0.0
 10
36.1962086748
 20
67.4633817778
 30
0.0
 10
36.1948736669
 20
67.4579921562
 30
0.0
 10
36.1940507843
 20
67.455422574
 30
0.0
 10
36.1912139002
 20
67.444723008
 30
0.0
 10
36.1879613785
 20
67.4327870772
 30
0.0
 10
36.183570161
 20
67.4162967711
 30
0.0
 10
36.1760754509
 20
67.3878554965
 30
0.0
 10
36.1646919782
 20
67.3435930357
 30
0.0
 10
36.1491406847
 20
67.2808094939
 30
0.0
 10
36.1237092477
 20
67.1728537086
 30
0.0
 10
36.0890745656
 20
67.0106949768
 30
0.0
 10
36.0496567393
 20
66.7872094713
 30
0.0
 10
36.0158374509
 20
66.5315228052
 30
0.0
 10
35.9929819834
 20
66.253111086
 30
0.0
 10
35.9876112573
 20
66.0608197633
 30
0.0
 10
35.9876112573
 20
65.9628369609
 30
0.0
  0
SPLINE
  5
2B7
100
AcDbEntity
  8
00_COMPONENTS_13
100
AcDbSpline
 62
7
  6
BYLAYER
 70
0
 71
3
 72
13
 73
9
 74
0
 42
0.0000001
 43
0.0000001
 44
0.0000000001
 40
0.0
 40
0.0
 40
0.0
 40
0.0
 40
0.0204695255
 40
0.0792289266
 40
0.2323877284
 40
0.4495793035
 40
0.7125967332
 40
1.0
 40
1.0
 40
1.0
 40
1.0
 10
25.1961112184
 20
64.4628463666
 30
0.0
 10
25.1988550645
 20
64.4728387373
 30
0.0
 10
25.2092546001
 20
64.5115752627
 30
0.0
 10
25.2390255111
 20
64.6253896615
 30
0.0
 10
25.2883299114
 20
64.8370021243
 30
0.0
 10
25.3469032997
 20
65.1524059465
 30
0.0
 10
25.3930288409
 20
65.5385723804
 30
0.0
 10
25.4046060131
 20
65.8173453781
 30
0.0
 10
25.4046060131
 20
65.9628369609
 30
0.0
  0
SPLINE
  5
2B8
100
AcDbEntity
  8
00_COMPONENTS_13
100
AcDbSpline
 62
7
  6
BYLAYER
 70
0
 71
3
 72
25
 73
21
 74
0
 42
0.0000001
 43
0.0000001
 44
0.0000000001
 40
0.0
 40
0.0
 40
0.0
 40
0.0
 40
0.1935426265
 40
0.3797364571
 40
0.5515373529
 40
0.6301124691
 40
0.7027947342
 40
0.7689174285
 40
0.8278720932
 40
0.8790492629
 40
0.9218553848
 40
0.9399336364
 40
0.9557110154
 40
0.9691483568
 40
0.9802078086
 40
0.9888513812
 40
0.995041678
 40
0.997209499
 40
0.998758604
 40
1.0
 40
1.0
 40
1.0
 40
1.0
 10
25.4046060131
 20
65.9628369609
 30
0.0
 10
25.4046060131
 20
66.0608204184
 30
0.0
 10
25.3992361598
 20
66.2531101167
 30
0.0
 10
25.3763809136
 20
66.5315151371
 30
0.0
 10
25.3473898285
 20
66.7507135745
 30
0.0
 10
25.3205375873
 20
66.9120557328
 30
0.0
 10
25.3003184459
 20
67.0202410971
 30
0.0
 10
25.2801588501
 20
67.1183135579
 30
0.0
 10
25.2608325539
 20
67.2054297345
 30
0.0
 10
25.2430817516
 20
67.2807962723
 30
0.0
 10
25.2294438652
 20
67.3358664116
 30
0.0
 10
25.2198414563
 20
67.3734708714
 30
0.0
 10
25.2138276294
 20
67.3966460102
 30
0.0
 10
25.2086301034
 20
67.4163619017
 30
0.0
 10
25.2043059168
 20
67.4325725129
 30
0.0
 10
25.2008743843
 20
67.4452251639
 30
0.0
 10
25.1986461315
 20
67.4535371703
 30
0.0
 10
25.197295034
 20
67.4583701905
 30
0.0
 10
25.1967032383
 20
67.4608060202
 30
0.0
 10
25.1962062167
 20
67.4621438214
 30
0.0
 10
25.1961225393
 20
67.4627666987
 30
0.0
  0
SPLINE
  5
2B9
100
AcDbEntity
  8
00_COMPONENTS_13
100
AcDbSpline
 62
7
  6
BYLAYER
 70
0
 71
3
 72
13
 73
9
 74
0
 42
0.0000001
 43
0.0000001
 44
0.0000000001
 40
0.0
 40
0.0
 40
0.0
 40
0.0
 40
0.2918900301
 40
0.443182001
 40
0.6160639863
 40
0.7085823609
 40
0.8040176653
 40
1.0
 40
1.0
 40
1.0
 40
1.0
 10
25.1961086354
 20
64.4628369609
 30
0.0
 10
25.7222825157
 20
64.4628369609
 30
0.0
 10
26.5211819997
 20
64.4628726942
 30
0.0
 10
27.6317261808
 20
64.4627808468
 30
0.0
 10
28.3828742455
 20
64.4629623636
 30
0.0
 10
29.0333324894
 20
64.4627299407
 30
0.0
 10
29.7254327428
 20
64.4625033864
 30
0.0
 10
30.2507541173
 20
64.4640279305
 30
0.0
 10
30.6040405433
 20
64.4640289488
 30
0.0
  0
ENDSEC
  0
SECTION
  2
OBJECTS
  0
DICTIONARY
  5
C
100
AcDbDictionary
280
0
281
1
  3
ACAD_GROUP
350
D
  3
ACAD_MLINESTYLE
350
17
  3
ACAD_LAYOUT
350
1A
  3
ACAD_PLOTSETTINGS
350
19
  3
ACAD_PLOTSTYLENAME
350
E
  0
DICTIONARY
  5
D
102
{ACAD_REACTORS
330
C
102
}
100
AcDbDictionary
280
0
281
1
  0
ACDBDICTIONARYWDFLT
  5
E
102
{ACAD_REACTORS
330
C
102
}
100
AcDbDictionary
281
1
  3
Normal
350
F
100
AcDbDictionaryWithDefault
340
F
  0
DICTIONARY
  5
17
102
{ACAD_REACTORS
330
C
102
}
100
AcDbDictionary
280
0
281
1
  3
Standard
350
18
  0
DICTIONARY
  5
19
102
{ACAD_REACTORS
330
C
102
}
100
AcDbDictionary
281
1
  0
DICTIONARY
  5
1A
102
{ACAD_REACTORS
330
C
102
}
100
AcDbDictionary
281
1
  3
Model
350
2BA
  3
Layout1
350
2BB
  0
ACDBPLACEHOLDER
  5
F
102
{ACAD_REACTORS
330
E
102
}
  0
MLINESTYLE
  5
18
102
{ACAD_REACTORS
330
17
102
}
100
AcDbMlineStyle
  2
STANDARD
 70
0
  3

 62
256
 51
90.0
 52
90.0
 71
2
 49
0.5
 62
256
  6
BYLAYER
 49
-0.5
 62
256
  6
BYLAYER
  0
LAYOUT
  5
2BA
102
{ACAD_REACTORS
330
1A
102
}
100
AcDbPlotSettings
  1

  2
none_device
  4

  6

 40
0.0
 41
0.0
 42
0.0
 43
0.0
 44
210.0
 45
297.0
 46
0.0
 47
0.0
 48
0.0
 49
0.0
140
0.0
141
0.0
142
1.0
143
1.0
 70
1024
 72
1
 73
0
 74
0
  7

 75
0
147
1.0
148
0.0
149
0.0
100
AcDbLayout
  1
Model
 70
0
 71
0
 10
0.0
 20
0.0
 11
210.0
 21
297.0
 12
0.0
 22
0.0
 32
0.0
 14
0.0
 24
0.0
 34
0.0
 15
0.0
 25
0.0
 35
0.0
146
0.0
 13
0.0
 23
0.0
 33
0.0
 16
1.0
 26
0.0
 36
0.0
 17
0.0
 27
1.0
 37
0.0
 76
0
330
21B
345
0
346
0
  0
LAYOUT
  5
2BB
102
{ACAD_REACTORS
330
1A
102
}
100
AcDbPlotSettings
  1

  2
none_device
  4

  6

 40
0.0
 41
0.0
 42
0.0
 43
0.0
 44
210.0
 45
297.0
 46
0.0
 47
0.0
 48
0.0
 49
0.0
140
0.0
141
0.0
142
1.0
143
1.0
 70
0
 72
1
 73
0
 74
0
  7

 75
0
147
1.0
148
0.0
149
0.0
100
AcDbLayout
  1
Layout1
 70
0
 71
1
 10
0.0
 20
0.0
 11
210.0
 21
297.0
 12
0.0
 22
0.0
 32
0.0
 14
0.0
 24
0.0
 34
0.0
 15
0.0
 25
0.0
 35
0.0
146
0.0
 13
0.0
 23
0.0
 33
0.0
 16
1.0
 26
0.0
 36
0.0
 17
0.0
 27
1.0
 37
0.0
 76
0
330
21C
345
0
346
0
  0
ENDSEC
  0
EOF
