999
DXF file: C:\Users\sesa63760\Dev\_Creo\CAD\MCADID0005867_3D-CAD\mcadid0005867_3d-simplified_2.dxf
999
Pro/ENGINEER 2019471 by Parametric Technology Corporation
  0
SECTION
  2
HEADER
  9
$ACADVER
  1
AC1024
  9
$DWGCODEPAGE
  3
ANSI_1252
  9
$EXTMAX
 10
97.5268946349
 20
137.9308938408
 30
0.0
  9
$EXTMIN
 10
0.0
 20
0.0
 30
0.0
  9
$LIMMIN
 10
0.0
 20
0.0
  9
$LIMMAX
 10
97.5268946349
 20
137.9308938408
  9
$VIEWCTR
 10
48.7634473174
 20
68.9654469204
  9
$VIEWSIZE
 40
137.9308938408
  9
$CLAYER
  8
0
  9
$LTSCALE
 40
8.9910508578
  9
$CELTYPE
  6
BYLAYER
  9
$DIMSCALE
 40
1.0
  9
$DIMASZ
 40
1.1610344599
  9
$DIMEXO
 40
1.0
  9
$DIMDLI
 40
6.2119987745
  9
$DIMEXE
 40
1.0
  9
$DIMCEN
 40
1.4712628676
  9
$DIMLFAC
 40
1.0
  9
$DIMBLK
  1
_FILLED
  9
$DIMALT
 70
0
  9
$DIMALTF
 40
0.0393700787
  9
$DIMTXT
 40
1.6254482439
  9
$DIMTOL
 70
1
  9
$DIMLIM
 70
0
  9
$DIMTFAC
 40
1.0
  9
$DIMTP
 40
0.01
  9
$DIMTM
 40
0.01
  9
$DIMGAP
 40
0.625
  9
$DIMDSEP
 70
46
  9
$AUNITS
 70
0
  9
$PDMODE
 70
3
  9
$PDSIZE
 40
0.3125
  9
$HANDSEED
  5
2AA
  9
$TILEMODE
 70
1
  9
$MEASUREMENT
 70
1
  9
$INSUNITS
 70
4
  0
ENDSEC
  0
SECTION
  2
CLASSES
  0
CLASS
  1
ACDBDICTIONARYWDFLT
  2
AcDbDictionaryWithDefault
  3
AutoCAD 2000
 90
0
 91
1
280
0
281
0
  0
CLASS
  1
ACDBPLACEHOLDER
  2
AcDbPlaceHolder
  3
AutoCAD 2000
 90
0
 91
1
280
0
281
0
  0
CLASS
  1
LAYOUT
  2
AcDbLayout
  3
AutoCAD 2000
 90
0
 91
0
280
0
281
0
  0
ENDSEC
  0
SECTION
  2
TABLES
  0
TABLE
  2
VPORT
  5
8
100
AcDbSymbolTable
 70
2
  0
VPORT
  5
1F4
100
AcDbSymbolTableRecord
100
AcDbViewportTableRecord
  2
*ACTIVE
 70
0
 10
0.0
 20
0.0
 11
1.0
 21
1.0
 12
48.7634473174
 22
68.9654469204
 13
0.0
 23
0.0
 14
1.0
 24
1.0
 15
0.0
 25
0.0
 16
0.0
 26
0.0
 36
1.0
 17
0.0
 27
0.0
 37
0.0
 40
137.9308938408
 41
0.7070707071
 42
50.0
 43
0.0
 44
0.0
 50
0.0
 51
0.0
 71
0
 72
100
 73
1
 74
1
 75
0
 76
0
 77
0
 78
0
  0
ENDTAB
  0
TABLE
  2
LTYPE
  5
5
100
AcDbSymbolTable
 70
6
  0
LTYPE
  5
14
100
AcDbSymbolTableRecord
100
AcDbLinetypeTableRecord
  2
BYBLOCK
 70
0
  3

 72
65
 73
0
 40
0.0
  0
LTYPE
  5
15
100
AcDbSymbolTableRecord
100
AcDbLinetypeTableRecord
  2
BYLAYER
 70
0
  3

 72
65
 73
0
 40
0.0
  0
LTYPE
  5
16
100
AcDbSymbolTableRecord
100
AcDbLinetypeTableRecord
  2
CONTINUOUS
 70
64
  3
Solid line
 72
65
 73
0
 40
0.0
  0
LTYPE
  5
1F5
100
AcDbSymbolTableRecord
100
AcDbLinetypeTableRecord
  2
CENTER
 70
64
  3
____ _ ____ _ ____ _ ____ _ ____ _ ____ _ ____
 72
65
 73
4
 40
0.6
 49
0.375
 74
0
 49
-0.075
 74
0
 49
0.075
 74
0
 49
-0.075
 74
0
  0
LTYPE
  5
1F6
100
AcDbSymbolTableRecord
100
AcDbLinetypeTableRecord
  2
HIDDEN
 70
64
  3
- - - - - - - - - - - - - - - - - - - -
 72
65
 73
2
 40
0.2
 49
0.1
 74
0
 49
-0.1
 74
0
  0
LTYPE
  5
1F7
100
AcDbSymbolTableRecord
100
AcDbLinetypeTableRecord
  2
PHANTOM
 70
64
  3
_____ _ _ _____ _ _ _____ _ _ _____
 72
65
 73
6
 40
0.8
 49
0.45
 74
0
 49
-0.05
 74
0
 49
0.1
 74
0
 49
-0.05
 74
0
 49
0.1
 74
0
 49
-0.05
 74
0
  0
LTYPE
  5
1F8
100
AcDbSymbolTableRecord
100
AcDbLinetypeTableRecord
  2
DOT
 70
64
  3
. . . . . . . . . . . . . . . . . . . .
 72
65
 73
2
 40
0.2
 49
0.1
 74
0
 49
-0.1
 74
0
  0
LTYPE
  5
1F9
100
AcDbSymbolTableRecord
100
AcDbLinetypeTableRecord
  2
DASHED
 70
64
  3
- - - - - - - - - - - - - - - - - - - -
 72
65
 73
2
 40
0.2
 49
0.1
 74
0
 49
-0.1
 74
0
  0
ENDTAB
  0
TABLE
  2
LAYER
  5
2
100
AcDbSymbolTable
 70
36
  0
LAYER
  5
10
100
AcDbSymbolTableRecord
100
AcDbLayerTableRecord
  2
0
 70
0
 62
7
  6
CONTINUOUS
370
-3
390
F
  0
LAYER
  5
1FA
100
AcDbSymbolTableRecord
100
AcDbLayerTableRecord
  2
DEFAULT_1
 70
0
 62
7
  6
CENTER
370
-3
390
F
  0
LAYER
  5
1FB
100
AcDbSymbolTableRecord
100
AcDbLayerTableRecord
  2
DEFAULT_2
 70
0
 62
7
  6
HIDDEN
370
-3
390
F
  0
LAYER
  5
1FC
100
AcDbSymbolTableRecord
100
AcDbLayerTableRecord
  2
DEFAULT_3
 70
0
 62
7
  6
PHANTOM
370
-3
390
F
  0
LAYER
  5
1FD
100
AcDbSymbolTableRecord
100
AcDbLayerTableRecord
  2
00_COMPONENTS
 70
0
 62
7
  6
CONTINUOUS
370
-3
390
F
  0
LAYER
  5
1FE
100
AcDbSymbolTableRecord
100
AcDbLayerTableRecord
  2
01_1_DEFAULT_DATUMS
 70
0
 62
7
  6
CONTINUOUS
370
-3
390
F
  0
LAYER
  5
1FF
100
AcDbSymbolTableRecord
100
AcDbLayerTableRecord
  2
01_PLANES
 70
0
 62
7
  6
CONTINUOUS
370
-3
390
F
  0
LAYER
  5
200
100
AcDbSymbolTableRecord
100
AcDbLayerTableRecord
  2
02_COORD_SYS
 70
0
 62
7
  6
CONTINUOUS
370
-3
390
F
  0
LAYER
  5
201
100
AcDbSymbolTableRecord
100
AcDbLayerTableRecord
  2
03_AXES
 70
0
 62
7
  6
CONTINUOUS
370
-3
390
F
  0
LAYER
  5
202
100
AcDbSymbolTableRecord
100
AcDbLayerTableRecord
  2
04_POINTS
 70
0
 62
7
  6
CONTINUOUS
370
-3
390
F
  0
LAYER
  5
203
100
AcDbSymbolTableRecord
100
AcDbLayerTableRecord
  2
05_CURVES
 70
0
 62
7
  6
CONTINUOUS
370
-3
390
F
  0
LAYER
  5
204
100
AcDbSymbolTableRecord
100
AcDbLayerTableRecord
  2
06_SURFS
 70
0
 62
7
  6
CONTINUOUS
370
-3
390
F
  0
LAYER
  5
205
100
AcDbSymbolTableRecord
100
AcDbLayerTableRecord
  2
07_COSMETICS
 70
0
 62
7
  6
CONTINUOUS
370
-3
390
F
  0
LAYER
  5
206
100
AcDbSymbolTableRecord
100
AcDbLayerTableRecord
  2
10_NOTES
 70
0
 62
7
  6
CONTINUOUS
370
-3
390
F
  0
LAYER
  5
207
100
AcDbSymbolTableRecord
100
AcDbLayerTableRecord
  2
11_NOTES_PUB
 70
0
 62
7
  6
CONTINUOUS
370
-3
390
F
  0
LAYER
  5
208
100
AcDbSymbolTableRecord
100
AcDbLayerTableRecord
  2
13_REF_GTOL
 70
0
 62
7
  6
CONTINUOUS
370
-3
390
F
  0
LAYER
  5
209
100
AcDbSymbolTableRecord
100
AcDbLayerTableRecord
  2
16_MISC
 70
0
 62
7
  6
CONTINUOUS
370
-3
390
F
  0
LAYER
  5
20A
100
AcDbSymbolTableRecord
100
AcDbLayerTableRecord
  2
17_NO_PRINT
 70
0
 62
7
  6
CONTINUOUS
370
-3
390
F
  0
LAYER
  5
20B
100
AcDbSymbolTableRecord
100
AcDbLayerTableRecord
  2
18_DATUM_CAMS_JOINTS
 70
0
 62
7
  6
CONTINUOUS
370
-3
390
F
  0
LAYER
  5
20C
100
AcDbSymbolTableRecord
100
AcDbLayerTableRecord
  2
19_DATUM_FUNCTIONAL
 70
0
 62
7
  6
CONTINUOUS
370
-3
390
F
  0
LAYER
  5
20D
100
AcDbSymbolTableRecord
100
AcDbLayerTableRecord
  2
20_DATUM_KINEMATIC_SCHEME
 70
0
 62
7
  6
CONTINUOUS
370
-3
390
F
  0
ENDTAB
  0
TABLE
  2
STYLE
  5
3
100
AcDbSymbolTable
 70
1
  0
STYLE
  5
11
100
AcDbSymbolTableRecord
100
AcDbTextStyleTableRecord
  2
STANDARD
 70
0
 40
0.0
 41
1.0
 50
0.0
 71
0
 42
0.2
  3
ARIAL.TTF
  4

  0
STYLE
  5
20E
100
AcDbSymbolTableRecord
100
AcDbTextStyleTableRecord
  2
TEXTSTYLE_1
 70
0
 40
0.0
 41
0.8
 50
0.0
 71
0
 42
0.2
  3
gdt
  4

  0
ENDTAB
  0
TABLE
  2
VIEW
  5
6
100
AcDbSymbolTable
 70
0
  0
ENDTAB
  0
TABLE
  2
UCS
  5
7
100
AcDbSymbolTable
 70
0
  0
ENDTAB
  0
TABLE
  2
APPID
  5
9
100
AcDbSymbolTable
 70
1
  0
APPID
  5
20F
100
AcDbSymbolTableRecord
100
AcDbRegAppTableRecord
  2
ACAD
 70
0
  0
ENDTAB
  0
TABLE
  2
BLOCK_RECORD
  5
1
100
AcDbSymbolTable
 70
0
  0
BLOCK_RECORD
  5
210
100
AcDbSymbolTableRecord
100
AcDbBlockTableRecord
  2
*Model_Space
  0
BLOCK_RECORD
  5
211
100
AcDbSymbolTableRecord
100
AcDbBlockTableRecord
  2
*Paper_Space
  0
BLOCK_RECORD
  5
212
100
AcDbSymbolTableRecord
100
AcDbBlockTableRecord
  2
_FILLED
  0
ENDTAB
  0
TABLE
  2
DIMSTYLE
  5
A
100
AcDbSymbolTable
 70
1
100
AcDbDimStyleTable
 71
0
  0
DIMSTYLE
105
213
100
AcDbSymbolTableRecord
100
AcDbDimStyleTableRecord
  2
STANDARD
 70
0
  3

  4

 40
1.0
 41
1.1610344599
 42
1.0
 43
0.38
 44
1.0
 45
0.0
 46
0.0
 47
0.01
 48
0.01
140
1.6254482439
141
0.09
142
0.0
143
25.4
144
1.0
145
0.0
146
1.0
147
0.625
 71
1
 72
0
 73
0
 74
0
 75
0
 76
0
 77
1
 78
8
 79
2
170
0
171
1
172
0
173
0
174
0
175
0
176
0
177
0
178
0
270
2
179
2
271
2
272
2
273
2
274
2
275
0
280
0
281
0
282
0
283
1
284
8
285
0
286
0
287
3
288
0
340
11
278
46
341
212
342
212
343
212
344
212
  0
ENDTAB
  0
ENDSEC
  0
SECTION
  2
BLOCKS
  0
BLOCK
  5
20
100
AcDbEntity
  8
0
100
AcDbBlockBegin
  2
*Model_Space
 70
0
 10
0.0
 20
0.0
 30
0.0
  3
*Model_Space
  1

  0
ENDBLK
  5
21
100
AcDbEntity
  8
0
100
AcDbBlockEnd
  0
BLOCK
  5
1C
100
AcDbEntity
  8
0
100
AcDbBlockBegin
  2
*Paper_Space
 70
0
 10
0.0
 20
0.0
 30
0.0
  3
*Paper_Space
  1

  0
ENDBLK
  5
1D
100
AcDbEntity
  8
0
100
AcDbBlockEnd
  0
BLOCK
  5
214
100
AcDbEntity
  8
0
100
AcDbBlockBegin
  2
_FILLED
 70
64
 10
0.0
 20
0.0
  3
_FILLED
  1

  0
SOLID
  5
215
100
AcDbEntity
  8
0
  6
BYBLOCK
 62
0
100
AcDbTrace
 10
0.0
 20
0.0
 11
-1.0
 21
0.25
 12
-1.0
 22
-0.25
 13
-1.0
 23
-0.25
  0
ENDBLK
  5
216
100
AcDbEntity
  8
0
  6
BYBLOCK
 62
0
100
AcDbBlockEnd
  0
ENDSEC
  0
SECTION
  2
ENTITIES
  0
LINE
  5
217
100
AcDbEntity
  8
0
100
AcDbLine
 62
7
  6
BYLAYER
 10
10.6931700089
 20
61.7165393453
 11
10.6931700089
 21
75.7078763051
  0
LINE
  5
218
100
AcDbEntity
  8
0
100
AcDbLine
 62
7
  6
BYLAYER
 10
10.8398928219
 20
61.3628997448
 11
10.8398928219
 21
76.0615159056
  0
LINE
  5
219
100
AcDbEntity
  8
0
100
AcDbLine
 62
7
  6
BYLAYER
 10
10.8398928219
 20
76.0615159056
 11
10.6931700089
 21
75.7078763051
  0
LINE
  5
21A
100
AcDbEntity
  8
0
100
AcDbLine
 62
7
  6
BYLAYER
 10
11.6901327124
 20
76.708601132
 11
11.5426276452
 21
76.3530760983
  0
LINE
  5
21B
100
AcDbEntity
  8
0
100
AcDbLine
 62
7
  6
BYLAYER
 10
10.6931700089
 20
61.7165393453
 11
10.8398928219
 21
61.3628997448
  0
LINE
  5
21C
100
AcDbEntity
  8
0
100
AcDbLine
 62
7
  6
BYLAYER
 10
11.5426276452
 20
61.0713395522
 11
11.6901327124
 21
60.7158145184
  0
LINE
  5
21D
100
AcDbEntity
  8
0
100
AcDbLine
 62
7
  6
BYLAYER
 10
11.5426276452
 20
61.0713395522
 11
11.5426276452
 21
76.3530760983
  0
LINE
  5
21E
100
AcDbEntity
  8
0
100
AcDbLine
 62
7
  6
BYLAYER
 10
11.6901324186
 20
76.8067583519
 11
11.6901324186
 21
60.6176572985
  0
LINE
  5
21F
100
AcDbEntity
  8
0
100
AcDbLine
 62
7
  6
BYLAYER
 10
11.8895252531
 20
60.418606769
 11
11.8895252531
 21
77.0058088814
  0
LINE
  5
220
100
AcDbEntity
  8
0
100
AcDbLine
 62
7
  6
BYLAYER
 10
13.7893975749
 20
77.0058088814
 11
13.7893975749
 21
60.418606769
  0
LINE
  5
221
100
AcDbEntity
  8
0
100
AcDbLine
 62
7
  6
BYLAYER
 10
13.9887901156
 20
60.418606769
 11
13.9887901156
 21
77.0058088814
  0
LINE
  5
222
100
AcDbEntity
  8
0
100
AcDbLine
 62
7
  6
BYLAYER
 10
14.9857528191
 20
60.317029437
 11
14.9857528191
 21
77.1073862134
  0
LINE
  5
223
100
AcDbEntity
  8
0
100
AcDbLine
 62
7
  6
BYLAYER
 10
15.5876925646
 20
59.7188518149
 11
15.5876925646
 21
77.7055638355
  0
LINE
  5
224
100
AcDbEntity
  8
0
100
AcDbLine
 62
7
  6
BYLAYER
 10
15.5876925646
 20
77.7055638355
 11
14.9857528191
 21
77.1073862134
  0
LINE
  5
225
100
AcDbEntity
  8
0
100
AcDbLine
 62
7
  6
BYLAYER
 10
14.9857528191
 20
60.317029437
 11
15.5876925646
 21
59.7188518149
  0
LINE
  5
226
100
AcDbEntity
  8
0
100
AcDbLine
 62
7
  6
BYLAYER
 10
23.0931700089
 20
80.7172078252
 11
23.9563086613
 21
82.2122078252
  0
LINE
  5
227
100
AcDbEntity
  8
0
100
AcDbLine
 62
7
  6
BYLAYER
 10
23.9563086613
 20
55.2122078252
 11
23.0931700089
 21
56.7072078252
  0
LINE
  5
228
100
AcDbEntity
  8
0
100
AcDbLine
 62
7
  6
BYLAYER
 10
23.0931700089
 20
56.7072078252
 11
23.0931700089
 21
80.7172078252
  0
LINE
  5
229
100
AcDbEntity
  8
0
100
AcDbLine
 62
7
  6
BYLAYER
 10
23.9563086613
 20
55.2122078252
 11
23.9563086613
 21
55.2280991687
  0
LINE
  5
22A
100
AcDbEntity
  8
0
100
AcDbLine
 62
7
  6
BYLAYER
 10
23.9563086613
 20
61.4030465369
 11
23.9563086613
 21
62.537260457
  0
LINE
  5
22B
100
AcDbEntity
  8
0
100
AcDbLine
 62
7
  6
BYLAYER
 10
23.9563086613
 20
74.8871551934
 11
23.9563086613
 21
76.0213691135
  0
LINE
  5
22C
100
AcDbEntity
  8
0
100
AcDbLine
 62
7
  6
BYLAYER
 10
23.9563086613
 20
82.1963164817
 11
23.9563086613
 21
82.2122078252
  0
LINE
  5
22D
100
AcDbEntity
  8
0
100
AcDbLine
 62
7
  6
BYLAYER
 10
25.2300313564
 20
82.2122078252
 11
25.2300313564
 21
82.1963164817
  0
LINE
  5
22E
100
AcDbEntity
  8
0
100
AcDbLine
 62
7
  6
BYLAYER
 10
25.2300313564
 20
76.0213691135
 11
25.2300313564
 21
74.8871551934
  0
LINE
  5
22F
100
AcDbEntity
  8
0
100
AcDbLine
 62
7
  6
BYLAYER
 10
25.2300313564
 20
62.537260457
 11
25.2300313564
 21
61.4030465369
  0
LINE
  5
230
100
AcDbEntity
  8
0
100
AcDbLine
 62
7
  6
BYLAYER
 10
25.2300313564
 20
55.2280991687
 11
25.2300313564
 21
55.2122078252
  0
LINE
  5
231
100
AcDbEntity
  8
0
100
AcDbLine
 62
7
  6
BYLAYER
 10
26.0931700089
 20
80.7172078252
 11
26.0931700089
 21
56.7072078252
  0
LINE
  5
232
100
AcDbEntity
  8
0
100
AcDbLine
 62
7
  6
BYLAYER
 10
26.7918120619
 20
79.7610435537
 11
26.7918120619
 21
57.6633720968
  0
LINE
  5
233
100
AcDbEntity
  8
0
100
AcDbLine
 62
7
  6
BYLAYER
 10
11.5426276452
 20
76.3530760983
 11
10.8398928219
 21
76.0615159056
  0
LINE
  5
234
100
AcDbEntity
  8
0
100
AcDbLine
 62
7
  6
BYLAYER
 10
10.8398928219
 20
61.3628997448
 11
11.5426276452
 21
61.0713395522
  0
LINE
  5
235
100
AcDbEntity
  8
0
100
AcDbLine
 62
7
  6
BYLAYER
 10
26.0931700089
 20
56.7072078252
 11
25.2300313564
 21
55.2122078252
  0
LINE
  5
236
100
AcDbEntity
  8
0
100
AcDbLine
 62
7
  6
BYLAYER
 10
25.2300313564
 20
55.2122078252
 11
23.9563086613
 21
55.2122078252
  0
LINE
  5
237
100
AcDbEntity
  8
0
100
AcDbLine
 62
7
  6
BYLAYER
 10
43.8563086613
 20
55.2122078252
 11
45.1300313564
 21
55.2122078252
  0
LINE
  5
238
100
AcDbEntity
  8
0
100
AcDbLine
 62
7
  6
BYLAYER
 10
45.1300313564
 20
55.2280991687
 11
43.8563086613
 21
55.2280991687
  0
LINE
  5
239
100
AcDbEntity
  8
0
100
AcDbLine
 62
7
  6
BYLAYER
 10
25.2300313564
 20
55.2280991687
 11
23.9563086613
 21
55.2280991687
  0
LINE
  5
23A
100
AcDbEntity
  8
0
100
AcDbLine
 62
7
  6
BYLAYER
 10
25.2300313564
 20
82.2122078252
 11
26.0931700089
 21
80.7172078252
  0
LINE
  5
23B
100
AcDbEntity
  8
0
100
AcDbLine
 62
7
  6
BYLAYER
 10
43.8563086613
 20
82.2122078252
 11
42.9931700089
 21
80.7172078252
  0
LINE
  5
23C
100
AcDbEntity
  8
0
100
AcDbLine
 62
7
  6
BYLAYER
 10
42.2945279559
 20
79.7610435537
 11
42.9931700089
 21
80.0126358785
  0
LINE
  5
23D
100
AcDbEntity
  8
0
100
AcDbLine
 62
7
  6
BYLAYER
 10
70.902193054
 20
60.8173918504
 11
75.9480070741
 21
61.8153831105
  0
LINE
  5
23E
100
AcDbEntity
  8
0
100
AcDbLine
 62
7
  6
BYLAYER
 10
42.9931700089
 20
57.4117797719
 11
42.2945279559
 21
57.6633720968
  0
LINE
  5
23F
100
AcDbEntity
  8
0
100
AcDbLine
 62
7
  6
BYLAYER
 10
42.9931700089
 20
56.7072078252
 11
43.8563086613
 21
55.2122078252
  0
LINE
  5
240
100
AcDbEntity
  8
0
100
AcDbLine
 62
7
  6
BYLAYER
 10
65.6954142553
 20
60.4773264717
 11
70.902193054
 21
60.8173918504
  0
LINE
  5
241
100
AcDbEntity
  8
0
100
AcDbLine
 62
7
  6
BYLAYER
 10
15.5876925646
 20
59.7188518149
 11
23.0931700089
 21
59.7188518149
  0
LINE
  5
242
100
AcDbEntity
  8
0
100
AcDbLine
 62
7
  6
BYLAYER
 10
26.7918120619
 20
59.7188518149
 11
42.2945279559
 21
59.7188518149
  0
LINE
  5
243
100
AcDbEntity
  8
0
100
AcDbLine
 62
7
  6
BYLAYER
 10
45.9931700089
 20
59.7188518149
 11
57.6783292697
 21
59.7188518149
  0
LINE
  5
244
100
AcDbEntity
  8
0
100
AcDbLine
 62
7
  6
BYLAYER
 10
11.8895252531
 20
60.418606769
 11
13.7893975749
 21
60.418606769
  0
LINE
  5
245
100
AcDbEntity
  8
0
100
AcDbLine
 62
7
  6
BYLAYER
 10
13.9887901156
 20
60.418606769
 11
14.9857528191
 21
60.418606769
  0
LINE
  5
246
100
AcDbEntity
  8
0
100
AcDbLine
 62
7
  6
BYLAYER
 10
58.4269918282
 20
60.4675143734
 11
64.4200544195
 21
60.4675143734
  0
LINE
  5
247
100
AcDbEntity
  8
0
100
AcDbLine
 62
7
  6
BYLAYER
 10
64.7210242922
 20
60.4675143734
 11
65.6954142553
 21
60.4675143734
  0
LINE
  5
248
100
AcDbEntity
  8
0
100
AcDbLine
 62
7
  6
BYLAYER
 10
13.7893975749
 20
60.6179993097
 11
13.9887901156
 21
60.6179993097
  0
LINE
  5
249
100
AcDbEntity
  8
0
100
AcDbLine
 62
7
  6
BYLAYER
 10
42.2945279559
 20
57.6633720968
 11
42.2945279559
 21
79.7610435537
  0
LINE
  5
24A
100
AcDbEntity
  8
0
100
AcDbLine
 62
7
  6
BYLAYER
 10
42.9931700089
 20
56.7072078252
 11
42.9931700089
 21
80.7172078252
  0
LINE
  5
24B
100
AcDbEntity
  8
0
100
AcDbLine
 62
7
  6
BYLAYER
 10
43.8563086613
 20
55.2122078252
 11
43.8563086613
 21
55.2280991687
  0
LINE
  5
24C
100
AcDbEntity
  8
0
100
AcDbLine
 62
7
  6
BYLAYER
 10
43.8563086613
 20
61.4030465369
 11
43.8563086613
 21
62.537260457
  0
LINE
  5
24D
100
AcDbEntity
  8
0
100
AcDbLine
 62
7
  6
BYLAYER
 10
43.8563086613
 20
74.8871551934
 11
43.8563086613
 21
76.0213691135
  0
LINE
  5
24E
100
AcDbEntity
  8
0
100
AcDbLine
 62
7
  6
BYLAYER
 10
43.8563086613
 20
82.1963164817
 11
43.8563086613
 21
82.2122078252
  0
LINE
  5
24F
100
AcDbEntity
  8
0
100
AcDbLine
 62
7
  6
BYLAYER
 10
64.4200544195
 20
61.2688466596
 11
64.7210242922
 21
61.2688466596
  0
LINE
  5
250
100
AcDbEntity
  8
0
100
AcDbLine
 62
7
  6
BYLAYER
 10
23.9563086613
 20
61.4030465369
 11
25.2300313564
 21
61.4030465369
  0
LINE
  5
251
100
AcDbEntity
  8
0
100
AcDbLine
 62
7
  6
BYLAYER
 10
43.8563086613
 20
61.4030465369
 11
45.1300313564
 21
61.4030465369
  0
LINE
  5
252
100
AcDbEntity
  8
0
100
AcDbLine
 62
7
  6
BYLAYER
 10
75.9480070741
 20
61.8153831105
 11
78.535192731
 21
61.8153831105
  0
LINE
  5
253
100
AcDbEntity
  8
0
100
AcDbLine
 62
7
  6
BYLAYER
 10
79.2843331336
 20
61.8153831105
 11
86.9353081617
 21
61.8153831105
  0
LINE
  5
254
100
AcDbEntity
  8
0
100
AcDbLine
 62
7
  6
BYLAYER
 10
45.1300313564
 20
62.537260457
 11
43.8563086613
 21
62.537260457
  0
LINE
  5
255
100
AcDbEntity
  8
0
100
AcDbLine
 62
7
  6
BYLAYER
 10
25.2300313564
 20
62.537260457
 11
23.9563086613
 21
62.537260457
  0
LINE
  5
256
100
AcDbEntity
  8
0
100
AcDbLine
 62
7
  6
BYLAYER
 10
87.6839707202
 20
62.564045669
 11
88.0827558016
 21
62.564045669
  0
LINE
  5
257
100
AcDbEntity
  8
0
100
AcDbLine
 62
7
  6
BYLAYER
 10
45.1300313564
 20
82.2122078252
 11
45.1300313564
 21
82.1963164817
  0
LINE
  5
258
100
AcDbEntity
  8
0
100
AcDbLine
 62
7
  6
BYLAYER
 10
45.1300313564
 20
76.0213691135
 11
45.1300313564
 21
74.8871551934
  0
LINE
  5
259
100
AcDbEntity
  8
0
100
AcDbLine
 62
7
  6
BYLAYER
 10
45.1300313564
 20
62.537260457
 11
45.1300313564
 21
61.4030465369
  0
LINE
  5
25A
100
AcDbEntity
  8
0
100
AcDbLine
 62
7
  6
BYLAYER
 10
45.1300313564
 20
55.2280991687
 11
45.1300313564
 21
55.2122078252
  0
LINE
  5
25B
100
AcDbEntity
  8
0
100
AcDbLine
 62
7
  6
BYLAYER
 10
45.9931700089
 20
80.7172078252
 11
45.9931700089
 21
56.7072078252
  0
LINE
  5
25C
100
AcDbEntity
  8
0
100
AcDbLine
 62
7
  6
BYLAYER
 10
45.1300313564
 20
55.2122078252
 11
45.9931700089
 21
56.7072078252
  0
LINE
  5
25D
100
AcDbEntity
  8
0
100
AcDbLine
 62
7
  6
BYLAYER
 10
26.0931700089
 20
57.4117797719
 11
26.7918120619
 21
57.6633720968
  0
LINE
  5
25E
100
AcDbEntity
  8
0
100
AcDbLine
 62
7
  6
BYLAYER
 10
26.7918120619
 20
79.7610435537
 11
26.0931700089
 21
80.0126358785
  0
LINE
  5
25F
100
AcDbEntity
  8
0
100
AcDbLine
 62
7
  6
BYLAYER
 10
45.9931700089
 20
80.7172078252
 11
45.1300313564
 21
82.2122078252
  0
LINE
  5
260
100
AcDbEntity
  8
0
100
AcDbLine
 62
7
  6
BYLAYER
 10
88.0827558016
 20
73.0603699814
 11
87.6839707202
 21
73.0603699814
  0
LINE
  5
261
100
AcDbEntity
  8
0
100
AcDbLine
 62
7
  6
BYLAYER
 10
86.9353081617
 20
73.8090325399
 11
79.2843331336
 21
73.8090325399
  0
LINE
  5
262
100
AcDbEntity
  8
0
100
AcDbLine
 62
7
  6
BYLAYER
 10
78.535192731
 20
73.8090325399
 11
76.0262051377
 21
73.8090325399
  0
LINE
  5
263
100
AcDbEntity
  8
0
100
AcDbLine
 62
7
  6
BYLAYER
 10
57.6783292697
 20
77.7055638355
 11
57.6783292697
 21
59.7188518149
  0
LINE
  5
264
100
AcDbEntity
  8
0
100
AcDbLine
 62
7
  6
BYLAYER
 10
23.9563086613
 20
74.8871551934
 11
25.2300313564
 21
74.8871551934
  0
LINE
  5
265
100
AcDbEntity
  8
0
100
AcDbLine
 62
7
  6
BYLAYER
 10
43.8563086613
 20
74.8871551934
 11
45.1300313564
 21
74.8871551934
  0
LINE
  5
266
100
AcDbEntity
  8
0
100
AcDbLine
 62
7
  6
BYLAYER
 10
45.1300313564
 20
76.0213691135
 11
43.8563086613
 21
76.0213691135
  0
LINE
  5
267
100
AcDbEntity
  8
0
100
AcDbLine
 62
7
  6
BYLAYER
 10
25.2300313564
 20
76.0213691135
 11
23.9563086613
 21
76.0213691135
  0
LINE
  5
268
100
AcDbEntity
  8
0
100
AcDbLine
 62
7
  6
BYLAYER
 10
64.7210242922
 20
76.1555689908
 11
64.4200544195
 21
76.1555689908
  0
LINE
  5
269
100
AcDbEntity
  8
0
100
AcDbLine
 62
7
  6
BYLAYER
 10
13.9887901156
 20
76.8064163407
 11
13.7893975749
 21
76.8064163407
  0
LINE
  5
26A
100
AcDbEntity
  8
0
100
AcDbLine
 62
7
  6
BYLAYER
 10
65.6954142553
 20
76.9569012771
 11
64.7210242922
 21
76.9569012771
  0
LINE
  5
26B
100
AcDbEntity
  8
0
100
AcDbLine
 62
7
  6
BYLAYER
 10
64.4200544195
 20
76.9569012771
 11
58.4269918282
 21
76.9569012771
  0
LINE
  5
26C
100
AcDbEntity
  8
0
100
AcDbLine
 62
7
  6
BYLAYER
 10
14.9857528191
 20
77.0058088814
 11
13.9887901156
 21
77.0058088814
  0
LINE
  5
26D
100
AcDbEntity
  8
0
100
AcDbLine
 62
7
  6
BYLAYER
 10
13.7893975749
 20
77.0058088814
 11
11.8895252531
 21
77.0058088814
  0
LINE
  5
26E
100
AcDbEntity
  8
0
100
AcDbLine
 62
7
  6
BYLAYER
 10
76.0262051377
 20
74.0417517838
 11
73.8594798188
 21
74.2680115958
  0
LINE
  5
26F
100
AcDbEntity
  8
0
100
AcDbLine
 62
7
  6
BYLAYER
 10
58.4269918282
 20
60.4675143734
 11
58.4269918282
 21
76.9569012771
  0
LINE
  5
270
100
AcDbEntity
  8
0
100
AcDbLine
 62
7
  6
BYLAYER
 10
57.6783292697
 20
77.7055638355
 11
45.9931700089
 21
77.7055638355
  0
LINE
  5
271
100
AcDbEntity
  8
0
100
AcDbLine
 62
7
  6
BYLAYER
 10
42.2945279559
 20
77.7055638355
 11
26.7918120619
 21
77.7055638355
  0
LINE
  5
272
100
AcDbEntity
  8
0
100
AcDbLine
 62
7
  6
BYLAYER
 10
23.0931700089
 20
77.7055638355
 11
15.5876925646
 21
77.7055638355
  0
LINE
  5
273
100
AcDbEntity
  8
0
100
AcDbLine
 62
7
  6
BYLAYER
 10
65.7525796048
 20
76.9433555927
 11
65.6954142553
 21
76.9470891787
  0
LINE
  5
274
100
AcDbEntity
  8
0
100
AcDbLine
 62
7
  6
BYLAYER
 10
57.6783292697
 20
59.7188518149
 11
58.4269918282
 21
60.4675143734
  0
LINE
  5
275
100
AcDbEntity
  8
0
100
AcDbLine
 62
7
  6
BYLAYER
 10
23.9563086613
 20
82.1963164817
 11
25.2300313564
 21
82.1963164817
  0
LINE
  5
276
100
AcDbEntity
  8
0
100
AcDbLine
 62
7
  6
BYLAYER
 10
43.8563086613
 20
82.1963164817
 11
45.1300313564
 21
82.1963164817
  0
LINE
  5
277
100
AcDbEntity
  8
0
100
AcDbLine
 62
7
  6
BYLAYER
 10
45.1300313564
 20
82.2122078252
 11
43.8563086613
 21
82.2122078252
  0
LINE
  5
278
100
AcDbEntity
  8
0
100
AcDbLine
 62
7
  6
BYLAYER
 10
23.9563086613
 20
82.2122078252
 11
25.2300313564
 21
82.2122078252
  0
LINE
  5
279
100
AcDbEntity
  8
0
100
AcDbLine
 62
7
  6
BYLAYER
 10
69.717381945
 20
75.3138819037
 11
73.8594798188
 21
74.2680115958
  0
LINE
  5
27A
100
AcDbEntity
  8
0
100
AcDbLine
 62
7
  6
BYLAYER
 10
65.7525796048
 20
76.9433555927
 11
69.717381945
 21
75.3138819037
  0
LINE
  5
27B
100
AcDbEntity
  8
0
100
AcDbLine
 62
7
  6
BYLAYER
 10
58.4269918282
 20
76.9569012771
 11
57.6783292697
 21
77.7055638355
  0
LINE
  5
27C
100
AcDbEntity
  8
0
100
AcDbLine
 62
7
  6
BYLAYER
 10
64.4200544195
 20
76.9569012771
 11
64.4200544195
 21
60.4675143734
  0
LINE
  5
27D
100
AcDbEntity
  8
0
100
AcDbLine
 62
7
  6
BYLAYER
 10
64.7210242922
 20
60.4675143734
 11
64.7210242922
 21
76.9569012771
  0
LINE
  5
27E
100
AcDbEntity
  8
0
100
AcDbLine
 62
7
  6
BYLAYER
 10
65.6954142553
 20
76.9569012771
 11
65.6954142553
 21
60.4675143734
  0
LINE
  5
27F
100
AcDbEntity
  8
0
100
AcDbLine
 62
7
  6
BYLAYER
 10
70.902193054
 20
60.8173918504
 11
70.902193054
 21
75.014719789
  0
LINE
  5
280
100
AcDbEntity
  8
0
100
AcDbLine
 62
7
  6
BYLAYER
 10
79.2843331336
 20
73.0598921373
 11
78.535192731
 21
73.8090325399
  0
LINE
  5
281
100
AcDbEntity
  8
0
100
AcDbLine
 62
7
  6
BYLAYER
 10
76.0262051377
 20
74.0417517838
 11
76.0262051377
 21
61.933771998
  0
LINE
  5
282
100
AcDbEntity
  8
0
100
AcDbLine
 62
7
  6
BYLAYER
 10
76.0262051377
 20
61.9337688451
 11
75.9480070741
 21
61.8153831105
  0
LINE
  5
283
100
AcDbEntity
  8
0
100
AcDbLine
 62
7
  6
BYLAYER
 10
78.535192731
 20
61.8153831105
 11
79.2843331336
 21
62.5645235131
  0
LINE
  5
284
100
AcDbEntity
  8
0
100
AcDbLine
 62
7
  6
BYLAYER
 10
78.535192731
 20
73.8090325399
 11
78.535192731
 21
61.8153831105
  0
LINE
  5
285
100
AcDbEntity
  8
0
100
AcDbLine
 62
7
  6
BYLAYER
 10
79.2843331336
 20
61.8153831105
 11
79.2843331336
 21
73.8090325399
  0
LINE
  5
286
100
AcDbEntity
  8
0
100
AcDbLine
 62
7
  6
BYLAYER
 10
87.6839707202
 20
73.0603699814
 11
86.9353081617
 21
73.8090325399
  0
LINE
  5
287
100
AcDbEntity
  8
0
100
AcDbLine
 62
7
  6
BYLAYER
 10
86.9353081617
 20
61.8153831105
 11
87.6839707202
 21
62.564045669
  0
LINE
  5
288
100
AcDbEntity
  8
0
100
AcDbLine
 62
7
  6
BYLAYER
 10
86.9353081617
 20
73.8090325399
 11
86.9353081617
 21
61.8153831105
  0
LINE
  5
289
100
AcDbEntity
  8
0
100
AcDbLine
 62
7
  6
BYLAYER
 10
87.6839707202
 20
62.564045669
 11
87.6839707202
 21
73.0603699814
  0
LINE
  5
28A
100
AcDbEntity
  8
0
100
AcDbLine
 62
7
  6
BYLAYER
 10
88.0827558016
 20
73.0603699814
 11
88.0827558016
 21
62.564045669
  0
LINE
  5
28B
100
AcDbEntity
  8
0
100
AcDbLine
 62
7
  6
BYLAYER
 10
88.1843331336
 20
72.9587926494
 11
88.1843331336
 21
62.6656230011
  0
ARC
  5
28C
100
AcDbEntity
  8
0
100
AcDbCircle
 62
7
  6
BYLAYER
 10
11.8891832419
 20
76.8067583519
 40
0.1990508233
100
AcDbArc
 50
89.9015537403
 51
180.0984462597
  0
ARC
  5
28D
100
AcDbEntity
  8
0
100
AcDbCircle
 62
7
  6
BYLAYER
 10
11.8891832419
 20
60.6176572985
 40
0.1990508233
100
AcDbArc
 50
179.9015537403
 51
270.0984462597
  0
ARC
  5
28E
100
AcDbEntity
  8
0
100
AcDbCircle
 62
7
  6
BYLAYER
 10
88.0815587623
 20
72.9575956101
 40
0.1027813422
100
AcDbArc
 50
0.6673083558
 51
89.3326916441
  0
ARC
  5
28F
100
AcDbEntity
  8
0
100
AcDbCircle
 62
7
  6
BYLAYER
 10
88.0815587623
 20
62.6668200403
 40
0.1027813422
100
AcDbArc
 50
270.6673083559
 51
359.3326916442
  0
SPLINE
  5
290
100
AcDbEntity
  8
0
100
AcDbSpline
 62
7
  6
BYLAYER
 70
0
 71
3
 72
11
 73
7
 74
0
 42
0.0000001
 43
0.0000001
 44
0.0000000001
 40
0.0
 40
0.0
 40
0.0
 40
0.0
 40
0.2499941551
 40
0.4999898041
 40
0.7499912837
 40
1.0
 40
1.0
 40
1.0
 40
1.0
 10
26.0931700089
 20
68.7122078252
 30
0.0
 10
26.0931700089
 20
68.1912508006
 30
0.0
 10
26.0538625144
 20
67.1489197587
 30
0.0
 10
25.880631243
 20
65.5944311318
 30
0.0
 10
25.6052203318
 20
64.0549694314
 30
0.0
 10
25.3630544605
 20
63.0409793188
 30
0.0
 10
25.2300313564
 20
62.537260457
 30
0.0
  0
SPLINE
  5
291
100
AcDbEntity
  8
0
100
AcDbSpline
 62
7
  6
BYLAYER
 70
0
 71
3
 72
11
 73
7
 74
0
 42
0.0000001
 43
0.0000001
 44
0.0000000001
 40
0.0
 40
0.0
 40
0.0
 40
0.0
 40
0.2600148887
 40
0.5122835388
 40
0.7580440966
 40
1.0
 40
1.0
 40
1.0
 40
1.0
 10
25.2300313564
 20
61.4030465369
 30
0.0
 10
25.3610359443
 20
61.1550088658
 30
0.0
 10
25.6002328682
 20
60.6558577022
 30
0.0
 10
25.8777428767
 20
59.8847612859
 30
0.0
 10
26.053079341
 20
59.103555354
 30
0.0
 10
26.0931700089
 20
58.5765987951
 30
0.0
 10
26.0931700089
 20
58.3155728528
 30
0.0
  0
SPLINE
  5
292
100
AcDbEntity
  8
0
100
AcDbSpline
 62
7
  6
BYLAYER
 70
0
 71
3
 72
11
 73
7
 74
0
 42
0.0000001
 43
0.0000001
 44
0.0000000001
 40
0.0
 40
0.0
 40
0.0
 40
0.0
 40
0.24195279
 40
0.4877108078
 40
0.7399764187
 40
1.0
 40
1.0
 40
1.0
 40
1.0
 10
26.0931700089
 20
79.1088427976
 30
0.0
 10
26.0931700089
 20
78.8478201897
 30
0.0
 10
26.0530949182
 20
78.3208652918
 30
0.0
 10
25.8776900575
 20
77.539688773
 30
0.0
 10
25.6003103327
 20
76.7685419338
 30
0.0
 10
25.3610403361
 20
76.2694150999
 30
0.0
 10
25.2300313564
 20
76.0213691135
 30
0.0
  0
SPLINE
  5
293
100
AcDbEntity
  8
0
100
AcDbSpline
 62
7
  6
BYLAYER
 70
0
 71
3
 72
11
 73
7
 74
0
 42
0.0000001
 43
0.0000001
 44
0.0000000001
 40
0.0
 40
0.0
 40
0.0
 40
0.0
 40
0.2500036864
 40
0.5000032576
 40
0.7500026356
 40
1.0
 40
1.0
 40
1.0
 40
1.0
 10
25.2300313564
 20
74.8871551934
 30
0.0
 10
25.363051777
 20
74.3834464931
 30
0.0
 10
25.605135482
 20
73.3694536307
 30
0.0
 10
25.8806894264
 20
71.8300246905
 30
0.0
 10
26.0538450432
 20
70.2755144606
 30
0.0
 10
26.0931700089
 20
69.2331715094
 30
0.0
 10
26.0931700089
 20
68.7122078252
 30
0.0
  0
SPLINE
  5
294
100
AcDbEntity
  8
0
100
AcDbSpline
 62
7
  6
BYLAYER
 70
0
 71
3
 72
11
 73
7
 74
0
 42
0.0000001
 43
0.0000001
 44
0.0000000001
 40
0.0
 40
0.0
 40
0.0
 40
0.0
 40
0.2600148887
 40
0.5122835388
 40
0.7580440966
 40
1.0
 40
1.0
 40
1.0
 40
1.0
 10
23.9563086613
 20
76.0213691135
 30
0.0
 10
23.8253040735
 20
76.2694067846
 30
0.0
 10
23.5861071495
 20
76.7685579483
 30
0.0
 10
23.3085971411
 20
77.5396543645
 30
0.0
 10
23.1332606768
 20
78.3208602964
 30
0.0
 10
23.0931700089
 20
78.8478168553
 30
0.0
 10
23.0931700089
 20
79.1088427976
 30
0.0
  0
SPLINE
  5
295
100
AcDbEntity
  8
0
100
AcDbSpline
 62
7
  6
BYLAYER
 70
0
 71
3
 72
11
 73
7
 74
0
 42
0.0000001
 43
0.0000001
 44
0.0000000001
 40
0.0
 40
0.0
 40
0.0
 40
0.0
 40
0.2499941551
 40
0.4999898041
 40
0.7499912837
 40
1.0
 40
1.0
 40
1.0
 40
1.0
 10
23.0931700089
 20
68.7122078252
 30
0.0
 10
23.0931700089
 20
69.2331648498
 30
0.0
 10
23.1324775034
 20
70.2754958917
 30
0.0
 10
23.3057087748
 20
71.8299845186
 30
0.0
 10
23.5811196859
 20
73.369446219
 30
0.0
 10
23.8232855573
 20
74.3834363316
 30
0.0
 10
23.9563086613
 20
74.8871551934
 30
0.0
  0
SPLINE
  5
296
100
AcDbEntity
  8
0
100
AcDbSpline
 62
7
  6
BYLAYER
 70
0
 71
3
 72
11
 73
7
 74
0
 42
0.0000001
 43
0.0000001
 44
0.0000000001
 40
0.0
 40
0.0
 40
0.0
 40
0.0
 40
0.24195279
 40
0.4877108078
 40
0.7399764187
 40
1.0
 40
1.0
 40
1.0
 40
1.0
 10
23.0931700089
 20
79.1088427976
 30
0.0
 10
23.0931700089
 20
79.3698654055
 30
0.0
 10
23.1332450996
 20
79.8968203035
 30
0.0
 10
23.3086499603
 20
80.6779968222
 30
0.0
 10
23.5860296851
 20
81.4491436615
 30
0.0
 10
23.8252996817
 20
81.9482704954
 30
0.0
 10
23.9563086613
 20
82.1963164817
 30
0.0
  0
SPLINE
  5
297
100
AcDbEntity
  8
0
100
AcDbSpline
 62
7
  6
BYLAYER
 70
0
 71
3
 72
11
 73
7
 74
0
 42
0.0000001
 43
0.0000001
 44
0.0000000001
 40
0.0
 40
0.0
 40
0.0
 40
0.0
 40
0.2600148887
 40
0.5122835388
 40
0.7580440966
 40
1.0
 40
1.0
 40
1.0
 40
1.0
 10
25.2300313564
 20
82.1963164817
 30
0.0
 10
25.3610359443
 20
81.9482788107
 30
0.0
 10
25.6002328682
 20
81.449127647
 30
0.0
 10
25.8777428767
 20
80.6780312308
 30
0.0
 10
26.053079341
 20
79.8968252988
 30
0.0
 10
26.0931700089
 20
79.36986874
 30
0.0
 10
26.0931700089
 20
79.1088427976
 30
0.0
  0
SPLINE
  5
298
100
AcDbEntity
  8
0
100
AcDbSpline
 62
7
  6
BYLAYER
 70
0
 71
3
 72
11
 73
7
 74
0
 42
0.0000001
 43
0.0000001
 44
0.0000000001
 40
0.0
 40
0.0
 40
0.0
 40
0.0
 40
0.24195279
 40
0.4877108078
 40
0.7399764187
 40
1.0
 40
1.0
 40
1.0
 40
1.0
 10
23.0931700089
 20
58.3155728528
 30
0.0
 10
23.0931700089
 20
58.5765954607
 30
0.0
 10
23.1332450996
 20
59.1035503586
 30
0.0
 10
23.3086499603
 20
59.8847268774
 30
0.0
 10
23.5860296851
 20
60.6558737166
 30
0.0
 10
23.8252996817
 20
61.1550005505
 30
0.0
 10
23.9563086613
 20
61.4030465369
 30
0.0
  0
SPLINE
  5
299
100
AcDbEntity
  8
0
100
AcDbSpline
 62
7
  6
BYLAYER
 70
0
 71
3
 72
11
 73
7
 74
0
 42
0.0000001
 43
0.0000001
 44
0.0000000001
 40
0.0
 40
0.0
 40
0.0
 40
0.0
 40
0.2500036864
 40
0.5000032576
 40
0.7500026356
 40
1.0
 40
1.0
 40
1.0
 40
1.0
 10
23.9563086613
 20
62.537260457
 30
0.0
 10
23.8232882407
 20
63.0409691573
 30
0.0
 10
23.5812045357
 20
64.0549620197
 30
0.0
 10
23.3056505913
 20
65.5943909599
 30
0.0
 10
23.1324949746
 20
67.1489011899
 30
0.0
 10
23.0931700089
 20
68.191244141
 30
0.0
 10
23.0931700089
 20
68.7122078252
 30
0.0
  0
SPLINE
  5
29A
100
AcDbEntity
  8
0
100
AcDbSpline
 62
7
  6
BYLAYER
 70
0
 71
3
 72
11
 73
7
 74
0
 42
0.0000001
 43
0.0000001
 44
0.0000000001
 40
0.0
 40
0.0
 40
0.0
 40
0.0
 40
0.24195279
 40
0.4877108078
 40
0.7399764187
 40
1.0
 40
1.0
 40
1.0
 40
1.0
 10
26.0931700089
 20
58.3155728528
 30
0.0
 10
26.0931700089
 20
58.0545502449
 30
0.0
 10
26.0530949182
 20
57.5275953469
 30
0.0
 10
25.8776900575
 20
56.7464188282
 30
0.0
 10
25.6003103327
 20
55.9752719889
 30
0.0
 10
25.3610403361
 20
55.476145155
 30
0.0
 10
25.2300313564
 20
55.2280991687
 30
0.0
  0
SPLINE
  5
29B
100
AcDbEntity
  8
0
100
AcDbSpline
 62
7
  6
BYLAYER
 70
0
 71
3
 72
11
 73
7
 74
0
 42
0.0000001
 43
0.0000001
 44
0.0000000001
 40
0.0
 40
0.0
 40
0.0
 40
0.0
 40
0.2600148887
 40
0.5122835388
 40
0.7580440966
 40
1.0
 40
1.0
 40
1.0
 40
1.0
 10
23.9563086613
 20
55.2280991687
 30
0.0
 10
23.8253040735
 20
55.4761368398
 30
0.0
 10
23.5861071495
 20
55.9752880034
 30
0.0
 10
23.3085971411
 20
56.7463844196
 30
0.0
 10
23.1332606768
 20
57.5275903516
 30
0.0
 10
23.0931700089
 20
58.0545469105
 30
0.0
 10
23.0931700089
 20
58.3155728528
 30
0.0
  0
SPLINE
  5
29C
100
AcDbEntity
  8
0
100
AcDbSpline
 62
7
  6
BYLAYER
 70
0
 71
3
 72
11
 73
7
 74
0
 42
0.0000001
 43
0.0000001
 44
0.0000000001
 40
0.0
 40
0.0
 40
0.0
 40
0.0
 40
0.2600148887
 40
0.5122835388
 40
0.7580440966
 40
1.0
 40
1.0
 40
1.0
 40
1.0
 10
43.8563086613
 20
55.2280991687
 30
0.0
 10
43.7253040735
 20
55.4761368398
 30
0.0
 10
43.4861071495
 20
55.9752880034
 30
0.0
 10
43.2085971411
 20
56.7463844196
 30
0.0
 10
43.0332606768
 20
57.5275903516
 30
0.0
 10
42.9931700089
 20
58.0545469105
 30
0.0
 10
42.9931700089
 20
58.3155728528
 30
0.0
  0
SPLINE
  5
29D
100
AcDbEntity
  8
0
100
AcDbSpline
 62
7
  6
BYLAYER
 70
0
 71
3
 72
11
 73
7
 74
0
 42
0.0000001
 43
0.0000001
 44
0.0000000001
 40
0.0
 40
0.0
 40
0.0
 40
0.0
 40
0.24195279
 40
0.4877108078
 40
0.7399764187
 40
1.0
 40
1.0
 40
1.0
 40
1.0
 10
45.9931700089
 20
58.3155728528
 30
0.0
 10
45.9931700089
 20
58.0545502449
 30
0.0
 10
45.9530949182
 20
57.5275953469
 30
0.0
 10
45.7776900575
 20
56.7464188282
 30
0.0
 10
45.5003103327
 20
55.9752719889
 30
0.0
 10
45.2610403361
 20
55.476145155
 30
0.0
 10
45.1300313564
 20
55.2280991687
 30
0.0
  0
SPLINE
  5
29E
100
AcDbEntity
  8
0
100
AcDbSpline
 62
7
  6
BYLAYER
 70
0
 71
3
 72
11
 73
7
 74
0
 42
0.0000001
 43
0.0000001
 44
0.0000000001
 40
0.0
 40
0.0
 40
0.0
 40
0.0
 40
0.24195279
 40
0.4877108078
 40
0.7399764187
 40
1.0
 40
1.0
 40
1.0
 40
1.0
 10
42.9931700089
 20
79.1088427976
 30
0.0
 10
42.9931700089
 20
79.3698654055
 30
0.0
 10
43.0332450996
 20
79.8968203035
 30
0.0
 10
43.2086499603
 20
80.6779968222
 30
0.0
 10
43.4860296851
 20
81.4491436615
 30
0.0
 10
43.7252996817
 20
81.9482704954
 30
0.0
 10
43.8563086613
 20
82.1963164817
 30
0.0
  0
SPLINE
  5
29F
100
AcDbEntity
  8
0
100
AcDbSpline
 62
7
  6
BYLAYER
 70
0
 71
3
 72
11
 73
7
 74
0
 42
0.0000001
 43
0.0000001
 44
0.0000000001
 40
0.0
 40
0.0
 40
0.0
 40
0.0
 40
0.2500036864
 40
0.5000032576
 40
0.7500026356
 40
1.0
 40
1.0
 40
1.0
 40
1.0
 10
43.8563086613
 20
62.537260457
 30
0.0
 10
43.7232882407
 20
63.0409691573
 30
0.0
 10
43.4812045357
 20
64.0549620197
 30
0.0
 10
43.2056505913
 20
65.5943909599
 30
0.0
 10
43.0324949746
 20
67.1489011899
 30
0.0
 10
42.9931700089
 20
68.191244141
 30
0.0
 10
42.9931700089
 20
68.7122078252
 30
0.0
  0
SPLINE
  5
2A0
100
AcDbEntity
  8
0
100
AcDbSpline
 62
7
  6
BYLAYER
 70
0
 71
3
 72
11
 73
7
 74
0
 42
0.0000001
 43
0.0000001
 44
0.0000000001
 40
0.0
 40
0.0
 40
0.0
 40
0.0
 40
0.2600148887
 40
0.5122835388
 40
0.7580440966
 40
1.0
 40
1.0
 40
1.0
 40
1.0
 10
45.1300313564
 20
82.1963164817
 30
0.0
 10
45.2610359443
 20
81.9482788107
 30
0.0
 10
45.5002328682
 20
81.449127647
 30
0.0
 10
45.7777428767
 20
80.6780312308
 30
0.0
 10
45.953079341
 20
79.8968252988
 30
0.0
 10
45.9931700089
 20
79.36986874
 30
0.0
 10
45.9931700089
 20
79.1088427976
 30
0.0
  0
SPLINE
  5
2A1
100
AcDbEntity
  8
0
100
AcDbSpline
 62
7
  6
BYLAYER
 70
0
 71
3
 72
11
 73
7
 74
0
 42
0.0000001
 43
0.0000001
 44
0.0000000001
 40
0.0
 40
0.0
 40
0.0
 40
0.0
 40
0.24195279
 40
0.4877108078
 40
0.7399764187
 40
1.0
 40
1.0
 40
1.0
 40
1.0
 10
42.9931700089
 20
58.3155728528
 30
0.0
 10
42.9931700089
 20
58.5765954607
 30
0.0
 10
43.0332450996
 20
59.1035503586
 30
0.0
 10
43.2086499603
 20
59.8847268774
 30
0.0
 10
43.4860296851
 20
60.6558737166
 30
0.0
 10
43.7252996817
 20
61.1550005505
 30
0.0
 10
43.8563086613
 20
61.4030465369
 30
0.0
  0
SPLINE
  5
2A2
100
AcDbEntity
  8
0
100
AcDbSpline
 62
7
  6
BYLAYER
 70
0
 71
3
 72
11
 73
7
 74
0
 42
0.0000001
 43
0.0000001
 44
0.0000000001
 40
0.0
 40
0.0
 40
0.0
 40
0.0
 40
0.2499941551
 40
0.4999898041
 40
0.7499912837
 40
1.0
 40
1.0
 40
1.0
 40
1.0
 10
42.9931700089
 20
68.7122078252
 30
0.0
 10
42.9931700089
 20
69.2331648498
 30
0.0
 10
43.0324775034
 20
70.2754958917
 30
0.0
 10
43.2057087748
 20
71.8299845186
 30
0.0
 10
43.4811196859
 20
73.369446219
 30
0.0
 10
43.7232855573
 20
74.3834363316
 30
0.0
 10
43.8563086613
 20
74.8871551934
 30
0.0
  0
SPLINE
  5
2A3
100
AcDbEntity
  8
0
100
AcDbSpline
 62
7
  6
BYLAYER
 70
0
 71
3
 72
11
 73
7
 74
0
 42
0.0000001
 43
0.0000001
 44
0.0000000001
 40
0.0
 40
0.0
 40
0.0
 40
0.0
 40
0.2600148887
 40
0.5122835388
 40
0.7580440966
 40
1.0
 40
1.0
 40
1.0
 40
1.0
 10
43.8563086613
 20
76.0213691135
 30
0.0
 10
43.7253040735
 20
76.2694067846
 30
0.0
 10
43.4861071495
 20
76.7685579483
 30
0.0
 10
43.2085971411
 20
77.5396543645
 30
0.0
 10
43.0332606768
 20
78.3208602964
 30
0.0
 10
42.9931700089
 20
78.8478168553
 30
0.0
 10
42.9931700089
 20
79.1088427976
 30
0.0
  0
SPLINE
  5
2A4
100
AcDbEntity
  8
0
100
AcDbSpline
 62
7
  6
BYLAYER
 70
0
 71
3
 72
11
 73
7
 74
0
 42
0.0000001
 43
0.0000001
 44
0.0000000001
 40
0.0
 40
0.0
 40
0.0
 40
0.0
 40
0.24195279
 40
0.4877108078
 40
0.7399764187
 40
1.0
 40
1.0
 40
1.0
 40
1.0
 10
45.9931700089
 20
79.1088427976
 30
0.0
 10
45.9931700089
 20
78.8478201897
 30
0.0
 10
45.9530949182
 20
78.3208652918
 30
0.0
 10
45.7776900575
 20
77.539688773
 30
0.0
 10
45.5003103327
 20
76.7685419338
 30
0.0
 10
45.2610403361
 20
76.2694150999
 30
0.0
 10
45.1300313564
 20
76.0213691135
 30
0.0
  0
SPLINE
  5
2A5
100
AcDbEntity
  8
0
100
AcDbSpline
 62
7
  6
BYLAYER
 70
0
 71
3
 72
11
 73
7
 74
0
 42
0.0000001
 43
0.0000001
 44
0.0000000001
 40
0.0
 40
0.0
 40
0.0
 40
0.0
 40
0.2500036864
 40
0.5000032576
 40
0.7500026356
 40
1.0
 40
1.0
 40
1.0
 40
1.0
 10
45.1300313564
 20
74.8871551934
 30
0.0
 10
45.263051777
 20
74.3834464931
 30
0.0
 10
45.505135482
 20
73.3694536307
 30
0.0
 10
45.7806894264
 20
71.8300246905
 30
0.0
 10
45.9538450432
 20
70.2755144606
 30
0.0
 10
45.9931700089
 20
69.2331715094
 30
0.0
 10
45.9931700089
 20
68.7122078252
 30
0.0
  0
SPLINE
  5
2A6
100
AcDbEntity
  8
0
100
AcDbSpline
 62
7
  6
BYLAYER
 70
0
 71
3
 72
11
 73
7
 74
0
 42
0.0000001
 43
0.0000001
 44
0.0000000001
 40
0.0
 40
0.0
 40
0.0
 40
0.0
 40
0.2499941551
 40
0.4999898041
 40
0.7499912837
 40
1.0
 40
1.0
 40
1.0
 40
1.0
 10
45.9931700089
 20
68.7122078252
 30
0.0
 10
45.9931700089
 20
68.1912508006
 30
0.0
 10
45.9538625144
 20
67.1489197587
 30
0.0
 10
45.780631243
 20
65.5944311318
 30
0.0
 10
45.5052203318
 20
64.0549694314
 30
0.0
 10
45.2630544605
 20
63.0409793188
 30
0.0
 10
45.1300313564
 20
62.537260457
 30
0.0
  0
SPLINE
  5
2A7
100
AcDbEntity
  8
0
100
AcDbSpline
 62
7
  6
BYLAYER
 70
0
 71
3
 72
11
 73
7
 74
0
 42
0.0000001
 43
0.0000001
 44
0.0000000001
 40
0.0
 40
0.0
 40
0.0
 40
0.0
 40
0.2600148887
 40
0.5122835388
 40
0.7580440966
 40
1.0
 40
1.0
 40
1.0
 40
1.0
 10
45.1300313564
 20
61.4030465369
 30
0.0
 10
45.2610359443
 20
61.1550088658
 30
0.0
 10
45.5002328682
 20
60.6558577022
 30
0.0
 10
45.7777428767
 20
59.8847612859
 30
0.0
 10
45.953079341
 20
59.103555354
 30
0.0
 10
45.9931700089
 20
58.5765987951
 30
0.0
 10
45.9931700089
 20
58.3155728528
 30
0.0
  0
ENDSEC
  0
SECTION
  2
OBJECTS
  0
DICTIONARY
  5
C
100
AcDbDictionary
280
0
281
1
  3
ACAD_GROUP
350
D
  3
ACAD_MLINESTYLE
350
17
  3
ACAD_LAYOUT
350
1A
  3
ACAD_PLOTSETTINGS
350
19
  3
ACAD_PLOTSTYLENAME
350
E
  0
DICTIONARY
  5
D
102
{ACAD_REACTORS
330
C
102
}
100
AcDbDictionary
280
0
281
1
  0
ACDBDICTIONARYWDFLT
  5
E
102
{ACAD_REACTORS
330
C
102
}
100
AcDbDictionary
281
1
  3
Normal
350
F
100
AcDbDictionaryWithDefault
340
F
  0
DICTIONARY
  5
17
102
{ACAD_REACTORS
330
C
102
}
100
AcDbDictionary
280
0
281
1
  3
Standard
350
18
  0
DICTIONARY
  5
19
102
{ACAD_REACTORS
330
C
102
}
100
AcDbDictionary
281
1
  0
DICTIONARY
  5
1A
102
{ACAD_REACTORS
330
C
102
}
100
AcDbDictionary
281
1
  3
Model
350
2A8
  3
Layout1
350
2A9
  0
ACDBPLACEHOLDER
  5
F
102
{ACAD_REACTORS
330
E
102
}
  0
MLINESTYLE
  5
18
102
{ACAD_REACTORS
330
17
102
}
100
AcDbMlineStyle
  2
STANDARD
 70
0
  3

 62
256
 51
90.0
 52
90.0
 71
2
 49
0.5
 62
256
  6
BYLAYER
 49
-0.5
 62
256
  6
BYLAYER
  0
LAYOUT
  5
2A8
102
{ACAD_REACTORS
330
1A
102
}
100
AcDbPlotSettings
  1

  2
none_device
  4

  6

 40
0.0
 41
0.0
 42
0.0
 43
0.0
 44
210.0
 45
297.0
 46
0.0
 47
0.0
 48
0.0
 49
0.0
140
0.0
141
0.0
142
1.0
143
1.0
 70
1024
 72
1
 73
0
 74
0
  7

 75
0
147
1.0
148
0.0
149
0.0
100
AcDbLayout
  1
Model
 70
0
 71
0
 10
0.0
 20
0.0
 11
210.0
 21
297.0
 12
0.0
 22
0.0
 32
0.0
 14
0.0
 24
0.0
 34
0.0
 15
0.0
 25
0.0
 35
0.0
146
0.0
 13
0.0
 23
0.0
 33
0.0
 16
1.0
 26
0.0
 36
0.0
 17
0.0
 27
1.0
 37
0.0
 76
0
330
210
345
0
346
0
  0
LAYOUT
  5
2A9
102
{ACAD_REACTORS
330
1A
102
}
100
AcDbPlotSettings
  1

  2
none_device
  4

  6

 40
0.0
 41
0.0
 42
0.0
 43
0.0
 44
210.0
 45
297.0
 46
0.0
 47
0.0
 48
0.0
 49
0.0
140
0.0
141
0.0
142
1.0
143
1.0
 70
0
 72
1
 73
0
 74
0
  7

 75
0
147
1.0
148
0.0
149
0.0
100
AcDbLayout
  1
Layout1
 70
0
 71
1
 10
0.0
 20
0.0
 11
210.0
 21
297.0
 12
0.0
 22
0.0
 32
0.0
 14
0.0
 24
0.0
 34
0.0
 15
0.0
 25
0.0
 35
0.0
146
0.0
 13
0.0
 23
0.0
 33
0.0
 16
1.0
 26
0.0
 36
0.0
 17
0.0
 27
1.0
 37
0.0
 76
0
330
211
345
0
346
0
  0
ENDSEC
  0
EOF
