999
DXF file: C:\Users\sesa63760\Dev\_Creo\CAD\MCADID0002082_3D-CAD\drw0001_4.dxf
999
Pro/ENGINEER 2019471 by Parametric Technology Corporation
  0
SECTION
  2
HEADER
  9
$ACADVER
  1
AC1024
  9
$DWGCODEPAGE
  3
ANSI_1252
  9
$EXTMAX
 10
217.3111860081
 20
307.3401059257
 30
0.0
  9
$EXTMIN
 10
0.0
 20
0.0
 30
0.0
  9
$LIMMIN
 10
0.0
 20
0.0
  9
$LIMMAX
 10
217.3111860081
 20
307.3401059257
  9
$VIEWCTR
 10
108.655593004
 20
153.6700529628
  9
$VIEWSIZE
 40
307.3401059257
  9
$CLAYER
  8
0
  9
$LTSCALE
 40
20.0340217196
  9
$CELTYPE
  6
BYLAYER
  9
$DIMSCALE
 40
1.0
  9
$DIMASZ
 40
2.5870379287
  9
$DIMEXO
 40
1.0
  9
$DIMDLI
 40
13.8416877335
  9
$DIMEXE
 40
1.0
  9
$DIMCEN
 40
3.2782944632
  9
$DIMLFAC
 40
1.0
  9
$DIMBLK
  1
_FILLED
  9
$DIMALT
 70
0
  9
$DIMALTF
 40
0.0393700787
  9
$DIMTXT
 40
3.6218531001
  9
$DIMTOL
 70
1
  9
$DIMLIM
 70
0
  9
$DIMTFAC
 40
1.0
  9
$DIMTP
 40
0.01
  9
$DIMTM
 40
0.01
  9
$DIMGAP
 40
0.625
  9
$DIMDSEP
 70
46
  9
$AUNITS
 70
0
  9
$PDMODE
 70
3
  9
$PDSIZE
 40
0.3125
  9
$HANDSEED
  5
418
  9
$TILEMODE
 70
1
  9
$MEASUREMENT
 70
1
  9
$INSUNITS
 70
4
  0
ENDSEC
  0
SECTION
  2
CLASSES
  0
CLASS
  1
ACDBDICTIONARYWDFLT
  2
AcDbDictionaryWithDefault
  3
AutoCAD 2000
 90
0
 91
1
280
0
281
0
  0
CLASS
  1
ACDBPLACEHOLDER
  2
AcDbPlaceHolder
  3
AutoCAD 2000
 90
0
 91
1
280
0
281
0
  0
CLASS
  1
LAYOUT
  2
AcDbLayout
  3
AutoCAD 2000
 90
0
 91
0
280
0
281
0
  0
ENDSEC
  0
SECTION
  2
TABLES
  0
TABLE
  2
VPORT
  5
8
100
AcDbSymbolTable
 70
2
  0
VPORT
  5
1F4
100
AcDbSymbolTableRecord
100
AcDbViewportTableRecord
  2
*ACTIVE
 70
0
 10
0.0
 20
0.0
 11
1.0
 21
1.0
 12
108.655593004
 22
153.6700529628
 13
0.0
 23
0.0
 14
1.0
 24
1.0
 15
0.0
 25
0.0
 16
0.0
 26
0.0
 36
1.0
 17
0.0
 27
0.0
 37
0.0
 40
307.3401059257
 41
0.7070707071
 42
50.0
 43
0.0
 44
0.0
 50
0.0
 51
0.0
 71
0
 72
100
 73
1
 74
1
 75
0
 76
0
 77
0
 78
0
  0
ENDTAB
  0
TABLE
  2
LTYPE
  5
5
100
AcDbSymbolTable
 70
6
  0
LTYPE
  5
14
100
AcDbSymbolTableRecord
100
AcDbLinetypeTableRecord
  2
BYBLOCK
 70
0
  3

 72
65
 73
0
 40
0.0
  0
LTYPE
  5
15
100
AcDbSymbolTableRecord
100
AcDbLinetypeTableRecord
  2
BYLAYER
 70
0
  3

 72
65
 73
0
 40
0.0
  0
LTYPE
  5
16
100
AcDbSymbolTableRecord
100
AcDbLinetypeTableRecord
  2
CONTINUOUS
 70
64
  3
Solid line
 72
65
 73
0
 40
0.0
  0
LTYPE
  5
1F5
100
AcDbSymbolTableRecord
100
AcDbLinetypeTableRecord
  2
CENTER
 70
64
  3
____ _ ____ _ ____ _ ____ _ ____ _ ____ _ ____
 72
65
 73
4
 40
0.6
 49
0.375
 74
0
 49
-0.075
 74
0
 49
0.075
 74
0
 49
-0.075
 74
0
  0
LTYPE
  5
1F6
100
AcDbSymbolTableRecord
100
AcDbLinetypeTableRecord
  2
HIDDEN
 70
64
  3
- - - - - - - - - - - - - - - - - - - -
 72
65
 73
2
 40
0.2
 49
0.1
 74
0
 49
-0.1
 74
0
  0
LTYPE
  5
1F7
100
AcDbSymbolTableRecord
100
AcDbLinetypeTableRecord
  2
PHANTOM
 70
64
  3
_____ _ _ _____ _ _ _____ _ _ _____
 72
65
 73
6
 40
0.8
 49
0.45
 74
0
 49
-0.05
 74
0
 49
0.1
 74
0
 49
-0.05
 74
0
 49
0.1
 74
0
 49
-0.05
 74
0
  0
LTYPE
  5
1F8
100
AcDbSymbolTableRecord
100
AcDbLinetypeTableRecord
  2
DOT
 70
64
  3
. . . . . . . . . . . . . . . . . . . .
 72
65
 73
2
 40
0.2
 49
0.1
 74
0
 49
-0.1
 74
0
  0
LTYPE
  5
1F9
100
AcDbSymbolTableRecord
100
AcDbLinetypeTableRecord
  2
DASHED
 70
64
  3
- - - - - - - - - - - - - - - - - - - -
 72
65
 73
2
 40
0.2
 49
0.1
 74
0
 49
-0.1
 74
0
  0
ENDTAB
  0
TABLE
  2
LAYER
  5
2
100
AcDbSymbolTable
 70
36
  0
LAYER
  5
10
100
AcDbSymbolTableRecord
100
AcDbLayerTableRecord
  2
0
 70
0
 62
7
  6
CONTINUOUS
370
-3
390
F
  0
LAYER
  5
1FA
100
AcDbSymbolTableRecord
100
AcDbLayerTableRecord
  2
DEFAULT_1
 70
0
 62
7
  6
CENTER
370
-3
390
F
  0
LAYER
  5
1FB
100
AcDbSymbolTableRecord
100
AcDbLayerTableRecord
  2
DEFAULT_2
 70
0
 62
8
  6
HIDDEN
370
-3
390
F
  0
LAYER
  5
1FC
100
AcDbSymbolTableRecord
100
AcDbLayerTableRecord
  2
DEFAULT_3
 70
0
 62
7
  6
PHANTOM
370
-3
390
F
  0
LAYER
  5
1FD
100
AcDbSymbolTableRecord
100
AcDbLayerTableRecord
  2
00_COMPONENTS
 70
0
 62
7
  6
CONTINUOUS
370
-3
390
F
  0
LAYER
  5
1FE
100
AcDbSymbolTableRecord
100
AcDbLayerTableRecord
  2
01_1_DEFAULT_DATUMS
 70
0
 62
7
  6
CONTINUOUS
370
-3
390
F
  0
LAYER
  5
1FF
100
AcDbSymbolTableRecord
100
AcDbLayerTableRecord
  2
01_PLANES
 70
0
 62
7
  6
CONTINUOUS
370
-3
390
F
  0
LAYER
  5
200
100
AcDbSymbolTableRecord
100
AcDbLayerTableRecord
  2
02_COORD_SYS
 70
0
 62
7
  6
CONTINUOUS
370
-3
390
F
  0
LAYER
  5
201
100
AcDbSymbolTableRecord
100
AcDbLayerTableRecord
  2
03_AXES
 70
0
 62
7
  6
CONTINUOUS
370
-3
390
F
  0
LAYER
  5
202
100
AcDbSymbolTableRecord
100
AcDbLayerTableRecord
  2
04_POINTS
 70
0
 62
7
  6
CONTINUOUS
370
-3
390
F
  0
LAYER
  5
203
100
AcDbSymbolTableRecord
100
AcDbLayerTableRecord
  2
05_CURVES
 70
0
 62
7
  6
CONTINUOUS
370
-3
390
F
  0
LAYER
  5
204
100
AcDbSymbolTableRecord
100
AcDbLayerTableRecord
  2
06_SURFS
 70
0
 62
7
  6
CONTINUOUS
370
-3
390
F
  0
LAYER
  5
205
100
AcDbSymbolTableRecord
100
AcDbLayerTableRecord
  2
07_COSMETICS
 70
0
 62
7
  6
CONTINUOUS
370
-3
390
F
  0
LAYER
  5
206
100
AcDbSymbolTableRecord
100
AcDbLayerTableRecord
  2
10_NOTES
 70
0
 62
7
  6
CONTINUOUS
370
-3
390
F
  0
LAYER
  5
207
100
AcDbSymbolTableRecord
100
AcDbLayerTableRecord
  2
11_NOTES_PUB
 70
0
 62
7
  6
CONTINUOUS
370
-3
390
F
  0
LAYER
  5
208
100
AcDbSymbolTableRecord
100
AcDbLayerTableRecord
  2
13_REF_GTOL
 70
0
 62
7
  6
CONTINUOUS
370
-3
390
F
  0
LAYER
  5
209
100
AcDbSymbolTableRecord
100
AcDbLayerTableRecord
  2
16_MISC
 70
0
 62
7
  6
CONTINUOUS
370
-3
390
F
  0
LAYER
  5
20A
100
AcDbSymbolTableRecord
100
AcDbLayerTableRecord
  2
17_NO_PRINT
 70
0
 62
7
  6
CONTINUOUS
370
-3
390
F
  0
LAYER
  5
20B
100
AcDbSymbolTableRecord
100
AcDbLayerTableRecord
  2
18_DATUM_CAMS_JOINTS
 70
0
 62
7
  6
CONTINUOUS
370
-3
390
F
  0
LAYER
  5
20C
100
AcDbSymbolTableRecord
100
AcDbLayerTableRecord
  2
19_DATUM_FUNCTIONAL
 70
0
 62
7
  6
CONTINUOUS
370
-3
390
F
  0
LAYER
  5
20D
100
AcDbSymbolTableRecord
100
AcDbLayerTableRecord
  2
20_DATUM_KINEMATIC_SCHEME
 70
0
 62
7
  6
CONTINUOUS
370
-3
390
F
  0
ENDTAB
  0
TABLE
  2
STYLE
  5
3
100
AcDbSymbolTable
 70
1
  0
STYLE
  5
11
100
AcDbSymbolTableRecord
100
AcDbTextStyleTableRecord
  2
STANDARD
 70
0
 40
0.0
 41
0.8
 50
0.0
 71
0
 42
0.2
  3
txt
  4

  0
STYLE
  5
20E
100
AcDbSymbolTableRecord
100
AcDbTextStyleTableRecord
  2
TEXTSTYLE_1
 70
0
 40
0.0
 41
0.8
 50
0.0
 71
0
 42
0.2
  3
gdt
  4

  0
ENDTAB
  0
TABLE
  2
VIEW
  5
6
100
AcDbSymbolTable
 70
0
  0
ENDTAB
  0
TABLE
  2
UCS
  5
7
100
AcDbSymbolTable
 70
0
  0
ENDTAB
  0
TABLE
  2
APPID
  5
9
100
AcDbSymbolTable
 70
1
  0
APPID
  5
20F
100
AcDbSymbolTableRecord
100
AcDbRegAppTableRecord
  2
ACAD
 70
0
  0
ENDTAB
  0
TABLE
  2
BLOCK_RECORD
  5
1
100
AcDbSymbolTable
 70
0
  0
BLOCK_RECORD
  5
210
100
AcDbSymbolTableRecord
100
AcDbBlockTableRecord
  2
*Model_Space
  0
BLOCK_RECORD
  5
211
100
AcDbSymbolTableRecord
100
AcDbBlockTableRecord
  2
*Paper_Space
  0
BLOCK_RECORD
  5
212
100
AcDbSymbolTableRecord
100
AcDbBlockTableRecord
  2
_FILLED
  0
ENDTAB
  0
TABLE
  2
DIMSTYLE
  5
A
100
AcDbSymbolTable
 70
1
100
AcDbDimStyleTable
 71
0
  0
DIMSTYLE
105
213
100
AcDbSymbolTableRecord
100
AcDbDimStyleTableRecord
  2
STANDARD
 70
0
  3

  4

 40
1.0
 41
2.5870379287
 42
1.0
 43
0.38
 44
1.0
 45
0.0
 46
0.0
 47
0.01
 48
0.01
140
3.6218531001
141
0.09
142
0.0
143
25.4
144
1.0
145
0.0
146
1.0
147
0.625
 71
1
 72
0
 73
0
 74
0
 75
0
 76
0
 77
1
 78
8
 79
2
170
0
171
1
172
0
173
0
174
0
175
0
176
0
177
0
178
0
270
2
179
2
271
2
272
2
273
2
274
2
275
0
280
0
281
0
282
0
283
1
284
8
285
0
286
0
287
3
288
0
340
11
278
46
341
212
342
212
343
212
344
212
  0
ENDTAB
  0
ENDSEC
  0
SECTION
  2
BLOCKS
  0
BLOCK
  5
20
100
AcDbEntity
  8
0
100
AcDbBlockBegin
  2
*Model_Space
 70
0
 10
0.0
 20
0.0
 30
0.0
  3
*Model_Space
  1

  0
ENDBLK
  5
21
100
AcDbEntity
  8
0
100
AcDbBlockEnd
  0
BLOCK
  5
1C
100
AcDbEntity
  8
0
100
AcDbBlockBegin
  2
*Paper_Space
 70
0
 10
0.0
 20
0.0
 30
0.0
  3
*Paper_Space
  1

  0
ENDBLK
  5
1D
100
AcDbEntity
  8
0
100
AcDbBlockEnd
  0
BLOCK
  5
214
100
AcDbEntity
  8
0
100
AcDbBlockBegin
  2
_FILLED
 70
64
 10
0.0
 20
0.0
  3
_FILLED
  1

  0
SOLID
  5
215
100
AcDbEntity
  8
0
  6
BYBLOCK
 62
0
100
AcDbTrace
 10
0.0
 20
0.0
 11
-1.0
 21
0.25
 12
-1.0
 22
-0.25
 13
-1.0
 23
-0.25
  0
ENDBLK
  5
216
100
AcDbEntity
  8
0
  6
BYBLOCK
 62
0
100
AcDbBlockEnd
  0
ENDSEC
  0
SECTION
  2
ENTITIES
  0
LINE
  5
217
100
AcDbEntity
  8
0
100
AcDbLine
 62
7
  6
CONTINUOUS
 10
120.8127820467
 20
23.6932264586
 11
114.4967871371
 21
22.0579128781
  0
LINE
  5
218
100
AcDbEntity
  8
0
100
AcDbLine
 62
7
  6
CONTINUOUS
 10
114.496738748
 20
22.0579003493
 11
114.4924937596
 21
22.0568935827
  0
LINE
  5
219
100
AcDbEntity
  8
0
100
AcDbLine
 62
7
  6
CONTINUOUS
 10
86.1894868205
 20
22.9655757985
 11
86.1873505493
 21
22.9654591318
  0
LINE
  5
21A
100
AcDbEntity
  8
0
100
AcDbLine
 62
7
  6
CONTINUOUS
 10
86.1894868205
 20
22.9655757985
 11
86.2187110885
 21
22.9655757985
  0
LINE
  5
21B
100
AcDbEntity
  8
0
100
AcDbLine
 62
7
  6
CONTINUOUS
 10
111.1489544361
 20
22.007117637
 11
113.2197953917
 21
22.0066134536
  0
LINE
  5
21C
100
AcDbEntity
  8
0
100
AcDbLine
 62
7
  6
CONTINUOUS
 10
113.2198127853
 20
22.0549245022
 11
114.4794751567
 21
22.0544707372
  0
LINE
  5
21D
100
AcDbEntity
  8
0
100
AcDbLine
 62
7
  6
CONTINUOUS
 10
114.5970031319
 20
27.0544704129
 11
113.3373407605
 21
27.054924178
  0
LINE
  5
21E
100
AcDbEntity
  8
0
100
AcDbLine
 62
7
  6
CONTINUOUS
 10
111.9376991535
 20
27.0088885325
 11
113.3373233668
 21
27.0066131294
  0
LINE
  5
21F
100
AcDbEntity
  8
0
100
AcDbLine
 62
7
  6
CONTINUOUS
 10
81.4093057467
 20
27.9637914415
 11
82.78341809
 21
27.9328668388
  0
LINE
  5
220
100
AcDbEntity
  8
0
100
AcDbLine
 62
7
  6
CONTINUOUS
 10
81.4093478852
 20
27.9637846635
 11
88.868337446
 21
27.7848102286
  0
LINE
  5
221
100
AcDbEntity
  8
0
100
AcDbLine
 62
7
  6
CONTINUOUS
 10
82.78341809
 20
27.9328668388
 11
88.8683123957
 21
27.7848143277
  0
LWPOLYLINE
  5
222
100
AcDbEntity
  8
0
100
AcDbPolyline
 62
7
  6
CONTINUOUS
 90
3
 70
0
 10
89.3114920762
 20
27.7682377521
 10
100.2530599837
 20
27.4034235512
 10
111.9376996425
 20
27.0088885326
  0
LINE
  5
223
100
AcDbEntity
  8
0
100
AcDbLine
 62
7
  6
CONTINUOUS
 10
89.3114964426
 20
27.7683623684
 11
111.9377601074
 21
27.0107617214
  0
LINE
  5
224
100
AcDbEntity
  8
0
100
AcDbLine
 62
7
  6
CONTINUOUS
 10
88.4572109232
 20
22.8859348547
 11
86.2187110885
 21
22.9655757985
  0
LINE
  5
225
100
AcDbEntity
  8
0
100
AcDbLine
 62
7
  6
CONTINUOUS
 10
91.5487370722
 20
22.7709154236
 11
88.4572109232
 21
22.8859348547
  0
LINE
  5
226
100
AcDbEntity
  8
0
100
AcDbLine
 62
7
  6
CONTINUOUS
 10
88.8683375264
 20
27.7848143183
 11
89.3114932639
 21
27.7682377517
  0
LINE
  5
227
100
AcDbEntity
  8
0
100
AcDbLine
 62
7
  6
CONTINUOUS
 10
111.8201642035
 20
22.007117637
 11
91.5487370722
 21
22.7709154236
  0
LINE
  5
228
100
AcDbEntity
  8
0
100
AcDbLine
 62
7
  6
CONTINUOUS
 10
91.5481216928
 20
22.7548412706
 11
111.1489556126
 21
22.007117637
  0
LINE
  5
229
100
AcDbEntity
  8
0
100
AcDbLine
 62
7
  6
CONTINUOUS
 10
88.4567584475
 20
22.8742515842
 11
91.1052080368
 21
22.7718011485
  0
LINE
  5
22A
100
AcDbEntity
  8
0
100
AcDbLine
 62
7
  6
CONTINUOUS
 10
86.1873505701
 20
22.9654591213
 11
88.4567584475
 21
22.8742515842
  0
LINE
  5
22B
100
AcDbEntity
  8
0
100
AcDbLine
 62
7
  6
CONTINUOUS
 10
114.6063038277
 20
26.8987221162
 11
120.9189404554
 21
28.533166183
  0
LINE
  5
22C
100
AcDbEntity
  8
0
100
AcDbLine
 62
7
  6
CONTINUOUS
 10
81.3762792705
 20
27.9636761388
 11
81.3801422024
 21
27.9637887697
  0
LINE
  5
22D
100
AcDbEntity
  8
0
100
AcDbLine
 62
7
  6
CONTINUOUS
 10
81.4093478863
 20
27.9637887544
 11
81.38018448
 21
27.9637887544
  0
LINE
  5
22E
100
AcDbEntity
  8
0
100
AcDbLine
 62
7
  6
CONTINUOUS
 10
81.8677816953
 20
42.1060603201
 11
82.1046629805
 21
42.1060529739
  0
LINE
  5
22F
100
AcDbEntity
  8
0
100
AcDbLine
 62
7
  6
CONTINUOUS
 10
113.9641119677
 20
244.2198776311
 11
116.0300568464
 21
245.444570937
  0
LINE
  5
230
100
AcDbEntity
  8
0
100
AcDbLine
 62
7
  6
CONTINUOUS
 10
115.4939163478
 20
241.6392384547
 11
117.5598612264
 21
242.8639317605
  0
LWPOLYLINE
  5
231
100
AcDbEntity
  8
0
100
AcDbPolyline
 62
7
  6
CONTINUOUS
 90
13
 70
0
 10
82.168300734
 20
212.5653068265
 10
81.150561017
 20
211.5380492244
 10
80.2308379274
 20
210.6013476236
 10
79.5252360448
 20
209.8719032393
 10
78.9701860909
 20
209.2771211609
 10
78.3672275403
 20
208.5618176436
 10
77.7333918552
 20
207.6735384975
 10
77.131305024
 20
206.6339974858
 10
76.6058550388
 20
205.4624893337
 10
76.1975539577
 20
204.200553976
 10
75.9257778746
 20
202.8661042822
 10
75.8057036068
 20
201.4680137722
 10
75.8012695964
 20
201.1468757324
  0
LINE
  5
232
100
AcDbEntity
  8
0
100
AcDbLine
 62
7
  6
CONTINUOUS
 10
86.11982948
 20
216.5396952936
 11
82.1682916688
 21
212.5652982016
  0
LINE
  5
233
100
AcDbEntity
  8
0
100
AcDbLine
 62
7
  6
CONTINUOUS
 10
86.1490422547
 20
216.5667020092
 11
82.1979993899
 21
212.5928027268
  0
LINE
  5
234
100
AcDbEntity
  8
0
100
AcDbLine
 62
7
  6
CONTINUOUS
 10
88.3614130346
 20
218.7916447288
 11
86.1197878873
 21
216.5396533262
  0
LINE
  5
235
100
AcDbEntity
  8
0
100
AcDbLine
 62
7
  6
CONTINUOUS
 10
91.5806127086
 20
222.0227507317
 11
88.3614130346
 21
218.7916447288
  0
LINE
  5
236
100
AcDbEntity
  8
0
100
AcDbLine
 62
7
  6
CONTINUOUS
 10
82.6828388576
 20
212.5928027267
 11
86.6831904127
 21
216.5667020093
  0
LINE
  5
237
100
AcDbEntity
  8
0
100
AcDbLine
 62
7
  6
CONTINUOUS
 10
82.1980574782
 20
212.5928611512
 11
82.1682916688
 21
212.5652982016
  0
LINE
  5
238
100
AcDbEntity
  8
0
100
AcDbLine
 62
7
  6
CONTINUOUS
 10
86.1489995861
 20
216.5666590937
 11
86.11982948
 21
216.5396952936
  0
LINE
  5
239
100
AcDbEntity
  8
0
100
AcDbLine
 62
7
  6
CONTINUOUS
 10
92.3107379089
 20
222.6923453209
 11
91.5726416779
 21
222.0121667321
  0
LWPOLYLINE
  5
23A
100
AcDbEntity
  8
0
100
AcDbPolyline
 62
7
  6
CONTINUOUS
 90
3
 70
0
 10
92.3174612505
 20
222.6982302814
 10
91.8999988883
 20
222.3305565658
 10
91.5810673287
 20
222.0232033414
  0
LINE
  5
23B
100
AcDbEntity
  8
0
100
AcDbLine
 62
7
  6
CONTINUOUS
 10
92.3170304928
 20
222.697618949
 11
92.3107379089
 21
222.6923453209
  0
LINE
  5
23C
100
AcDbEntity
  8
0
100
AcDbLine
 62
7
  6
CONTINUOUS
 10
92.3709751655
 20
222.627612926
 11
92.3644772255
 21
222.6226057962
  0
LINE
  5
23D
100
AcDbEntity
  8
0
100
AcDbLine
 62
7
  6
CONTINUOUS
 10
92.3886642357
 20
222.6453422244
 11
92.3843609458
 21
222.642535485
  0
LINE
  5
23E
100
AcDbEntity
  8
0
100
AcDbLine
 62
7
  6
CONTINUOUS
 10
81.8850633513
 20
90.1060572075
 11
82.1219446365
 21
90.1060498612
  0
LINE
  5
23F
100
AcDbEntity
  8
0
100
AcDbLine
 62
7
  6
CONTINUOUS
 10
81.38659126
 20
97.1733757715
 11
81.4022799583
 21
97.1656504874
  0
LINE
  5
240
100
AcDbEntity
  8
0
100
AcDbLine
 62
7
  6
CONTINUOUS
 10
81.4195034902
 20
96.6719310386
 11
81.4340368376
 21
96.6641168628
  0
LINE
  5
241
100
AcDbEntity
  8
0
100
AcDbLine
 62
7
  6
CONTINUOUS
 10
81.3821727715
 20
97.1763564331
 11
81.3865913145
 21
97.1733757481
  0
LINE
  5
242
100
AcDbEntity
  8
0
100
AcDbLine
 62
7
  6
CONTINUOUS
 10
92.5271015711
 20
222.5402054208
 11
92.5316648571
 21
222.546695035
  0
LINE
  5
243
100
AcDbEntity
  8
0
100
AcDbLine
 62
7
  6
CONTINUOUS
 10
91.5724877615
 20
222.0123208458
 11
91.5805875859
 21
222.0227255065
  0
LINE
  5
244
100
AcDbEntity
  8
0
100
AcDbLine
 62
7
  6
CONTINUOUS
 10
111.9628649212
 20
96.90711278
 11
112.4240136732
 21
96.9099274498
  0
LINE
  5
245
100
AcDbEntity
  8
0
100
AcDbLine
 62
7
  6
CONTINUOUS
 10
113.3624891702
 20
96.9049196484
 11
114.6221515417
 21
96.9044658834
  0
LINE
  5
246
100
AcDbEntity
  8
0
100
AcDbLine
 62
7
  6
CONTINUOUS
 10
89.9150855677
 20
96.9149761984
 11
111.9628654162
 21
96.90711278
  0
LINE
  5
247
100
AcDbEntity
  8
0
100
AcDbLine
 62
7
  6
CONTINUOUS
 10
111.9628662849
 20
96.9100933308
 11
113.362491142
 21
96.9095891474
  0
LINE
  5
248
100
AcDbEntity
  8
0
100
AcDbLine
 62
7
  6
CONTINUOUS
 10
112.8905744095
 20
96.9097593817
 11
113.3624897783
 21
96.9066085966
  0
LWPOLYLINE
  5
249
100
AcDbEntity
  8
0
100
AcDbPolyline
 62
7
  6
CONTINUOUS
 90
4
 70
0
 10
81.3763109502
 20
27.9636920227
 10
81.924192984
 20
25.6862241823
 10
83.6928304848
 20
23.7430058765
 10
86.1866381145
 20
22.9654846696
  0
LINE
  5
24A
100
AcDbEntity
  8
0
100
AcDbLine
 62
7
  6
CONTINUOUS
 10
92.577810121
 20
222.5908106515
 11
92.5803310032
 21
222.5952631355
  0
LINE
  5
24B
100
AcDbEntity
  8
0
100
AcDbLine
 62
7
  6
CONTINUOUS
 10
88.5558975686
 20
204.3338845256
 11
88.3260779591
 21
204.1055845953
  0
LINE
  5
24C
100
AcDbEntity
  8
0
100
AcDbLine
 62
7
  6
CONTINUOUS
 10
78.7952151053
 20
109.9145571586
 11
78.7908330129
 21
109.9160953213
  0
LWPOLYLINE
  5
24D
100
AcDbEntity
  8
0
100
AcDbPolyline
 62
7
  6
CONTINUOUS
 90
6
 70
0
 10
81.4208878037
 20
46.5926426809
 10
81.4584899577
 20
46.4135320366
 10
81.6869935387
 20
45.4728980458
 10
81.8445858508
 20
44.696971329
 10
82.0655890107
 20
42.7592884745
 10
82.0807208516
 20
42.1060603192
  0
LINE
  5
24E
100
AcDbEntity
  8
0
100
AcDbLine
 62
7
  6
CONTINUOUS
 10
81.3943007634
 20
46.4215980306
 11
81.6620103713
 21
44.7597321563
  0
LINE
  5
24F
100
AcDbEntity
  8
0
100
AcDbLine
 62
7
  6
CONTINUOUS
 10
81.4208860327
 20
46.5926532846
 11
81.4227783665
 21
46.5803676077
  0
LINE
  5
250
100
AcDbEntity
  8
0
100
AcDbLine
 62
7
  6
CONTINUOUS
 10
81.3619016572
 20
97.5118683119
 11
81.347119198
 21
97.6475939106
  0
LWPOLYLINE
  5
251
100
AcDbEntity
  8
0
100
AcDbPolyline
 62
7
  6
CONTINUOUS
 90
3
 70
0
 10
81.6620103713
 20
44.7597321563
 10
81.8515856215
 20
42.8402165392
 10
81.8677816953
 20
42.1060603202
  0
LWPOLYLINE
  5
252
100
AcDbEntity
  8
0
100
AcDbPolyline
 62
7
  6
CONTINUOUS
 90
3
 70
0
 10
81.6792920272
 20
92.7597290439
 10
81.8688672774
 20
90.8402134267
 10
81.8850633513
 20
90.1060572075
  0
LINE
  5
253
100
AcDbEntity
  8
0
100
AcDbLine
 62
7
  6
CONTINUOUS
 10
81.4160802196
 20
46.6629215074
 11
81.4208860327
 21
46.5926532846
  0
LINE
  5
254
100
AcDbEntity
  8
0
100
AcDbLine
 62
7
  6
CONTINUOUS
 10
81.3835934301
 20
37.5496131646
 11
81.3797508213
 21
37.605947925
  0
LINE
  5
255
100
AcDbEntity
  8
0
100
AcDbLine
 62
7
  6
CONTINUOUS
 10
81.3832962506
 20
46.5889533866
 11
81.3943007634
 21
46.4215980306
  0
LINE
  5
256
100
AcDbEntity
  8
0
100
AcDbLine
 62
7
  6
CONTINUOUS
 10
75.7918007519
 20
172.9332553031
 11
75.7812779657
 21
173.2935133011
  0
LINE
  5
257
100
AcDbEntity
  8
0
100
AcDbLine
 62
7
  6
CONTINUOUS
 10
75.7913236063
 20
173.382149217
 11
75.7915850233
 21
174.1082379421
  0
LINE
  5
258
100
AcDbEntity
  8
0
100
AcDbLine
 62
7
  6
CONTINUOUS
 10
75.8009459203
 20
200.108236256
 11
75.8013193555
 21
201.1454568642
  0
LINE
  5
259
100
AcDbEntity
  8
0
100
AcDbLine
 62
7
  6
CONTINUOUS
 10
75.7955707408
 20
173.2933254076
 11
75.795864138
 21
174.108239489
  0
LINE
  5
25A
100
AcDbEntity
  8
0
100
AcDbLine
 62
7
  6
CONTINUOUS
 10
75.805225035
 20
200.1082378029
 11
75.8055983526
 21
201.1451317235
  0
LINE
  5
25B
100
AcDbEntity
  8
0
100
AcDbLine
 62
7
  6
CONTINUOUS
 10
76.1115826629
 20
201.1451317235
 11
76.1112093453
 21
200.1082378029
  0
LINE
  5
25C
100
AcDbEntity
  8
0
100
AcDbLine
 62
7
  6
CONTINUOUS
 10
76.1018484483
 20
174.108239489
 11
76.1015550511
 21
173.2933254076
  0
LINE
  5
25D
100
AcDbEntity
  8
0
100
AcDbLine
 62
7
  6
CONTINUOUS
 10
76.2009422953
 20
200.1080922433
 11
76.1915813983
 21
174.1080939293
  0
LINE
  5
25E
100
AcDbEntity
  8
0
100
AcDbLine
 62
7
  6
CONTINUOUS
 10
76.1957569543
 20
174.1080954366
 11
76.2051178513
 21
200.1080937505
  0
LINE
  5
25F
100
AcDbEntity
  8
0
100
AcDbLine
 62
7
  6
CONTINUOUS
 10
76.5111021616
 20
200.1080937505
 11
76.5017412646
 21
174.1080954366
  0
LINE
  5
260
100
AcDbEntity
  8
0
100
AcDbLine
 62
7
  6
CONTINUOUS
 10
114.7043877814
 20
116.383620146
 11
113.44472541
 21
116.3840739111
  0
LINE
  5
261
100
AcDbEntity
  8
0
100
AcDbLine
 62
7
  6
CONTINUOUS
 10
113.4447262858
 20
116.3857588604
 11
112.1200589182
 21
116.3862360421
  0
LINE
  5
262
100
AcDbEntity
  8
0
100
AcDbLine
 62
7
  6
CONTINUOUS
 10
90.823452595
 20
117.8509987061
 11
88.6045746617
 21
118.0661694007
  0
LINE
  5
263
100
AcDbEntity
  8
0
100
AcDbLine
 62
7
  6
CONTINUOUS
 10
81.2148223547
 20
98.5699471674
 11
78.7907879188
 21
109.9163063488
  0
LWPOLYLINE
  5
264
100
AcDbEntity
  8
0
100
AcDbPolyline
 62
7
  6
CONTINUOUS
 90
6
 70
0
 10
81.4381694596
 20
94.5926395682
 10
81.4757716136
 20
94.4135289239
 10
81.7042751946
 20
93.4728949332
 10
81.8618675067
 20
92.6969682164
 10
82.0828706667
 20
90.7592853619
 10
82.0980025076
 20
90.1060572065
  0
LINE
  5
265
100
AcDbEntity
  8
0
100
AcDbLine
 62
7
  6
CONTINUOUS
 10
81.2148266655
 20
98.5699311624
 11
81.252947014
 21
98.3787049021
  0
LINE
  5
266
100
AcDbEntity
  8
0
100
AcDbLine
 62
7
  6
CONTINUOUS
 10
81.252947014
 20
98.3787049021
 11
81.252986493
 21
98.378491076
  0
LWPOLYLINE
  5
267
100
AcDbEntity
  8
0
100
AcDbPolyline
 62
7
  6
CONTINUOUS
 90
4
 70
0
 10
81.252986493
 20
98.3784910759
 10
81.2961611051
 20
98.1160797504
 10
81.3401081927
 20
97.7354696906
 10
81.346172854
 20
97.6602782676
  0
LINE
  5
268
100
AcDbEntity
  8
0
100
AcDbLine
 62
7
  6
CONTINUOUS
 10
81.4115824193
 20
94.4215949179
 11
81.6792920272
 21
92.7597290439
  0
LINE
  5
269
100
AcDbEntity
  8
0
100
AcDbLine
 62
7
  6
CONTINUOUS
 10
81.4381676886
 20
94.5926501719
 11
81.4400600225
 21
94.5803644951
  0
LINE
  5
26A
100
AcDbEntity
  8
0
100
AcDbLine
 62
7
  6
CONTINUOUS
 10
79.2426584671
 20
120.0562994734
 11
76.0404332057
 21
141.0587036892
  0
LINE
  5
26B
100
AcDbEntity
  8
0
100
AcDbLine
 62
7
  6
CONTINUOUS
 10
81.3463923065
 20
97.6573088688
 11
81.3821727715
 21
97.1763564331
  0
LINE
  5
26C
100
AcDbEntity
  8
0
100
AcDbLine
 62
7
  6
CONTINUOUS
 10
81.3782897891
 20
97.2862131068
 11
81.3864853406
 21
97.1733911551
  0
LINE
  5
26D
100
AcDbEntity
  8
0
100
AcDbLine
 62
7
  6
CONTINUOUS
 10
81.4333618756
 20
94.6629183948
 11
81.4381676886
 21
94.5926501719
  0
LINE
  5
26E
100
AcDbEntity
  8
0
100
AcDbLine
 62
7
  6
CONTINUOUS
 10
81.4008750861
 20
85.549610052
 11
81.3970324772
 21
85.6059448124
  0
LINE
  5
26F
100
AcDbEntity
  8
0
100
AcDbLine
 62
7
  6
CONTINUOUS
 10
81.4005779066
 20
94.5889502739
 11
81.4115824193
 21
94.4215949179
  0
LWPOLYLINE
  5
270
100
AcDbEntity
  8
0
100
AcDbPolyline
 62
7
  6
CONTINUOUS
 90
5
 70
0
 10
75.8014524215
 20
172.9321969587
 10
75.8453607543
 20
172.0681391511
 10
75.9072418149
 20
171.2117479785
 10
76.0316820829
 20
170.2529423694
 10
76.1732673788
 20
169.5984012332
  0
LINE
  5
271
100
AcDbEntity
  8
0
100
AcDbLine
 62
7
  6
CONTINUOUS
 10
75.7955798463
 20
173.2933254044
 11
75.7913236063
 21
173.382149217
  0
LWPOLYLINE
  5
272
100
AcDbEntity
  8
0
100
AcDbPolyline
 62
7
  6
CONTINUOUS
 90
3
 70
0
 10
81.3821831121
 20
97.1762863074
 10
81.400423796
 20
96.7554384655
 10
81.4010347413
 20
96.6604132256
  0
LINE
  5
273
100
AcDbEntity
  8
0
100
AcDbLine
 62
7
  6
CONTINUOUS
 10
81.3821673567
 20
97.1765579149
 11
81.3821727715
 21
97.1763564331
  0
LINE
  5
274
100
AcDbEntity
  8
0
100
AcDbLine
 62
7
  6
CONTINUOUS
 10
78.4330894329
 20
199.307467964
 11
78.4243045912
 21
174.9074695462
  0
LINE
  5
275
100
AcDbEntity
  8
0
100
AcDbLine
 62
7
  6
CONTINUOUS
 10
81.3762792705
 20
27.9636761388
 11
81.3797508213
 21
37.605947925
  0
LINE
  5
276
100
AcDbEntity
  8
0
100
AcDbLine
 62
7
  6
CONTINUOUS
 10
81.3829910208
 20
46.6056391643
 11
81.3970324772
 21
85.6059448124
  0
LINE
  5
277
100
AcDbEntity
  8
0
100
AcDbLine
 62
7
  6
CONTINUOUS
 10
81.4002726767
 20
94.6056360516
 11
81.4010126315
 21
96.6608689578
  0
LINE
  5
278
100
AcDbEntity
  8
0
100
AcDbLine
 62
7
  6
CONTINUOUS
 10
81.38018448
 20
27.9637887544
 11
81.3836355849
 21
37.5492720426
  0
LINE
  5
279
100
AcDbEntity
  8
0
100
AcDbLine
 62
7
  6
CONTINUOUS
 10
81.3869168134
 20
46.6629215074
 11
81.4009172409
 21
85.54926893
  0
LINE
  5
27A
100
AcDbEntity
  8
0
100
AcDbLine
 62
7
  6
CONTINUOUS
 10
81.4041984693
 20
94.6629183948
 11
81.4049189642
 21
96.664101207
  0
LINE
  5
27B
100
AcDbEntity
  8
0
100
AcDbLine
 62
7
  6
CONTINUOUS
 10
81.4333619906
 20
94.6632595319
 11
81.4340368376
 21
96.6641168628
  0
LINE
  5
27C
100
AcDbEntity
  8
0
100
AcDbLine
 62
7
  6
CONTINUOUS
 10
81.43008077
 20
85.5496100367
 11
81.4160803424
 21
46.6632626142
  0
LINE
  5
27D
100
AcDbEntity
  8
0
100
AcDbLine
 62
7
  6
CONTINUOUS
 10
81.412799114
 20
37.5496131494
 11
81.4093478863
 21
27.9637887544
  0
LWPOLYLINE
  5
27E
100
AcDbEntity
  8
0
100
AcDbPolyline
 62
7
  6
CONTINUOUS
 90
5
 70
0
 10
81.8850633504
 20
90.1060572074
 10
81.8670730831
 20
89.3441699783
 10
81.675059745
 20
87.4369985749
 10
81.5579167456
 20
86.7172285315
 10
81.4083342411
 20
85.7895805239
  0
LWPOLYLINE
  5
27F
100
AcDbEntity
  8
0
100
AcDbPolyline
 62
7
  6
CONTINUOUS
 90
5
 70
0
 10
81.8677816944
 20
42.1060603201
 10
81.8497914271
 20
41.3441730911
 10
81.6577780891
 20
39.4370016876
 10
81.5406350896
 20
38.7172316442
 10
81.3910525851
 20
37.7895836366
  0
LINE
  5
280
100
AcDbEntity
  8
0
100
AcDbLine
 62
7
  6
CONTINUOUS
 10
81.4002726767
 20
94.6056360516
 11
81.4041561917
 21
94.66291841
  0
LINE
  5
281
100
AcDbEntity
  8
0
100
AcDbLine
 62
7
  6
CONTINUOUS
 10
79.7729987867
 20
155.6186759108
 11
76.17333397
 21
169.5981390889
  0
LINE
  5
282
100
AcDbEntity
  8
0
100
AcDbLine
 62
7
  6
CONTINUOUS
 10
88.3022506674
 20
137.9250099124
 11
88.3025904765
 21
136.0257560299
  0
LINE
  5
283
100
AcDbEntity
  8
0
100
AcDbLine
 62
7
  6
CONTINUOUS
 10
88.3101901892
 20
159.9771223504
 11
88.3260779591
 21
204.1055845953
  0
LINE
  5
284
100
AcDbEntity
  8
0
100
AcDbLine
 62
7
  6
CONTINUOUS
 10
88.8683375264
 20
27.7848143183
 11
88.8931585794
 21
96.7255724888
  0
LINE
  5
285
100
AcDbEntity
  8
0
100
AcDbLine
 62
7
  6
CONTINUOUS
 10
89.3363486202
 20
96.8042737664
 11
89.3114932639
 21
27.7682377517
  0
LINE
  5
286
100
AcDbEntity
  8
0
100
AcDbLine
 62
7
  6
CONTINUOUS
 10
92.3250804832
 20
204.3325351332
 11
92.304624421
 21
147.5155888442
  0
LINE
  5
287
100
AcDbEntity
  8
0
100
AcDbLine
 62
7
  6
CONTINUOUS
 10
92.3033354305
 20
143.935402963
 11
92.2971680639
 21
136.0122547976
  0
LINE
  5
288
100
AcDbEntity
  8
0
100
AcDbLine
 62
7
  6
CONTINUOUS
 10
81.4083342411
 20
85.7895805239
 11
81.3973466459
 21
85.6234427194
  0
LINE
  5
289
100
AcDbEntity
  8
0
100
AcDbLine
 62
7
  6
CONTINUOUS
 10
81.3910525851
 20
37.7895836366
 11
81.38006499
 21
37.6234458321
  0
LINE
  5
28A
100
AcDbEntity
  8
0
100
AcDbLine
 62
7
  6
CONTINUOUS
 10
81.3829910208
 20
46.6056391643
 11
81.3868745357
 21
46.6629215227
  0
LINE
  5
28B
100
AcDbEntity
  8
0
100
AcDbLine
 62
7
  6
CONTINUOUS
 10
81.4348534169
 20
85.6192813457
 11
81.43008077
 21
85.5496100367
  0
LINE
  5
28C
100
AcDbEntity
  8
0
100
AcDbLine
 62
7
  6
CONTINUOUS
 10
81.4175717609
 20
37.6192844584
 11
81.412799114
 21
37.5496131494
  0
LWPOLYLINE
  5
28D
100
AcDbEntity
  8
0
100
AcDbPolyline
 62
7
  6
CONTINUOUS
 90
4
 70
0
 10
82.0980025116
 20
90.1060572063
 10
81.9660360813
 20
88.1855110917
 10
81.6121026121
 20
86.3588817508
 10
81.4348551775
 20
85.619291842
  0
LWPOLYLINE
  5
28E
100
AcDbEntity
  8
0
100
AcDbPolyline
 62
7
  6
CONTINUOUS
 90
4
 70
0
 10
82.0807208556
 20
42.106060319
 10
81.9487544253
 20
40.1855142041
 10
81.594820956
 20
38.3588848632
 10
81.4175735215
 20
37.6192949547
  0
LINE
  5
28F
100
AcDbEntity
  8
0
100
AcDbLine
 62
7
  6
CONTINUOUS
 10
102.4549403906
 20
249.3766557204
 11
101.073383029
 21
237.8275359937
  0
LINE
  5
290
100
AcDbEntity
  8
0
100
AcDbLine
 62
7
  6
CONTINUOUS
 10
81.4368365404
 20
85.632148055
 11
81.4348534169
 21
85.6192813457
  0
LWPOLYLINE
  5
291
100
AcDbEntity
  8
0
100
AcDbPolyline
 62
7
  6
CONTINUOUS
 90
4
 70
0
 10
78.8879341222
 20
113.6646913459
 10
78.671663978
 20
112.5465470168
 10
78.6316470706
 20
111.0596872795
 10
78.7907896996
 20
109.9163037539
  0
LWPOLYLINE
  5
292
100
AcDbEntity
  8
0
100
AcDbPolyline
 62
7
  6
CONTINUOUS
 90
4
 70
0
 10
77.0190518359
 20
144.3451855473
 10
76.3890393995
 20
143.4026147013
 10
76.0833229899
 20
142.5073367307
 10
76.0405017966
 20
141.0584357847
  0
LINE
  5
293
100
AcDbEntity
  8
0
100
AcDbLine
 62
7
  6
CONTINUOUS
 10
112.2772957402
 20
135.8622315512
 11
113.5269608379
 21
135.8617813874
  0
LINE
  5
294
100
AcDbEntity
  8
0
100
AcDbLine
 62
7
  6
CONTINUOUS
 10
138.2705980633
 20
135.853306759
 11
113.5269616497
 21
135.8632281737
  0
LINE
  5
295
100
AcDbEntity
  8
0
100
AcDbLine
 62
7
  6
CONTINUOUS
 10
101.0903556605
 20
226.2590644156
 11
101.0380444725
 21
237.2097631985
  0
LINE
  5
296
100
AcDbEntity
  8
0
100
AcDbLine
 62
7
  6
CONTINUOUS
 10
95.006077642
 20
209.9799126613
 11
95.0040426181
 21
204.3315751056
  0
LINE
  5
297
100
AcDbEntity
  8
0
100
AcDbLine
 62
7
  6
CONTINUOUS
 10
101.0733830269
 20
237.8275359664
 11
101.0380444725
 21
237.2097631985
  0
LINE
  5
298
100
AcDbEntity
  8
0
100
AcDbLine
 62
7
  6
CONTINUOUS
 10
81.4195548844
 20
37.6321511677
 11
81.4175717609
 21
37.6192844584
  0
LINE
  5
299
100
AcDbEntity
  8
0
100
AcDbLine
 62
7
  6
CONTINUOUS
 10
92.2971680639
 20
136.0122547976
 11
88.3025904765
 21
136.0257560299
  0
LWPOLYLINE
  5
29A
100
AcDbEntity
  8
0
100
AcDbPolyline
 62
7
  6
CONTINUOUS
 90
3
 70
0
 10
112.2772971513
 20
135.8653428287
 10
112.6885723769
 20
135.861057194
 10
113.5269622578
 20
135.8649171219
  0
LINE
  5
29B
100
AcDbEntity
  8
0
100
AcDbLine
 62
7
  6
CONTINUOUS
 10
111.1725077547
 20
226.0321501953
 11
111.0242114546
 21
238.9878523507
  0
LINE
  5
29C
100
AcDbEntity
  8
0
100
AcDbLine
 62
7
  6
CONTINUOUS
 10
104.1299212787
 20
249.3846570425
 11
104.1036482293
 21
254.8845942564
  0
LINE
  5
29D
100
AcDbEntity
  8
0
100
AcDbLine
 62
7
  6
CONTINUOUS
 10
105.0893060656
 20
257.8893369275
 11
105.0630330163
 21
263.3892741414
  0
LINE
  5
29E
100
AcDbEntity
  8
0
100
AcDbLine
 62
7
  6
CONTINUOUS
 10
105.9486919935
 20
266.3935391207
 11
105.9224189441
 21
271.8934763346
  0
LINE
  5
29F
100
AcDbEntity
  8
0
100
AcDbLine
 62
7
  6
CONTINUOUS
 10
107.0080756394
 20
274.8986966976
 11
106.9818025901
 21
280.3986339115
  0
LINE
  5
2A0
100
AcDbEntity
  8
0
100
AcDbLine
 62
7
  6
CONTINUOUS
 10
111.9376991535
 20
27.0088885325
 11
111.9628649212
 21
96.90711278
  0
LINE
  5
2A1
100
AcDbEntity
  8
0
100
AcDbLine
 62
7
  6
CONTINUOUS
 10
112.3059748599
 20
215.5178762623
 11
112.2772971513
 21
135.8653428287
  0
LINE
  5
2A2
100
AcDbEntity
  8
0
100
AcDbLine
 62
7
  6
CONTINUOUS
 10
114.1723112435
 20
226.0664871809
 11
114.0240149434
 21
239.0221893363
  0
LINE
  5
2A3
100
AcDbEntity
  8
0
100
AcDbLine
 62
7
  6
CONTINUOUS
 10
118.3079467117
 20
274.952675872
 11
118.2816736623
 21
280.4526130859
  0
LINE
  5
2A4
100
AcDbEntity
  8
0
100
AcDbLine
 62
7
  6
CONTINUOUS
 10
119.4485379647
 20
266.458027515
 11
119.4222649154
 21
271.9579647289
  0
LINE
  5
2A5
100
AcDbEntity
  8
0
100
AcDbLine
 62
7
  6
CONTINUOUS
 10
120.3891314997
 20
257.9624237743
 11
120.3628584503
 21
263.4623609882
  0
LINE
  5
2A6
100
AcDbEntity
  8
0
100
AcDbLine
 62
7
  6
CONTINUOUS
 10
113.3373233668
 20
27.0066131294
 11
113.3624897783
 21
96.9066085966
  0
LINE
  5
2A7
100
AcDbEntity
  8
0
100
AcDbLine
 62
7
  6
CONTINUOUS
 10
113.5269616497
 20
135.8632281737
 11
113.5556471115
 21
215.5374260973
  0
LINE
  5
2A8
100
AcDbEntity
  8
0
100
AcDbLine
 62
7
  6
CONTINUOUS
 10
114.5970031319
 20
27.0544704129
 11
114.6221515417
 21
96.9044658834
  0
LINE
  5
2A9
100
AcDbEntity
  8
0
100
AcDbLine
 62
7
  6
CONTINUOUS
 10
114.815309483
 20
215.5369723323
 11
114.7866240211
 21
135.8627744087
  0
LINE
  5
2AA
100
AcDbEntity
  8
0
100
AcDbLine
 62
7
  6
CONTINUOUS
 10
120.9432610747
 20
96.0839639291
 11
120.9189404554
 21
28.533166183
  0
LINE
  5
2AB
100
AcDbEntity
  8
0
100
AcDbLine
 62
7
  6
CONTINUOUS
 10
124.5965362333
 20
237.9399054247
 11
124.6377752074
 21
237.3224984655
  0
LINE
  5
2AC
100
AcDbEntity
  8
0
100
AcDbLine
 62
7
  6
CONTINUOUS
 10
121.4297238937
 20
249.4672977255
 11
121.4034508443
 21
254.9672349394
  0
LINE
  5
2AD
100
AcDbEntity
  8
0
100
AcDbLine
 62
7
  6
CONTINUOUS
 10
124.6951249125
 20
225.3170485715
 11
124.6377752074
 21
237.3224984655
  0
LINE
  5
2AE
100
AcDbEntity
  8
0
100
AcDbLine
 62
7
  6
CONTINUOUS
 10
127.1091375183
 20
31.8381566712
 11
127.1091375664
 21
31.8383216879
  0
LINE
  5
2AF
100
AcDbEntity
  8
0
100
AcDbLine
 62
7
  6
CONTINUOUS
 10
127.1091379585
 20
31.8393791662
 11
127.1312217087
 21
93.177247687
  0
LINE
  5
2B0
100
AcDbEntity
  8
0
100
AcDbLine
 62
7
  6
CONTINUOUS
 10
127.1312163084
 20
93.1773524266
 11
127.1339037208
 21
93.497705784
  0
LINE
  5
2B1
100
AcDbEntity
  8
0
100
AcDbLine
 62
7
  6
CONTINUOUS
 10
127.1624152065
 20
95.2615039218
 11
127.2309541381
 21
99.712238423
  0
LINE
  5
2B2
100
AcDbEntity
  8
0
100
AcDbLine
 62
7
  6
CONTINUOUS
 10
127.1298194044
 20
93.2539008449
 11
127.1624152065
 21
95.2615039218
  0
LWPOLYLINE
  5
2B3
100
AcDbEntity
  8
0
100
AcDbPolyline
 62
7
  6
CONTINUOUS
 90
4
 70
0
 10
127.230956857
 20
99.712419328
 10
127.2349697661
 20
99.8863033108
 10
127.2600808553
 20
100.4040549728
 10
127.2829641721
 20
100.701097255
  0
LINE
  5
2B4
100
AcDbEntity
  8
0
100
AcDbLine
 62
7
  6
CONTINUOUS
 10
127.2829426986
 20
100.7011058168
 11
127.2829695057
 21
100.70141492
  0
LWPOLYLINE
  5
2B5
100
AcDbEntity
  8
0
100
AcDbPolyline
 62
7
  6
CONTINUOUS
 90
6
 70
0
 10
127.2829695057
 20
100.70141492
 10
128.0400057702
 20
105.6240937636
 10
129.0232682853
 20
110.0485897099
 10
129.8975680266
 20
112.8345221993
 10
130.8912994054
 20
114.7708951734
 10
131.8830095178
 20
115.8263183148
  0
LINE
  5
2B6
100
AcDbEntity
  8
0
100
AcDbLine
 62
7
  6
CONTINUOUS
 10
81.4048766866
 20
96.6641012222
 11
81.4010126315
 21
96.6608689578
  0
LWPOLYLINE
  5
2B7
100
AcDbEntity
  8
0
100
AcDbPolyline
 62
7
  6
CONTINUOUS
 90
4
 70
0
 10
81.4049189642
 20
96.664101207
 10
81.4097380283
 20
96.6680161228
 10
81.4145987232
 20
96.6680161228
 10
81.4195034902
 20
96.6719310386
  0
LINE
  5
2B8
100
AcDbEntity
  8
0
100
AcDbLine
 62
7
  6
CONTINUOUS
 10
75.7918068153
 20
174.1082378622
 11
77.9742935949
 21
174.1076249305
  0
LINE
  5
2B9
100
AcDbEntity
  8
0
100
AcDbLine
 62
7
  6
CONTINUOUS
 10
123.5018731879
 20
246.4042457741
 11
124.5965362309
 21
237.9399054519
  0
LWPOLYLINE
  5
2BA
100
AcDbEntity
  8
0
100
AcDbPolyline
 62
7
  6
CONTINUOUS
 90
4
 70
0
 10
147.0828185147
 20
188.9818635166
 10
147.1651482697
 20
189.8336456244
 10
147.1255438855
 20
191.0489511367
 10
146.9812038469
 20
191.9240394245
  0
LWPOLYLINE
  5
2BB
100
AcDbEntity
  8
0
100
AcDbPolyline
 62
7
  6
CONTINUOUS
 90
4
 70
0
 10
139.0537438271
 20
135.7466668813
 10
141.7207673845
 20
153.4236484201
 10
144.4320641549
 20
171.4003648346
 10
147.0828185203
 20
188.9818635536
  0
LWPOLYLINE
  5
2BC
100
AcDbEntity
  8
0
100
AcDbPolyline
 62
7
  6
CONTINUOUS
 90
3
 70
0
 10
137.5013971883
 20
125.8115172912
 10
137.9530884974
 20
128.6980651763
 10
139.053743664
 20
135.7466658187
  0
LWPOLYLINE
  5
2BD
100
AcDbEntity
  8
0
100
AcDbPolyline
 62
7
  6
CONTINUOUS
 90
3
 70
0
 10
136.9797500363
 20
122.5475917245
 10
137.1660894328
 20
123.6976091256
 10
137.5013981492
 20
125.8115234271
  0
LINE
  5
2BE
100
AcDbEntity
  8
0
100
AcDbLine
 62
7
  6
CONTINUOUS
 10
81.4022787016
 20
97.165650399
 11
81.4156922886
 21
97.1733858562
  0
LINE
  5
2BF
100
AcDbEntity
  8
0
100
AcDbLine
 62
7
  6
CONTINUOUS
 10
81.404918961
 20
96.6640602176
 11
81.4195034868
 21
96.671889805
  0
LINE
  5
2C0
100
AcDbEntity
  8
0
100
AcDbLine
 62
7
  6
CONTINUOUS
 10
136.0737589161
 20
119.9133704366
 11
136.6095346358
 21
120.731810943
  0
LWPOLYLINE
  5
2C1
100
AcDbEntity
  8
0
100
AcDbPolyline
 62
7
  6
CONTINUOUS
 90
4
 70
0
 10
131.8830212444
 20
115.8263242065
 10
133.3545284652
 20
117.0924870189
 10
135.1023948076
 20
118.8763672067
 10
136.073734245
 20
119.9135411844
  0
LINE
  5
2C2
100
AcDbEntity
  8
0
100
AcDbLine
 62
7
  6
CONTINUOUS
 10
75.8013193555
 20
201.1454568642
 11
75.8056074581
 21
201.1451317202
  0
LWPOLYLINE
  5
2C3
100
AcDbEntity
  8
0
100
AcDbPolyline
 62
7
  6
CONTINUOUS
 90
6
 70
0
 10
141.6853604293
 20
215.7447009309
 10
141.5536648808
 20
216.3301318319
 10
141.1530749336
 20
218.0332039918
 10
140.9760327121
 20
218.7412311829
 10
140.6879067439
 20
219.7810180487
 10
140.5748993133
 20
220.1139057586
  0
LINE
  5
2C4
100
AcDbEntity
  8
0
100
AcDbLine
 62
7
  6
CONTINUOUS
 10
75.8055983526
 20
201.1451317235
 11
76.1115826629
 21
201.1451317235
  0
LINE
  5
2C5
100
AcDbEntity
  8
0
100
AcDbLine
 62
7
  6
CONTINUOUS
 10
77.9836544918
 20
200.1076232445
 11
75.8011677122
 21
200.1082361762
  0
LINE
  5
2C6
100
AcDbEntity
  8
0
100
AcDbLine
 62
7
  6
CONTINUOUS
 10
88.5558975686
 20
204.3338845256
 11
95.0040485455
 21
204.3315751034
  0
LINE
  5
2C7
100
AcDbEntity
  8
0
100
AcDbLine
 62
7
  6
CONTINUOUS
 10
81.9158702222
 20
204.7362420707
 11
94.9947617464
 21
204.7315750748
  0
LINE
  5
2C8
100
AcDbEntity
  8
0
100
AcDbLine
 62
7
  6
CONTINUOUS
 10
140.5805792017
 20
220.0986846442
 11
140.5770785768
 21
220.1074862688
  0
LINE
  5
2C9
100
AcDbEntity
  8
0
100
AcDbLine
 62
7
  6
CONTINUOUS
 10
140.573896533
 20
220.1165534347
 11
140.5805792017
 21
220.0986846442
  0
LINE
  5
2CA
100
AcDbEntity
  8
0
100
AcDbLine
 62
7
  6
CONTINUOUS
 10
79.6284144815
 20
209.6291467883
 11
79.3224301712
 21
209.6291467883
  0
LINE
  5
2CB
100
AcDbEntity
  8
0
100
AcDbLine
 62
7
  6
CONTINUOUS
 10
94.9917446424
 20
212.7315745579
 11
87.0497101119
 21
212.7343932392
  0
LINE
  5
2CC
100
AcDbEntity
  8
0
100
AcDbLine
 62
7
  6
CONTINUOUS
 10
112.3059748599
 20
215.5178762623
 11
113.5556399109
 21
215.5174260986
  0
LINE
  5
2CD
100
AcDbEntity
  8
0
100
AcDbLine
 62
7
  6
CONTINUOUS
 10
113.5556471115
 20
215.5374260973
 11
140.9314906534
 21
215.527535613
  0
LINE
  5
2CE
100
AcDbEntity
  8
0
100
AcDbLine
 62
7
  6
CONTINUOUS
 10
114.1723112435
 20
226.0664871809
 11
111.1727241458
 21
226.0321489975
  0
LINE
  5
2CF
100
AcDbEntity
  8
0
100
AcDbLine
 62
7
  6
CONTINUOUS
 10
112.9436375578
 20
224.9113049992
 11
112.1222716647
 21
224.9116008778
  0
LINE
  5
2D0
100
AcDbEntity
  8
0
100
AcDbLine
 62
7
  6
CONTINUOUS
 10
114.6316062878
 20
224.9306969477
 11
113.3719439164
 21
224.9311507128
  0
LINE
  5
2D1
100
AcDbEntity
  8
0
100
AcDbLine
 62
7
  6
CONTINUOUS
 10
111.1727241458
 20
226.0321489975
 11
111.1725077547
 21
226.0321501953
  0
LINE
  5
2D2
100
AcDbEntity
  8
0
100
AcDbLine
 62
7
  6
CONTINUOUS
 10
113.9643031303
 20
244.219926198
 11
113.9641119677
 21
244.2198776311
  0
LINE
  5
2D3
100
AcDbEntity
  8
0
100
AcDbLine
 62
7
  6
CONTINUOUS
 10
116.0300568464
 20
245.444570937
 11
116.0302480089
 21
245.4446195038
  0
LINE
  5
2D4
100
AcDbEntity
  8
0
100
AcDbLine
 62
7
  6
CONTINUOUS
 10
111.0244278457
 20
238.9878511529
 11
114.0240149434
 21
239.0221893363
  0
LINE
  5
2D5
100
AcDbEntity
  8
0
100
AcDbLine
 62
7
  6
CONTINUOUS
 10
124.5965362321
 20
237.939905434
 11
114.0369953584
 21
237.8881732446
  0
LINE
  5
2D6
100
AcDbEntity
  8
0
100
AcDbLine
 62
7
  6
CONTINUOUS
 10
113.1110274541
 20
237.266130832
 11
124.6377752074
 21
237.3224984655
  0
LINE
  5
2D7
100
AcDbEntity
  8
0
100
AcDbLine
 62
7
  6
CONTINUOUS
 10
101.0380444725
 20
237.2097631985
 11
111.0440318388
 21
237.2562717719
  0
LINE
  5
2D8
100
AcDbEntity
  8
0
100
AcDbLine
 62
7
  6
CONTINUOUS
 10
111.0369628273
 20
237.8738462328
 11
101.073383028
 21
237.8275359758
  0
LINE
  5
2D9
100
AcDbEntity
  8
0
100
AcDbLine
 62
7
  6
CONTINUOUS
 10
111.0242114546
 20
238.9878523507
 11
111.0244278457
 21
238.9878511529
  0
LINE
  5
2DA
100
AcDbEntity
  8
0
100
AcDbLine
 62
7
  6
CONTINUOUS
 10
113.0188004987
 20
249.425977384
 11
122.7888228816
 21
249.4735786574
  0
LINE
  5
2DB
100
AcDbEntity
  8
0
100
AcDbLine
 62
7
  6
CONTINUOUS
 10
102.4550680963
 20
249.3766563304
 11
113.0188004987
 21
249.425977384
  0
LINE
  5
2DC
100
AcDbEntity
  8
0
100
AcDbLine
 62
7
  6
CONTINUOUS
 10
104.1377038078
 20
257.8846901049
 11
104.1456355973
 21
257.8847664939
  0
LINE
  5
2DD
100
AcDbEntity
  8
0
100
AcDbLine
 62
7
  6
CONTINUOUS
 10
121.3550645117
 20
254.9671048438
 11
112.9537586355
 21
254.9259145979
  0
LINE
  5
2DE
100
AcDbEntity
  8
0
100
AcDbLine
 62
7
  6
CONTINUOUS
 10
112.9537586355
 20
254.9259145979
 11
104.152034562
 21
254.8847243519
  0
LINE
  5
2DF
100
AcDbEntity
  8
0
100
AcDbLine
 62
7
  6
CONTINUOUS
 10
121.389055216
 20
257.9672003825
 11
112.9394278813
 21
257.9258803509
  0
LINE
  5
2E0
100
AcDbEntity
  8
0
100
AcDbLine
 62
7
  6
CONTINUOUS
 10
104.0893823493
 20
257.8845603193
 11
112.9394278813
 21
257.9258803509
  0
LINE
  5
2E1
100
AcDbEntity
  8
0
100
AcDbLine
 62
7
  6
CONTINUOUS
 10
105.1058255533
 20
263.389389197
 11
105.1505238991
 21
263.3898196747
  0
LINE
  5
2E2
100
AcDbEntity
  8
0
100
AcDbLine
 62
7
  6
CONTINUOUS
 10
105.0914947991
 20
266.38935495
 11
105.1361931449
 21
266.3897854277
  0
LINE
  5
2E3
100
AcDbEntity
  8
0
100
AcDbLine
 62
7
  6
CONTINUOUS
 10
120.3200659133
 20
263.4622459326
 11
112.8900092714
 21
263.4258175648
  0
LINE
  5
2E4
100
AcDbEntity
  8
0
100
AcDbLine
 62
7
  6
CONTINUOUS
 10
112.8900092714
 20
263.4258175648
 11
105.1058255533
 21
263.389389197
  0
LINE
  5
2E5
100
AcDbEntity
  8
0
100
AcDbLine
 62
7
  6
CONTINUOUS
 10
120.3484710054
 20
266.4623264705
 11
112.8756785172
 21
266.4257833178
  0
LINE
  5
2E6
100
AcDbEntity
  8
0
100
AcDbLine
 62
7
  6
CONTINUOUS
 10
105.0487589528
 20
266.3892401652
 11
112.8756785172
 21
266.4257833178
  0
LWPOLYLINE
  5
2E7
100
AcDbEntity
  8
0
100
AcDbPolyline
 62
7
  6
CONTINUOUS
 90
4
 70
0
 10
120.812481088
 20
23.6931486791
 10
123.9078039481
 20
25.2267748113
 10
126.3507477711
 20
28.3401373338
 10
127.1091326865
 20
31.8393577681
  0
LINE
  5
2E8
100
AcDbEntity
  8
0
100
AcDbLine
 62
7
  6
CONTINUOUS
 10
105.9098964976
 20
274.8934334475
 11
105.9119986855
 21
274.8934535735
  0
LINE
  5
2E9
100
AcDbEntity
  8
0
100
AcDbLine
 62
7
  6
CONTINUOUS
 10
119.4204566077
 20
271.957973369
 11
112.8285744634
 21
271.9257205317
  0
LINE
  5
2EA
100
AcDbEntity
  8
0
100
AcDbLine
 62
7
  6
CONTINUOUS
 10
118.2801600419
 20
280.452620318
 11
112.7625105432
 21
280.4256234987
  0
LINE
  5
2EB
100
AcDbEntity
  8
0
100
AcDbLine
 62
7
  6
CONTINUOUS
 10
112.8285744634
 20
271.9257205317
 11
105.9242272518
 21
271.8934676945
  0
LINE
  5
2EC
100
AcDbEntity
  8
0
100
AcDbLine
 62
7
  6
CONTINUOUS
 10
112.5017857181
 20
274.9241993458
 11
119.4077890823
 21
274.9579297889
  0
LINE
  5
2ED
100
AcDbEntity
  8
0
100
AcDbLine
 62
7
  6
CONTINUOUS
 10
118.3079448894
 20
274.9530688216
 11
119.4061258535
 21
274.9579391221
  0
LINE
  5
2EE
100
AcDbEntity
  8
0
100
AcDbLine
 62
7
  6
CONTINUOUS
 10
106.9675256369
 20
283.3985999215
 11
118.2672891071
 21
283.452578582
  0
LINE
  5
2EF
100
AcDbEntity
  8
0
100
AcDbLine
 62
7
  6
CONTINUOUS
 10
112.7625105432
 20
280.4256234987
 11
106.9833162106
 21
280.3986266793
  0
LINE
  5
2F0
100
AcDbEntity
  8
0
100
AcDbLine
 62
7
  6
CONTINUOUS
 10
105.9082332689
 20
274.8934427807
 11
112.8142437092
 21
274.9256862848
  0
ARC
  5
2F1
100
AcDbEntity
  8
0
100
AcDbCircle
 62
7
  6
CONTINUOUS
 10
-1782.8331252925
 20
95.1628909123
 40
1871.5779515144
100
AcDbArc
 50
0.7011511414
 51
1.2416149185
  0
ARC
  5
2F2
100
AcDbEntity
  8
0
100
AcDbCircle
 62
7
  6
CONTINUOUS
 10
-815.6592868917
 20
210.3163074884
 40
910.665426665
100
AcDbArc
 50
359.978835252
 51
0.1520171043
  0
ARC
  5
2F3
100
AcDbEntity
  8
0
100
AcDbCircle
 62
7
  6
CONTINUOUS
 10
82.124984945
 20
23.9322562194
 40
31.1782144918
100
AcDbArc
 50
357.6944848676
 51
357.9226662519
  0
ARC
  5
2F4
100
AcDbEntity
  8
0
100
AcDbCircle
 62
7
  6
CONTINUOUS
 10
74.539449572
 20
94.8067641533
 40
14.5354699196
100
AcDbArc
 50
7.6154858993
 51
9.1459773957
  0
ARC
  5
2F5
100
AcDbEntity
  8
0
100
AcDbCircle
 62
7
  6
CONTINUOUS
 10
74.9463859125
 20
94.9233131809
 40
14.5123753897
100
AcDbArc
 50
7.4471025291
 51
8.3891079361
  0
ARC
  5
2F6
100
AcDbEntity
  8
0
100
AcDbCircle
 62
7
  6
CONTINUOUS
 10
74.9400416935
 20
95.3297359124
 40
14.5036681624
100
AcDbArc
 50
5.8574221969
 51
6.7426667788
  0
ARC
  5
2F7
100
AcDbEntity
  8
0
100
AcDbCircle
 62
7
  6
CONTINUOUS
 10
74.4670486218
 20
95.5600383096
 40
14.4731170945
100
AcDbArc
 50
4.6190866328
 51
6.1890458891
  0
ARC
  5
2F8
100
AcDbEntity
  8
0
100
AcDbCircle
 62
7
  6
CONTINUOUS
 10
67.6958234286
 20
90.0835710347
 40
14.4265130963
100
AcDbArc
 50
2.0085956107
 51
3.7180513753
  0
ARC
  5
2F9
100
AcDbEntity
  8
0
100
AcDbCircle
 62
7
  6
CONTINUOUS
 10
67.6785417724
 20
42.0835741474
 40
14.4265130965
100
AcDbArc
 50
2.0085956117
 51
3.7180513736
  0
ARC
  5
2FA
100
AcDbEntity
  8
0
100
AcDbCircle
 62
7
  6
CONTINUOUS
 10
68.4445636473
 20
90.1079301409
 40
13.6773792776
100
AcDbArc
 50
359.9921233409
 51
2.0165497549
  0
ARC
  5
2FB
100
AcDbEntity
  8
0
100
AcDbCircle
 62
7
  6
CONTINUOUS
 10
68.4272819913
 20
42.1079332535
 40
13.6773792776
100
AcDbArc
 50
359.9921233409
 51
2.0165497559
  0
ARC
  5
2FC
100
AcDbEntity
  8
0
100
AcDbCircle
 62
7
  6
CONTINUOUS
 10
73.3847511574
 20
96.8509583233
 40
8.0197789715
100
AcDbArc
 50
4.0679422459
 51
9.40175583
  0
ARC
  5
2FD
100
AcDbEntity
  8
0
100
AcDbCircle
 62
7
  6
CONTINUOUS
 10
73.403202908
 20
96.8536029591
 40
8.0011430731
100
AcDbArc
 50
9.404656709
 51
10.9947547325
  0
ARC
  5
2FE
100
AcDbEntity
  8
0
100
AcDbCircle
 62
7
  6
CONTINUOUS
 10
73.405775065
 20
96.8541070587
 40
7.9985219874
100
AcDbArc
 50
10.9947240224
 51
12.05686388
  0
ARC
  5
2FF
100
AcDbEntity
  8
0
100
AcDbCircle
 62
7
  6
CONTINUOUS
 10
73.7812919155
 20
96.9157362153
 40
7.6330014496
100
AcDbArc
 50
4.4793111562
 51
12.7283806711
  0
ARC
  5
300
100
AcDbEntity
  8
0
100
AcDbCircle
 62
7
  6
CONTINUOUS
 10
73.7703392343
 20
96.9977663998
 40
7.6089596818
100
AcDbArc
 50
4.9021945302
 51
9.3831740382
  0
ARC
  5
301
100
AcDbEntity
  8
0
100
AcDbCircle
 62
7
  6
CONTINUOUS
 10
73.7795457753
 20
96.9993271432
 40
7.5996218659
100
AcDbArc
 50
9.3828810532
 51
10.455844741
  0
ARC
  5
302
100
AcDbEntity
  8
0
100
AcDbCircle
 62
7
  6
CONTINUOUS
 10
73.8041538378
 20
97.0008809196
 40
7.5750026228
100
AcDbArc
 50
3.8679311145
 51
4.9005796817
  0
ARC
  5
303
100
AcDbEntity
  8
0
100
AcDbCircle
 62
7
  6
CONTINUOUS
 10
74.4149586425
 20
96.6747286883
 40
7.0045446486
100
AcDbArc
 50
359.9771157959
 51
4.0189365816
  0
ARC
  5
304
100
AcDbEntity
  8
0
100
AcDbCircle
 62
7
  6
CONTINUOUS
 10
74.4006412945
 20
96.6670414537
 40
7.0042782133
100
AcDbArc
 50
359.9759485197
 51
4.1454891585
  0
ARC
  5
305
100
AcDbEntity
  8
0
100
AcDbCircle
 62
7
  6
CONTINUOUS
 10
74.4676214079
 20
96.6681523288
 40
6.9664158561
100
AcDbArc
 50
359.9668100253
 51
4.158980168
  0
ARC
  5
306
100
AcDbEntity
  8
0
100
AcDbCircle
 62
7
  6
CONTINUOUS
 10
86.4334862856
 20
28.0399959577
 40
5.0934707194
100
AcDbArc
 50
227.5048197168
 51
238.2668046812
  0
ARC
  5
307
100
AcDbEntity
  8
0
100
AcDbCircle
 62
7
  6
CONTINUOUS
 10
86.3661495488
 20
27.9605144284
 40
4.985966144
100
AcDbArc
 50
179.9623733754
 51
208.6595717784
  0
ARC
  5
308
100
AcDbEntity
  8
0
100
AcDbCircle
 62
7
  6
CONTINUOUS
 10
86.3761354173
 20
27.9425098688
 40
4.9803942701
100
AcDbArc
 50
238.238079289
 51
267.0682708502
  0
ARC
  5
309
100
AcDbEntity
  8
0
100
AcDbCircle
 62
7
  6
CONTINUOUS
 10
86.3748700021
 20
27.8535045735
 40
4.8914418507
100
AcDbArc
 50
267.0297510173
 51
267.8283544742
  0
ARC
  5
30A
100
AcDbEntity
  8
0
100
AcDbCircle
 62
7
  6
CONTINUOUS
 10
79.5919911509
 20
98.4820614161
 40
1.6387976572
100
AcDbArc
 50
3.0516353364
 51
4.0395232331
  0
ARC
  5
30B
100
AcDbEntity
  8
0
100
AcDbCircle
 62
7
  6
CONTINUOUS
 10
89.0287029247
 20
95.5623498056
 40
1.5035668556
100
AcDbArc
 50
77.9083353849
 51
79.4700052307
  0
ARC
  5
30C
100
AcDbEntity
  8
0
100
AcDbCircle
 62
7
  6
CONTINUOUS
 10
80.2907870655
 20
98.5198944166
 40
0.9389787646
100
AcDbArc
 50
2.3582280671
 51
3.0163467991
  0
ARC
  5
30D
100
AcDbEntity
  8
0
100
AcDbCircle
 62
7
  6
CONTINUOUS
 10
88.8094666988
 20
97.5187184923
 40
0.7975493175
100
AcDbArc
 50
276.0234969898
 51
279.909079118
  0
ARC
  5
30E
100
AcDbEntity
  8
0
100
AcDbCircle
 62
7
  6
CONTINUOUS
 10
89.4876657299
 20
96.042900778
 40
0.7762641659
100
AcDbArc
 50
98.8690258945
 51
101.2407189714
  0
ARC
  5
30F
100
AcDbEntity
  8
0
100
AcDbCircle
 62
7
  6
CONTINUOUS
 10
81.8821689417
 20
46.6648009524
 40
0.4952700954
100
AcDbArc
 50
185.8541335509
 51
188.9772418677
  0
ARC
  5
310
100
AcDbEntity
  8
0
100
AcDbCircle
 62
7
  6
CONTINUOUS
 10
81.8990928704
 20
94.6647458906
 40
0.4949086451
100
AcDbArc
 50
187.6349412635
 51
191.0075346094
  0
ARC
  5
311
100
AcDbEntity
  8
0
100
AcDbCircle
 62
7
  6
CONTINUOUS
 10
81.8958002974
 20
85.5474173097
 40
0.4948998884
100
AcDbArc
 50
167.2918774089
 51
174.1276217632
  0
ARC
  5
312
100
AcDbEntity
  8
0
100
AcDbCircle
 62
7
  6
CONTINUOUS
 10
81.8785186415
 20
37.5474204224
 40
0.4948998884
100
AcDbArc
 50
167.2918774094
 51
174.127621763
  0
ARC
  5
313
100
AcDbEntity
  8
0
100
AcDbCircle
 62
7
  6
CONTINUOUS
 10
81.896356732
 20
94.6644745576
 40
0.4921607229
100
AcDbArc
 50
180.1811638139
 51
187.6459540784
  0
ARC
  5
314
100
AcDbEntity
  8
0
100
AcDbCircle
 62
7
  6
CONTINUOUS
 10
81.8777605905
 20
46.6644218212
 40
0.4908460701
100
AcDbArc
 50
180.175129809
 51
185.8625941752
  0
ARC
  5
315
100
AcDbEntity
  8
0
100
AcDbCircle
 62
7
  6
CONTINUOUS
 10
81.8917431185
 20
85.5477569906
 40
0.4908292528
100
AcDbArc
 50
174.1186095659
 51
179.7836885735
  0
ARC
  5
316
100
AcDbEntity
  8
0
100
AcDbCircle
 62
7
  6
CONTINUOUS
 10
81.8744614626
 20
37.5477601032
 40
0.4908292528
100
AcDbArc
 50
174.1186095659
 51
179.7836885733
  0
ARC
  5
317
100
AcDbEntity
  8
0
100
AcDbCircle
 62
7
  6
CONTINUOUS
 10
9.3050665548
 20
176.3175881361
 40
66.8649163649
100
AcDbArc
 50
357.037212449
 51
357.4076596012
  0
ARC
  5
318
100
AcDbEntity
  8
0
100
AcDbCircle
 62
7
  6
CONTINUOUS
 10
63.8281302439
 20
117.7061442353
 40
15.5926556425
100
AcDbArc
 50
344.9780031157
 51
8.6687660841
  0
ARC
  5
319
100
AcDbEntity
  8
0
100
AcDbCircle
 62
7
  6
CONTINUOUS
 10
67.8405081752
 20
152.5734382904
 40
12.3266686965
100
AcDbArc
 50
318.1250002283
 51
329.9705895696
  0
ARC
  5
31A
100
AcDbEntity
  8
0
100
AcDbCircle
 62
7
  6
CONTINUOUS
 10
67.8682340393
 20
152.5540057959
 40
12.2929264415
100
AcDbArc
 50
329.9843334874
 51
14.4363234813
  0
ARC
  5
31B
100
AcDbEntity
  8
0
100
AcDbCircle
 62
7
  6
CONTINUOUS
 10
91.003634431
 20
135.9367812373
 40
7.4577107979
100
AcDbArc
 50
178.8901205445
 51
182.0977314866
  0
ARC
  5
31C
100
AcDbEntity
  8
0
100
AcDbCircle
 62
7
  6
CONTINUOUS
 10
102.6536523595
 20
32.5578176831
 40
192.7454177325
100
AcDbArc
 50
79.3307708192
 51
86.4371204827
  0
ARC
  5
31D
100
AcDbEntity
  8
0
100
AcDbCircle
 62
7
  6
CONTINUOUS
 10
102.213482807
 20
35.6349387331
 40
191.0173890923
100
AcDbArc
 50
79.3109350493
 51
83.222184457
  0
ARC
  5
31E
100
AcDbEntity
  8
0
100
AcDbCircle
 62
7
  6
CONTINUOUS
 10
194.2787004059
 20
94.8351830957
 40
73.3460708932
100
AcDbArc
 50
177.630835734
 51
179.0244422409
  0
ARC
  5
31F
100
AcDbEntity
  8
0
100
AcDbCircle
 62
7
  6
CONTINUOUS
 10
190.997250331
 20
84.061802777
 40
70.952423921
100
AcDbArc
 50
168.8115562393
 51
170.2784996102
  0
ARC
  5
320
100
AcDbEntity
  8
0
100
AcDbCircle
 62
7
  6
CONTINUOUS
 10
156.9983980196
 20
99.8035799171
 40
29.8387444181
100
AcDbArc
 50
179.7776373026
 51
180.4081627482
  0
ARC
  5
321
100
AcDbEntity
  8
0
100
AcDbCircle
 62
7
  6
CONTINUOUS
 10
140.3159014393
 20
99.8672080363
 40
13.156126582
100
AcDbArc
 50
178.3242025403
 51
179.7727756595
  0
ARC
  5
322
100
AcDbEntity
  8
0
100
AcDbCircle
 62
7
  6
CONTINUOUS
 10
136.0092886438
 20
99.9912489322
 40
8.847728477
100
AcDbArc
 50
176.1998307206
 51
178.3115437332
  0
ARC
  5
323
100
AcDbEntity
  8
0
100
AcDbCircle
 62
7
  6
CONTINUOUS
 10
148.2180007811
 20
176.5373172412
 40
72.4950471132
100
AcDbArc
 50
182.5647148748
 51
182.891981223
  0
ARC
  5
324
100
AcDbEntity
  8
0
100
AcDbCircle
 62
7
  6
CONTINUOUS
 10
144.0859241031
 20
119.6843944684
 40
60.8679596121
100
AcDbArc
 50
180.1515886959
 51
181.6485729916
  0
ARC
  5
325
100
AcDbEntity
  8
0
100
AcDbCircle
 62
7
  6
CONTINUOUS
 10
354.5430953655
 20
228.7935891131
 40
243.3862536359
100
AcDbArc
 50
180.6500867974
 51
181.1832514043
  0
ARC
  5
326
100
AcDbEntity
  8
0
100
AcDbCircle
 62
7
  6
CONTINUOUS
 10
354.5638321668
 20
228.793863834
 40
240.4069922345
100
AcDbArc
 50
180.650024869
 51
181.1827865405
  0
ARC
  5
327
100
AcDbEntity
  8
0
100
AcDbCircle
 62
7
  6
CONTINUOUS
 10
-11.2934945865
 20
219.4319676728
 40
124.8190702872
100
AcDbArc
 50
1.3760356166
 51
1.5243722061
  0
ARC
  5
328
100
AcDbEntity
  8
0
100
AcDbCircle
 62
7
  6
CONTINUOUS
 10
113.2746372676
 20
344.6146564886
 40
118.9207485305
100
AcDbArc
 50
270.4348726628
 51
270.5849624903
  0
ARC
  5
329
100
AcDbEntity
  8
0
100
AcDbCircle
 62
7
  6
CONTINUOUS
 10
14.9475284517
 20
220.132206004
 40
98.5687061158
100
AcDbArc
 50
1.5232548634
 51
1.8327450155
  0
ARC
  5
32A
100
AcDbEntity
  8
0
100
AcDbCircle
 62
7
  6
CONTINUOUS
 10
44.9688345339
 20
221.0821703137
 40
68.5323766537
100
AcDbArc
 50
1.8416592598
 51
2.195860909
  0
ARC
  5
32B
100
AcDbEntity
  8
0
100
AcDbCircle
 62
7
  6
CONTINUOUS
 10
137.3878856022
 20
250.1199524217
 40
67.2638173573
100
AcDbArc
 50
222.8885354887
 51
223.164148798
  0
ARC
  5
32C
100
AcDbEntity
  8
0
100
AcDbCircle
 62
7
  6
CONTINUOUS
 10
112.1599750446
 20
272.8873283291
 40
47.9757422666
100
AcDbArc
 50
269.5712838731
 51
269.954972145
  0
ARC
  5
32D
100
AcDbEntity
  8
0
100
AcDbCircle
 62
7
  6
CONTINUOUS
 10
94.3019147199
 20
223.2402594558
 40
19.1501658819
100
AcDbArc
 50
3.3370810768
 51
3.4908030221
  0
ARC
  5
32E
100
AcDbEntity
  8
0
100
AcDbCircle
 62
7
  6
CONTINUOUS
 10
96.4503525799
 20
222.3413465187
 40
17.1186255033
100
AcDbArc
 50
8.7014453231
 51
8.9499370012
  0
ARC
  5
32F
100
AcDbEntity
  8
0
100
AcDbCircle
 62
7
  6
CONTINUOUS
 10
87.8082087486
 20
201.1407379169
 40
12.002661445
100
AcDbArc
 50
157.6478093467
 51
179.9790256947
  0
ARC
  5
330
100
AcDbEntity
  8
0
100
AcDbCircle
 62
7
  6
CONTINUOUS
 10
88.1133393527
 20
201.1410019528
 40
12.0017802198
100
AcDbArc
 50
134.9891175418
 51
179.9802846503
  0
ARC
  5
331
100
AcDbEntity
  8
0
100
AcDbCircle
 62
7
  6
CONTINUOUS
 10
87.8061942216
 20
201.1417578989
 40
12.0004199669
100
AcDbArc
 50
134.98777359
 51
157.2664151937
  0
ARC
  5
332
100
AcDbEntity
  8
0
100
AcDbCircle
 62
7
  6
CONTINUOUS
 10
87.7412769397
 20
201.17024973
 40
11.9295354809
100
AcDbArc
 50
157.2721367253
 51
157.6566481265
  0
ARC
  5
333
100
AcDbEntity
  8
0
100
AcDbCircle
 62
7
  6
CONTINUOUS
 10
113.3845647708
 20
232.7998344899
 40
7.9008426344
100
AcDbArc
 50
266.800796869
 51
269.2165928187
  0
ARC
  5
334
100
AcDbEntity
  8
0
100
AcDbCircle
 62
7
  6
CONTINUOUS
 10
113.3765382915
 20
232.4746593044
 40
7.5755889473
100
AcDbArc
 50
269.2436671191
 51
269.9787990967
  0
ARC
  5
335
100
AcDbEntity
  8
0
100
AcDbCircle
 62
7
  6
CONTINUOUS
 10
139.3983023887
 20
190.1793052209
 40
7.0250318656
100
AcDbArc
 50
351.4167168261
 51
12.5602041054
  0
ARC
  5
336
100
AcDbEntity
  8
0
100
AcDbCircle
 62
7
  6
CONTINUOUS
 10
117.0239270752
 20
239.0585681041
 40
6.0001320424
100
AcDbArc
 50
120.6610296467
 51
180.6752861304
  0
ARC
  5
337
100
AcDbEntity
  8
0
100
AcDbCircle
 62
7
  6
CONTINUOUS
 10
117.0240182155
 20
239.0585303721
 40
3.00022039
100
AcDbArc
 50
120.6637024649
 51
180.694023253
  0
ARC
  5
338
100
AcDbEntity
  8
0
100
AcDbCircle
 62
7
  6
CONTINUOUS
 10
111.7981790763
 20
224.6906751044
 40
1.5920314979
100
AcDbArc
 50
7.9623909904
 51
8.6877532031
  0
ARC
  5
339
100
AcDbEntity
  8
0
100
AcDbCircle
 62
7
  6
CONTINUOUS
 10
104.0964828523
 20
256.3845771329
 40
1.5
100
AcDbArc
 50
90.2736982868
 51
270.2736982867
  0
ARC
  5
33A
100
AcDbEntity
  8
0
100
AcDbCircle
 62
7
  6
CONTINUOUS
 10
121.3962854672
 20
256.4672178159
 40
1.5
100
AcDbArc
 50
270.2736982867
 51
90.2736982867
  0
ARC
  5
33B
100
AcDbEntity
  8
0
100
AcDbCircle
 62
7
  6
CONTINUOUS
 10
105.0558676392
 20
264.8892570179
 40
1.5
100
AcDbArc
 50
90.2736982868
 51
270.2736982867
  0
ARC
  5
33C
100
AcDbEntity
  8
0
100
AcDbCircle
 62
7
  6
CONTINUOUS
 10
120.3556930732
 20
264.9623438647
 40
1.5
100
AcDbArc
 50
270.2736982867
 51
90.2736982867
  0
ARC
  5
33D
100
AcDbEntity
  8
0
100
AcDbCircle
 62
7
  6
CONTINUOUS
 10
105.915253567
 20
273.3934592111
 40
1.5
100
AcDbArc
 50
90.2736982868
 51
270.2736982867
  0
ARC
  5
33E
100
AcDbEntity
  8
0
100
AcDbCircle
 62
7
  6
CONTINUOUS
 10
119.4150995383
 20
273.4579476054
 40
1.5
100
AcDbArc
 50
270.2736982867
 51
90.2736982867
  0
ARC
  5
33F
100
AcDbEntity
  8
0
100
AcDbCircle
 62
7
  6
CONTINUOUS
 10
118.2745082852
 20
281.9525959624
 40
1.5
100
AcDbArc
 50
270.2736982867
 51
90.2736982867
  0
ARC
  5
340
100
AcDbEntity
  8
0
100
AcDbCircle
 62
7
  6
CONTINUOUS
 10
106.974637213
 20
281.898616788
 40
1.5
100
AcDbArc
 50
90.2736982867
 51
270.2736982867
  0
SPLINE
  5
341
100
AcDbEntity
  8
0
100
AcDbSpline
 62
7
  6
CONTINUOUS
 70
0
 71
3
 72
23
 73
19
 74
0
 42
0.0000001
 43
0.0000001
 44
0.0000000001
 40
0.0
 40
0.0
 40
0.0
 40
0.0
 40
0.0011781223
 40
0.0062614436
 40
0.0142075773
 40
0.0245561061
 40
0.0370692593
 40
0.0516086038
 40
0.0864345191
 40
0.1285715023
 40
0.1777181824
 40
0.2336271698
 40
0.2960657858
 40
0.3647997017
 40
0.4395854188
 40
0.6062715751
 40
0.7938976981
 40
1.0
 40
1.0
 40
1.0
 40
1.0
 10
128.9335346107
 20
253.2248683842
 30
0.0
 10
128.9357273448
 20
253.2264700048
 30
0.0
 10
128.9103042642
 20
253.2083675837
 30
0.0
 10
128.8982749969
 20
253.2007708435
 30
0.0
 10
128.8451629295
 20
253.1649181233
 30
0.0
 10
128.7890991209
 20
253.1284177648
 30
0.0
 10
128.7155237334
 20
253.0807553928
 30
0.0
 10
128.5959147429
 20
253.0042470451
 30
0.0
 10
128.4173161984
 20
252.891355565
 30
0.0
 10
128.1709814416
 20
252.7373673314
 30
0.0
 10
127.8826229754
 20
252.5585388952
 30
0.0
 10
127.5539934283
 20
252.356001151
 30
0.0
 10
127.1864131271
 20
252.1305767343
 30
0.0
 10
126.7813006735
 20
251.8831453558
 30
0.0
 10
126.1705659943
 20
251.5114051546
 30
0.0
 10
125.3247280887
 20
250.9988818085
 30
0.0
 10
124.21872304
 20
250.3316879971
 30
0.0
 10
123.4409250819
 20
249.8641958982
 30
0.0
 10
123.0336154386
 20
249.619749667
 30
0.0
  0
SPLINE
  5
342
100
AcDbEntity
  8
0
100
AcDbSpline
 62
7
  6
CONTINUOUS
 70
0
 71
3
 72
9
 73
5
 74
0
 42
0.0000001
 43
0.0000001
 44
0.0000000001
 40
0.0
 40
0.0
 40
0.0
 40
0.0
 40
0.2316312789
 40
1.0
 40
1.0
 40
1.0
 40
1.0
 10
123.0336154386
 20
249.619749667
 30
0.0
 10
122.4938187279
 20
249.2957915341
 30
0.0
 10
120.1621679275
 20
247.8992591652
 30
0.0
 10
117.8264716563
 20
246.5094866639
 30
0.0
 10
116.0300568464
 20
245.444570937
 30
0.0
  0
SPLINE
  5
343
100
AcDbEntity
  8
0
100
AcDbSpline
 62
7
  6
CONTINUOUS
 70
0
 71
3
 72
13
 73
9
 74
0
 42
0.0000001
 43
0.0000001
 44
0.0000000001
 40
0.0
 40
0.0
 40
0.0
 40
0.0
 40
0.3564581566
 40
0.6496145323
 40
0.7682521195
 40
0.8665445748
 40
0.9437162717
 40
1.0
 40
1.0
 40
1.0
 40
1.0
 10
122.3580929892
 20
249.484587074
 30
0.0
 10
123.1330785328
 20
249.9386967521
 30
0.0
 10
124.5463574243
 20
250.7646793389
 30
0.0
 10
126.2207673449
 20
251.7363230251
 30
0.0
 10
127.3351528511
 20
252.3768571174
 30
0.0
 10
127.9790290708
 20
252.7438178446
 30
0.0
 10
128.4880271295
 20
253.0300812395
 30
0.0
 10
128.7826343555
 20
253.1922889306
 30
0.0
 10
128.9077643914
 20
253.2590547215
 30
0.0
  0
SPLINE
  5
344
100
AcDbEntity
  8
0
100
AcDbSpline
 62
7
  6
CONTINUOUS
 70
0
 71
3
 72
13
 73
9
 74
0
 42
0.0000001
 43
0.0000001
 44
0.0000000001
 40
0.0
 40
0.0
 40
0.0
 40
0.0
 40
0.0848762684
 40
0.1896797923
 40
0.341998754
 40
0.5563861145
 40
0.7776509421
 40
1.0
 40
1.0
 40
1.0
 40
1.0
 10
128.9077643914
 20
253.2590547215
 30
0.0
 10
128.9716240439
 20
253.2931283968
 30
0.0
 10
129.1146613198
 20
253.368572888
 30
0.0
 10
129.3805763648
 20
253.4900525321
 30
0.0
 10
129.777261293
 20
253.5791492542
 30
0.0
 10
130.2883295812
 20
253.532155397
 30
0.0
 10
130.801685252
 20
253.2750185785
 30
0.0
 10
131.0597393329
 20
252.983642852
 30
0.0
 10
131.1564108109
 20
252.8205200615
 30
0.0
  0
SPLINE
  5
345
100
AcDbEntity
  8
0
100
AcDbSpline
 62
7
  6
CONTINUOUS
 70
0
 71
3
 72
29
 73
25
 74
0
 42
0.0000001
 43
0.0000001
 44
0.0000000001
 40
0.0
 40
0.0
 40
0.0
 40
0.0
 40
0.022745477
 40
0.0454634511
 40
0.0680405684
 40
0.0901502921
 40
0.1005096534
 40
0.1093748541
 40
0.1206290111
 40
0.1309990784
 40
0.1392081091
 40
0.1485614456
 40
0.1597517425
 40
0.1729924275
 40
0.2058461438
 40
0.2471431302
 40
0.2965675401
 40
0.3536451896
 40
0.4177919669
 40
0.4883356915
 40
0.5645282611
 40
0.6455590959
 40
0.8185964296
 40
1.0
 40
1.0
 40
1.0
 40
1.0
 10
131.1564108109
 20
252.8205200615
 30
0.0
 10
131.2245477861
 20
252.7055461959
 30
0.0
 10
131.3303906878
 20
252.4561562414
 30
0.0
 10
131.3839997425
 20
252.0553224005
 30
0.0
 10
131.3308622241
 20
251.6581881046
 30
0.0
 10
131.204580693
 20
251.3560591089
 30
0.0
 10
131.0695764014
 20
251.1535992405
 30
0.0
 10
130.9546674653
 20
251.0158459508
 30
0.0
 10
130.8240992782
 20
250.892410794
 30
0.0
 10
130.6839128271
 20
250.786861565
 30
0.0
 10
130.5482945327
 20
250.6944178564
 30
0.0
 10
130.4070594034
 20
250.6016963176
 30
0.0
 10
130.240005249
 20
250.4944616109
 30
0.0
 10
129.9555526786
 20
250.3145102357
 30
0.0
 10
129.5196249055
 20
250.0431308557
 30
0.0
 10
128.9012725434
 20
249.6625210208
 30
0.0
 10
128.1600996669
 20
249.2099236029
 30
0.0
 10
127.303008451
 20
248.689545208
 30
0.0
 10
126.3386786001
 20
248.1066904359
 30
0.0
 10
125.2771886512
 20
247.4674599104
 30
0.0
 10
124.1297660585
 20
246.7786237318
 30
0.0
 10
122.4648132341
 20
245.7818148939
 30
0.0
 10
120.2673117817
 20
244.4710407037
 30
0.0
 10
118.4767516661
 20
243.4074649377
 30
0.0
 10
117.5598612264
 20
242.8639317605
 30
0.0
  0
SPLINE
  5
346
100
AcDbEntity
  8
0
100
AcDbSpline
 62
7
  6
CONTINUOUS
 70
0
 71
3
 72
23
 73
19
 74
0
 42
0.0000001
 43
0.0000001
 44
0.0000000001
 40
0.0
 40
0.0
 40
0.0
 40
0.0
 40
0.0017656175
 40
0.0058303245
 40
0.0122410747
 40
0.0209938217
 40
0.0320765848
 40
0.0454735551
 40
0.0790639042
 40
0.121414125
 40
0.1721484241
 40
0.2307706393
 40
0.2967071149
 40
0.369351408
 40
0.4479719896
 40
0.6200654408
 40
0.8065550258
 40
1.0
 40
1.0
 40
1.0
 40
1.0
 10
116.0302480089
 20
245.4446195038
 30
0.0
 10
116.0311387589
 20
245.4446221363
 30
0.0
 10
116.0332996661
 20
245.4419500083
 30
0.0
 10
116.0372104058
 20
245.437697854
 30
0.0
 10
116.0430065441
 20
245.4296380417
 30
0.0
 10
116.0506164883
 20
245.4189196463
 30
0.0
 10
116.0600354764
 20
245.4050042674
 30
0.0
 10
116.0762222662
 20
245.3806062236
 30
0.0
 10
116.1006692812
 20
245.3427267315
 30
0.0
 10
116.1348698182
 20
245.2887461151
 30
0.0
 10
116.1754355173
 20
245.2238422419
 30
0.0
 10
116.221979141
 20
245.1486463329
 30
0.0
 10
116.2740506736
 20
245.0638721413
 30
0.0
 10
116.3311414936
 20
244.9703413806
 30
0.0
 10
116.415809487
 20
244.8308990655
 30
0.0
 10
116.5297005234
 20
244.6420079856
 30
0.0
 10
116.6727247914
 20
244.4030405096
 30
0.0
 10
116.770680699
 20
244.2382836701
 30
0.0
 10
116.8204361612
 20
244.1543266436
 30
0.0
  0
SPLINE
  5
347
100
AcDbEntity
  8
0
100
AcDbSpline
 62
7
  6
CONTINUOUS
 70
0
 71
3
 72
23
 73
19
 74
0
 42
0.0000001
 43
0.0000001
 44
0.0000000001
 40
0.0
 40
0.0
 40
0.0
 40
0.0
 40
0.1953857903
 40
0.3831705426
 40
0.5559343611
 40
0.6346703243
 40
0.7072948979
 40
0.7730824669
 40
0.8314343928
 40
0.8817892393
 40
0.923655365
 40
0.9566680898
 40
0.9697455372
 40
0.9804879211
 40
0.9888808641
 40
0.994915598
 40
0.9985938132
 40
1.0
 40
1.0
 40
1.0
 40
1.0
 10
116.8204361612
 20
244.1543266436
 30
0.0
 10
116.8698372842
 20
244.0709675267
 30
0.0
 10
116.9664875094
 20
243.9073556307
 30
0.0
 10
117.1060206757
 20
243.66956553
 30
0.0
 10
117.2156592058
 20
243.4813092421
 30
0.0
 10
117.2961175555
 20
243.3421511791
 30
0.0
 10
117.3497990844
 20
243.2487940716
 30
0.0
 10
117.3982004376
 20
243.1640617239
 30
0.0
 10
117.4408591298
 20
243.0887707383
 30
0.0
 10
117.4773800415
 20
243.0236320007
 30
0.0
 10
117.5074051052
 20
242.9692769204
 30
0.0
 10
117.528170347
 20
242.9308853647
 30
0.0
 10
117.5412350879
 20
242.9059556197
 30
0.0
 10
117.5485342593
 20
242.8916503041
 30
0.0
 10
117.5538767
 20
242.8806090246
 30
0.0
 10
117.5578616235
 20
242.8720106533
 30
0.0
 10
117.5593180204
 20
242.8676036233
 30
0.0
 10
117.5604586157
 20
242.8642915654
 30
0.0
 10
117.5598609206
 20
242.8639322764
 30
0.0
  0
SPLINE
  5
348
100
AcDbEntity
  8
0
100
AcDbSpline
 62
7
  6
CONTINUOUS
 70
0
 71
3
 72
39
 73
35
 74
0
 42
0.0000001
 43
0.0000001
 44
0.0000000001
 40
0.0
 40
0.0
 40
0.0
 40
0.0
 40
0.0007004351
 40
0.002533698
 40
0.0055416289
 40
0.0097249899
 40
0.0150793578
 40
0.021597452
 40
0.0380508858
 40
0.0589158508
 40
0.0840099513
 40
0.1130854202
 40
0.1458599367
 40
0.1820330436
 40
0.221246163
 40
0.3072822692
 40
0.400680619
 40
0.4978768147
 40
0.5951553471
 40
0.6887967456
 40
0.7752271439
 40
0.8146906626
 40
0.8511450124
 40
0.8842301137
 40
0.9136432472
 40
0.9390959788
 40
0.9603404449
 40
0.9771893912
 40
0.9839090609
 40
0.9894680318
 40
0.9938584378
 40
0.9970742859
 40
0.9991135808
 40
1.0
 40
1.0
 40
1.0
 40
1.0
 10
115.4939160412
 20
241.6392389718
 30
0.0
 10
115.4945166147
 20
241.6396000039
 30
0.0
 10
115.4933646325
 20
241.6429295138
 30
0.0
 10
115.4919010757
 20
241.6473586317
 30
0.0
 10
115.4878901177
 20
241.65600333
 30
0.0
 10
115.4825165522
 20
241.6671037183
 30
0.0
 10
115.4751745435
 20
241.6814860508
 30
0.0
 10
115.4620351953
 20
241.7065491564
 30
0.0
 10
115.4411534424
 20
241.7451452138
 30
0.0
 10
115.4109626078
 20
241.7997880165
 30
0.0
 10
115.3742440258
 20
241.8652665889
 30
0.0
 10
115.331360836
 20
241.9409410897
 30
0.0
 10
115.2827139217
 20
242.0260904347
 30
0.0
 10
115.2287691752
 20
242.1198923584
 30
0.0
 10
115.1479281034
 20
242.2596937428
 30
0.0
 10
115.0378319922
 20
242.448709847
 30
0.0
 10
114.8977581403
 20
242.6873939094
 30
0.0
 10
114.7512630977
 20
242.9353492224
 30
0.0
 10
114.6039450224
 20
243.1830993671
 30
0.0
 10
114.4614343923
 20
243.4211760648
 30
0.0
 10
114.3480188116
 20
243.6092571103
 30
0.0
 10
114.2637144303
 20
243.7480825992
 30
0.0
 10
114.2068930049
 20
243.8411591114
 30
0.0
 10
114.1550743448
 20
243.9255093142
 30
0.0
 10
114.108760481
 20
244.0003224475
 30
0.0
 10
114.0683979592
 20
244.0648899902
 30
0.0
 10
114.0343711824
 20
244.1185854518
 30
0.0
 10
114.0100492109
 20
244.1562618366
 30
0.0
 10
113.9939452625
 20
244.1805275485
 30
0.0
 10
113.9845741834
 20
244.1943668775
 30
0.0
 10
113.9770025723
 20
244.2050271365
 30
0.0
 10
113.9712344112
 20
244.2130422487
 30
0.0
 10
113.9673424095
 20
244.2172728807
 30
0.0
 10
113.965189928
 20
244.2199288188
 30
0.0
 10
113.9643031303
 20
244.219926198
 30
0.0
  0
SPLINE
  5
349
100
AcDbEntity
  8
0
100
AcDbSpline
 62
7
  6
CONTINUOUS
 70
0
 71
3
 72
8
 73
4
 74
0
 42
0.0000001
 43
0.0000001
 44
0.0000000001
 40
0.0
 40
0.0
 40
0.0
 40
0.0
 40
1.0
 40
1.0
 40
1.0
 40
1.0
 10
136.9797496301
 20
122.5475919798
 30
0.0
 10
136.8801389165
 20
121.9379637477
 30
0.0
 10
136.7602920753
 20
121.3308443939
 30
0.0
 10
136.6095345294
 20
120.7318109741
 30
0.0
  0
SPLINE
  5
34A
100
AcDbEntity
  8
0
100
AcDbSpline
 62
7
  6
CONTINUOUS
 70
0
 71
3
 72
18
 73
14
 74
0
 42
0.0000001
 43
0.0000001
 44
0.0000000001
 40
0.0
 40
0.0
 40
0.0
 40
0.0
 40
0.2009668628
 40
0.3907665269
 40
0.5631835106
 40
0.7127397212
 40
0.8345982168
 40
0.8838817172
 40
0.9248499353
 40
0.9571650237
 40
0.9805812966
 40
0.9948911243
 40
1.0
 40
1.0
 40
1.0
 40
1.0
 10
114.4887401091
 20
225.7001057164
 30
0.0
 10
115.1761617787
 20
225.6637752366
 30
0.0
 10
116.5130289673
 20
225.597261115
 30
0.0
 10
118.4403008159
 20
225.5130896813
 30
0.0
 10
120.1920480314
 20
225.4466047691
 30
0.0
 10
121.7115093961
 20
225.3966784757
 30
0.0
 10
122.8095751131
 20
225.3654721018
 30
0.0
 10
123.5358745575
 20
225.3465956296
 30
0.0
 10
123.9556035525
 20
225.336595237
 30
0.0
 10
124.2866866446
 20
225.3280929944
 30
0.0
 10
124.5266652548
 20
225.3242287123
 30
0.0
 10
124.6731225094
 20
225.3178629874
 30
0.0
 10
124.7398628103
 20
225.319364521
 30
0.0
 10
124.7572459846
 20
225.3173486865
 30
0.0
  0
SPLINE
  5
34B
100
AcDbEntity
  8
0
100
AcDbSpline
 62
7
  6
CONTINUOUS
 70
0
 71
3
 72
15
 73
11
 74
0
 42
0.0000001
 43
0.0000001
 44
0.0000000001
 40
0.0
 40
0.0
 40
0.0
 40
0.0
 40
0.1656678129
 40
0.3197752687
 40
0.4060389483
 40
0.5198483144
 40
0.5990003638
 40
0.7035127249
 40
0.8375482219
 40
1.0
 40
1.0
 40
1.0
 40
1.0
 10
140.5770296248
 20
220.1082651688
 30
0.0
 10
140.4888975436
 20
220.3459870841
 30
0.0
 10
140.3120692762
 20
220.8023736947
 30
0.0
 10
140.0550812527
 20
221.3690187097
 30
0.0
 10
139.7885239474
 20
221.841536838
 30
0.0
 10
139.5392661741
 20
222.1902726777
 30
0.0
 10
139.2322064875
 20
222.5274882857
 30
0.0
 10
138.8575177989
 20
222.8402806359
 30
0.0
 10
138.3253139917
 20
223.1527586197
 30
0.0
 10
137.8875002971
 20
223.2916815868
 30
0.0
 10
137.6432025175
 20
223.3377918174
 30
0.0
  0
SPLINE
  5
34C
100
AcDbEntity
  8
0
100
AcDbSpline
 62
7
  6
CONTINUOUS
 70
0
 71
3
 72
9
 73
5
 74
0
 42
0.0000001
 43
0.0000001
 44
0.0000000001
 40
0.0
 40
0.0
 40
0.0
 40
0.0
 40
0.2499671194
 40
1.0
 40
1.0
 40
1.0
 40
1.0
 10
146.9812037182
 20
191.9240400509
 30
0.0
 10
146.5400891547
 20
193.9088670929
 30
0.0
 10
144.7752509821
 20
201.8491867414
 30
0.0
 10
143.0098216094
 20
209.7893749881
 30
0.0
 10
141.6853592198
 20
215.7447033371
 30
0.0
  0
SPLINE
  5
34D
100
AcDbEntity
  8
0
100
AcDbSpline
 62
7
  6
CONTINUOUS
 70
0
 71
3
 72
14
 73
10
 74
0
 42
0.0000001
 43
0.0000001
 44
0.0000000001
 40
0.0
 40
0.0
 40
0.0
 40
0.0
 40
0.347517421
 40
0.4987397441
 40
0.631847362
 40
0.7462903273
 40
0.8431383601
 40
0.9257122108
 40
1.0
 40
1.0
 40
1.0
 40
1.0
 10
120.9189404554
 20
28.533166183
 30
0.0
 10
121.7812788328
 20
28.6261470766
 30
0.0
 10
123.0154402134
 20
28.8391045646
 30
0.0
 10
124.5170365217
 20
29.3282899514
 30
0.0
 10
125.4256311385
 20
29.7408758627
 30
0.0
 10
126.1532399444
 20
30.2053401492
 30
0.0
 10
126.6909157774
 20
30.7128187481
 30
0.0
 10
127.0288496641
 20
31.2594304962
 30
0.0
 10
127.1089996671
 20
31.6537239425
 30
0.0
 10
127.1091275989
 20
31.8391319409
 30
0.0
  0
SPLINE
  5
34E
100
AcDbEntity
  8
0
100
AcDbSpline
 62
7
  6
CONTINUOUS
 70
0
 71
3
 72
9
 73
5
 74
0
 42
0.0000001
 43
0.0000001
 44
0.0000000001
 40
0.0
 40
0.0
 40
0.0
 40
0.0
 40
0.2597876379
 40
1.0
 40
1.0
 40
1.0
 40
1.0
 10
121.0636908993
 20
96.0427762545
 30
0.0
 10
121.0542924436
 20
96.048647925
 30
0.0
 10
121.0170589702
 20
96.0693930071
 30
0.0
 10
120.9747784094
 20
96.0820482122
 30
0.0
 10
120.9432610747
 20
96.0839639291
 30
0.0
  0
SPLINE
  5
34F
100
AcDbEntity
  8
0
100
AcDbSpline
 62
7
  6
CONTINUOUS
 70
0
 71
3
 72
9
 73
5
 74
0
 42
0.0000001
 43
0.0000001
 44
0.0000000001
 40
0.0
 40
0.0
 40
0.0
 40
0.0
 40
0.5177933513
 40
1.0
 40
1.0
 40
1.0
 40
1.0
 10
134.8799381955
 20
118.8976099466
 30
0.0
 10
135.0816073288
 20
119.0781197877
 30
0.0
 10
135.5024925369
 20
119.3885166305
 30
0.0
 10
135.9018159092
 20
119.7292153168
 30
0.0
 10
136.0737297342
 20
119.9135430556
 30
0.0
  0
SPLINE
  5
350
100
AcDbEntity
  8
0
100
AcDbSpline
 62
7
  6
CONTINUOUS
 70
0
 71
3
 72
13
 73
9
 74
0
 42
0.0000001
 43
0.0000001
 44
0.0000000001
 40
0.0
 40
0.0
 40
0.0
 40
0.0
 40
0.3693312373
 40
0.5374158212
 40
0.6846692804
 40
0.8050146478
 40
0.896263373
 40
1.0
 40
1.0
 40
1.0
 40
1.0
 10
135.9568791927
 20
125.6352945662
 30
0.0
 10
136.1531994967
 20
125.6162916592
 30
0.0
 10
136.4398804373
 20
125.5974493166
 30
0.0
 10
136.8059932646
 20
125.6003268261
 30
0.0
 10
137.0375366218
 20
125.6153225417
 30
0.0
 10
137.229495955
 20
125.6462687787
 30
0.0
 10
137.385511809
 20
125.6887571669
 30
0.0
 10
137.4927242605
 20
125.7568008049
 30
0.0
 10
137.5013880929
 20
125.8115187165
 30
0.0
  0
SPLINE
  5
351
100
AcDbEntity
  8
0
100
AcDbSpline
 62
7
  6
CONTINUOUS
 70
0
 71
3
 72
18
 73
14
 74
0
 42
0.0000001
 43
0.0000001
 44
0.0000000001
 40
0.0
 40
0.0
 40
0.0
 40
0.0
 40
0.2049425225
 40
0.3968933224
 40
0.5696247903
 40
0.7182785993
 40
0.838573302
 40
0.8870432741
 40
0.9272012567
 40
0.9586979973
 40
0.9813762718
 40
0.9951388663
 40
1.0
 40
1.0
 40
1.0
 40
1.0
 10
138.2705967447
 20
135.8533086313
 30
0.0
 10
138.3240063482
 20
135.8452542251
 30
0.0
 10
138.4275507982
 20
135.8303972367
 30
0.0
 10
138.5761960576
 20
135.8093692981
 30
0.0
 10
138.7099675309
 20
135.7890787903
 30
0.0
 10
138.8250673044
 20
135.7718525134
 30
0.0
 10
138.9080686581
 20
135.7608544234
 30
0.0
 10
138.9626486712
 20
135.7543905024
 30
0.0
 10
138.9943168725
 20
135.7507449046
 30
0.0
 10
139.0185117308
 20
135.7485132815
 30
0.0
 10
139.037562903
 20
135.7460833802
 30
0.0
 10
139.0462557392
 20
135.7468605053
 30
0.0
 10
139.0535029648
 20
135.7454110636
 30
0.0
 10
139.0537386707
 20
135.7466703681
 30
0.0
  0
SPLINE
  5
352
100
AcDbEntity
  8
0
100
AcDbSpline
 62
7
  6
CONTINUOUS
 70
0
 71
3
 72
15
 73
11
 74
0
 42
0.0000001
 43
0.0000001
 44
0.0000000001
 40
0.0
 40
0.0
 40
0.0
 40
0.0
 40
0.3867501277
 40
0.5632343718
 40
0.7169883377
 40
0.8402671057
 40
0.9290352805
 40
0.9812267325
 40
0.9943036477
 40
1.0
 40
1.0
 40
1.0
 40
1.0
 10
146.344673054
 20
189.1308382103
 30
0.0
 10
146.4407587154
 20
189.1153848249
 30
0.0
 10
146.5805429175
 20
189.0920840701
 30
0.0
 10
146.758152874
 20
189.06001025
 30
0.0
 10
146.870095953
 20
189.0385408092
 30
0.0
 10
146.9605581915
 20
189.0195331484
 30
0.0
 10
147.0244546155
 20
189.0045711301
 30
0.0
 10
147.0631162042
 20
188.9932741857
 30
0.0
 10
147.078293495
 20
188.9868778343
 30
0.0
 10
147.0830136286
 20
188.9832838459
 30
0.0
 10
147.0828138785
 20
188.9818644225
 30
0.0
  0
SPLINE
  5
353
100
AcDbEntity
  8
0
100
AcDbSpline
 62
7
  6
CONTINUOUS
 70
0
 71
3
 72
14
 73
10
 74
0
 42
0.0000001
 43
0.0000001
 44
0.0000000001
 40
0.0
 40
0.0
 40
0.0
 40
0.0
 40
0.3853925132
 40
0.5614280238
 40
0.714901081
 40
0.8380907814
 40
0.9270223905
 40
0.979797046
 40
1.0
 40
1.0
 40
1.0
 40
1.0
 10
146.255217202
 20
191.7070075747
 30
0.0
 10
146.3503281428
 20
191.7295588465
 30
0.0
 10
146.4887035097
 20
191.7636009719
 30
0.0
 10
146.6636957443
 20
191.8102684344
 30
0.0
 10
146.774644389
 20
191.8417991593
 30
0.0
 10
146.8618804278
 20
191.8688927623
 30
0.0
 10
146.9283506847
 20
191.8921015301
 30
0.0
 10
146.960666647
 20
191.9067927444
 30
0.0
 10
146.9822417693
 20
191.9189952811
 30
0.0
 10
146.9812046367
 20
191.9240133413
 30
0.0
  0
SPLINE
  5
354
100
AcDbEntity
  8
0
100
AcDbSpline
 62
7
  6
CONTINUOUS
 70
0
 71
3
 72
14
 73
10
 74
0
 42
0.0000001
 43
0.0000001
 44
0.0000000001
 40
0.0
 40
0.0
 40
0.0
 40
0.0
 40
0.3837879762
 40
0.5602509726
 40
0.7145002149
 40
0.8384215177
 40
0.9278054607
 40
0.9805621885
 40
1.0
 40
1.0
 40
1.0
 40
1.0
 10
140.9314878795
 20
215.5275356091
 30
0.0
 10
141.0295278896
 20
215.5504744681
 30
0.0
 10
141.1725088591
 20
215.5850509916
 30
0.0
 10
141.3536716505
 20
215.632186797
 30
0.0
 10
141.4692899969
 20
215.6639309534
 30
0.0
 10
141.560054913
 20
215.6912133507
 30
0.0
 10
141.630088604
 20
215.7139045758
 30
0.0
 10
141.6627766853
 20
215.7287041462
 30
0.0
 10
141.6863770344
 20
215.7396793883
 30
0.0
 10
141.6853606456
 20
215.7446766363
 30
0.0
  0
SPLINE
  5
355
100
AcDbEntity
  8
0
100
AcDbSpline
 62
7
  6
CONTINUOUS
 70
0
 71
3
 72
11
 73
7
 74
0
 42
0.0000001
 43
0.0000001
 44
0.0000000001
 40
0.0
 40
0.0
 40
0.0
 40
0.0
 40
0.2486885951
 40
0.5036804137
 40
0.7566855264
 40
1.0
 40
1.0
 40
1.0
 40
1.0
 10
138.3383220368
 20
221.9711234641
 30
0.0
 10
138.5852630279
 20
221.9258858741
 30
0.0
 10
139.0761024981
 20
221.7706525717
 30
0.0
 10
139.7289227108
 20
221.3578227445
 30
0.0
 10
140.2492115465
 20
220.7944295833
 30
0.0
 10
140.4870751095
 20
220.3463224283
 30
0.0
 10
140.5738323373
 20
220.1165291912
 30
0.0
  0
SPLINE
  5
356
100
AcDbEntity
  8
0
100
AcDbSpline
 62
7
  6
CONTINUOUS
 70
0
 71
3
 72
9
 73
5
 74
0
 42
0.0000001
 43
0.0000001
 44
0.0000000001
 40
0.0
 40
0.0
 40
0.0
 40
0.0
 40
0.4980681103
 40
1.0
 40
1.0
 40
1.0
 40
1.0
 10
127.1339579658
 20
93.5023345914
 30
0.0
 10
127.1505915817
 20
94.5130887499
 30
0.0
 10
127.177170524
 20
96.5426300813
 30
0.0
 10
127.1664295866
 20
98.5722936288
 30
0.0
 10
127.1604009155
 20
99.591008826
 30
0.0
  0
SPLINE
  5
357
100
AcDbEntity
  8
0
100
AcDbSpline
 62
7
  6
CONTINUOUS
 70
0
 71
3
 72
10
 73
6
 74
0
 42
0.0000001
 43
0.0000001
 44
0.0000000001
 40
0.0
 40
0.0
 40
0.0
 40
0.0
 40
0.2213871988
 40
0.4407026808
 40
1.0
 40
1.0
 40
1.0
 40
1.0
 10
127.1311956444
 20
93.1773627246
 30
0.0
 10
127.1311604223
 20
93.1618449012
 30
0.0
 10
127.1255792914
 20
93.1303273654
 30
0.0
 10
127.0822495699
 20
93.0724661254
 30
0.0
 10
127.0261123116
 20
93.054234935
 30
0.0
 10
126.9876385358
 20
93.0467073865
 30
0.0
  0
SPLINE
  5
358
100
AcDbEntity
  8
0
100
AcDbSpline
 62
7
  6
CONTINUOUS
 70
0
 71
3
 72
15
 73
11
 74
0
 42
0.0000001
 43
0.0000001
 44
0.0000000001
 40
0.0
 40
0.0
 40
0.0
 40
0.0
 40
0.0196868019
 40
0.0457913528
 40
0.1183553883
 40
0.2173102258
 40
0.3408038281
 40
0.4852963975
 40
0.6461626469
 40
1.0
 40
1.0
 40
1.0
 40
1.0
 10
126.9876385358
 20
93.0467073865
 30
0.0
 10
126.9445127976
 20
93.038269663
 30
0.0
 10
126.8414143067
 20
93.0340282021
 30
0.0
 10
126.5785839085
 20
93.0644605737
 30
0.0
 10
126.1519670728
 20
93.1850978438
 30
0.0
 10
125.539027293
 20
93.4266045668
 30
0.0
 10
124.8028703466
 20
93.7875188968
 30
0.0
 10
123.9651750591
 20
94.2510697601
 30
0.0
 10
122.7020038384
 20
95.0060988181
 30
0.0
 10
121.7335200422
 20
95.6242926393
 30
0.0
 10
121.0636871238
 20
96.042769673
 30
0.0
  0
SPLINE
  5
359
100
AcDbEntity
  8
0
100
AcDbSpline
 62
7
  6
CONTINUOUS
 70
0
 71
3
 72
15
 73
11
 74
0
 42
0.0000001
 43
0.0000001
 44
0.0000000001
 40
0.0
 40
0.0
 40
0.0
 40
0.0
 40
0.3461173909
 40
0.5128675383
 40
0.6628438797
 40
0.7876489777
 40
0.8836791704
 40
0.9207834491
 40
0.9515839629
 40
1.0
 40
1.0
 40
1.0
 40
1.0
 10
120.9189404554
 20
28.533166183
 30
0.0
 10
121.0546651749
 20
27.9670670619
 30
0.0
 10
121.2192953492
 20
27.1181744378
 30
0.0
 10
121.3345871453
 20
26.0088136173
 30
0.0
 10
121.3597417916
 20
25.2654842261
 30
0.0
 10
121.3167538563
 20
24.6424740055
 30
0.0
 10
121.2275216159
 20
24.2145702821
 30
0.0
 10
121.1158748642
 20
23.9608059146
 30
0.0
 10
121.0072496598
 20
23.7980468578
 30
0.0
 10
120.8916090102
 20
23.7136815967
 30
0.0
 10
120.8127871159
 20
23.6932299218
 30
0.0
  0
SPLINE
  5
35A
100
AcDbEntity
  8
0
100
AcDbSpline
 62
7
  6
CONTINUOUS
 70
0
 71
3
 72
15
 73
11
 74
0
 42
0.0000001
 43
0.0000001
 44
0.0000000001
 40
0.0
 40
0.0
 40
0.0
 40
0.0
 40
0.3712728397
 40
0.6863298852
 40
0.8087216537
 40
0.8592508374
 40
0.902186874
 40
0.9374036184
 40
0.9649700504
 40
1.0
 40
1.0
 40
1.0
 40
1.0
 10
114.6063038277
 20
26.8987221162
 30
0.0
 10
114.678753352
 20
26.2940639257
 30
0.0
 10
114.7835590977
 20
25.1727443922
 30
0.0
 10
114.8295655311
 20
23.8453610158
 30
0.0
 10
114.793458614
 20
23.0452672407
 30
0.0
 10
114.7541614182
 20
22.6930269173
 30
0.0
 10
114.7192564795
 20
22.4852451408
 30
0.0
 10
114.6761698226
 20
22.3154517939
 30
0.0
 10
114.6209149643
 20
22.1692771484
 30
0.0
 10
114.5524050827
 20
22.0723384209
 30
0.0
 10
114.4967870212
 20
22.0579138017
 30
0.0
  0
SPLINE
  5
35B
100
AcDbEntity
  8
0
100
AcDbSpline
 62
7
  6
CONTINUOUS
 70
0
 71
3
 72
9
 73
5
 74
0
 42
0.0000001
 43
0.0000001
 44
0.0000000001
 40
0.0
 40
0.0
 40
0.0
 40
0.0
 40
0.2122897765
 40
1.0
 40
1.0
 40
1.0
 40
1.0
 10
114.4887401091
 20
225.7001057164
 30
0.0
 10
114.5014347189
 20
225.6461952285
 30
0.0
 10
114.5572026362
 20
225.3912986804
 30
0.0
 10
114.6005098216
 20
225.1338388901
 30
0.0
 10
114.6316062878
 20
224.9306969477
 30
0.0
  0
SPLINE
  5
35C
100
AcDbEntity
  8
0
100
AcDbSpline
 62
7
  6
CONTINUOUS
 70
0
 71
3
 72
12
 73
8
 74
0
 42
0.0000001
 43
0.0000001
 44
0.0000000001
 40
0.0
 40
0.0
 40
0.0
 40
0.0
 40
0.402542164
 40
0.7013229113
 40
0.8976010297
 40
0.9591729814
 40
1.0
 40
1.0
 40
1.0
 40
1.0
 10
138.3383220368
 20
221.9711234641
 30
0.0
 10
138.2663238757
 20
222.1666161104
 30
0.0
 10
138.1365110075
 20
222.5060711707
 30
0.0
 10
137.9489315927
 20
222.9301071408
 30
0.0
 10
137.8100228392
 20
223.1855161431
 30
0.0
 10
137.7104875464
 20
223.3033114828
 30
0.0
 10
137.6639560769
 20
223.3339438211
 30
0.0
 10
137.6431933881
 20
223.3378631778
 30
0.0
  0
SPLINE
  5
35D
100
AcDbEntity
  8
0
100
AcDbSpline
 62
7
  6
CONTINUOUS
 70
0
 71
3
 72
9
 73
5
 74
0
 42
0.0000001
 43
0.0000001
 44
0.0000000001
 40
0.0
 40
0.0
 40
0.0
 40
0.0
 40
0.253670551
 40
1.0
 40
1.0
 40
1.0
 40
1.0
 10
131.3372730891
 20
117.2349612621
 30
0.0
 10
131.4853518172
 20
117.2453657347
 30
0.0
 10
132.0688716315
 20
117.2892290163
 30
0.0
 10
132.6514446785
 20
117.3478650409
 30
0.0
 10
133.0844309351
 20
117.4050000041
 30
0.0
  0
SPLINE
  5
35E
100
AcDbEntity
  8
0
100
AcDbSpline
 62
7
  6
CONTINUOUS
 70
0
 71
3
 72
8
 73
4
 74
0
 42
0.0000001
 43
0.0000001
 44
0.0000000001
 40
0.0
 40
0.0
 40
0.0
 40
0.0
 40
1.0
 40
1.0
 40
1.0
 40
1.0
 10
133.0844309351
 20
117.4050000041
 30
0.0
 10
133.7056029691
 20
117.8739260649
 30
0.0
 10
134.2999873705
 20
118.3785660216
 30
0.0
 10
134.87992091
 20
118.8976261683
 30
0.0
  0
SPLINE
  5
35F
100
AcDbEntity
  8
0
100
AcDbSpline
 62
7
  6
CONTINUOUS
 70
0
 71
3
 72
12
 73
8
 74
0
 42
0.0000001
 43
0.0000001
 44
0.0000000001
 40
0.0
 40
0.0
 40
0.0
 40
0.0
 40
0.238429749
 40
0.4876324692
 40
0.6145658359
 40
0.74238861
 40
1.0
 40
1.0
 40
1.0
 40
1.0
 10
134.87992091
 20
118.8976261683
 30
0.0
 10
134.9421965822
 20
119.4364003255
 30
0.0
 10
135.091771357
 20
120.5359976704
 30
0.0
 10
135.3451301272
 20
121.9110068104
 30
0.0
 10
135.5529627563
 20
123.0383634909
 30
0.0
 10
135.7494856357
 20
124.1871968327
 30
0.0
 10
135.8796308415
 20
125.0544142639
 30
0.0
 10
135.9568791482
 20
125.6352946112
 30
0.0
  0
SPLINE
  5
360
100
AcDbEntity
  8
0
100
AcDbSpline
 62
7
  6
CONTINUOUS
 70
0
 71
3
 72
9
 73
5
 74
0
 42
0.0000001
 43
0.0000001
 44
0.0000000001
 40
0.0
 40
0.0
 40
0.0
 40
0.0
 40
0.2515223717
 40
1.0
 40
1.0
 40
1.0
 40
1.0
 10
135.95684885
 20
125.6353100497
 30
0.0
 10
135.5674691825
 20
124.9321600637
 30
0.0
 10
134.0226197059
 20
122.1347874136
 30
0.0
 10
132.4872137297
 20
119.332217259
 30
0.0
 10
131.3372441971
 20
117.2349735101
 30
0.0
  0
SPLINE
  5
361
100
AcDbEntity
  8
0
100
AcDbSpline
 62
7
  6
CONTINUOUS
 70
0
 71
3
 72
9
 73
5
 74
0
 42
0.0000001
 43
0.0000001
 44
0.0000000001
 40
0.0
 40
0.0
 40
0.0
 40
0.0
 40
0.2272873152
 40
1.0
 40
1.0
 40
1.0
 40
1.0
 10
127.2309405915
 20
99.712238651
 30
0.0
 10
127.2307234285
 20
99.7014032641
 30
0.0
 10
127.2227060843
 20
99.6537638332
 30
0.0
 10
127.1894269498
 20
99.6137032934
 30
0.0
 10
127.1604009128
 20
99.5910092935
 30
0.0
  0
SPLINE
  5
362
100
AcDbEntity
  8
0
100
AcDbSpline
 62
7
  6
CONTINUOUS
 70
0
 71
3
 72
16
 73
12
 74
0
 42
0.0000001
 43
0.0000001
 44
0.0000000001
 40
0.0
 40
0.0
 40
0.0
 40
0.0
 40
0.4071499948
 40
0.5823571556
 40
0.7311542193
 40
0.8493447301
 40
0.9334843806
 40
0.9626655584
 40
0.9833808384
 40
0.9957391252
 40
1.0
 40
1.0
 40
1.0
 40
1.0
 10
131.5991115514
 20
116.2233464544
 30
0.0
 10
131.6383693617
 20
116.1699608686
 30
0.0
 10
131.6944059216
 20
116.0935019281
 30
0.0
 10
131.7642891298
 20
115.9972183471
 30
0.0
 10
131.8063973516
 20
115.9387738466
 30
0.0
 10
131.8393668024
 20
115.8923004255
 30
0.0
 10
131.8612541681
 20
115.8612014472
 30
0.0
 10
131.8730081529
 20
115.843369127
 30
0.0
 10
131.8792103058
 20
115.8344315532
 30
0.0
 10
131.8811074938
 20
115.8299756215
 30
0.0
 10
131.8835782368
 20
115.8267373385
 30
0.0
 10
131.8830212444
 20
115.8263242065
 30
0.0
  0
SPLINE
  5
363
100
AcDbEntity
  8
0
100
AcDbSpline
 62
7
  6
CONTINUOUS
 70
0
 71
3
 72
9
 73
5
 74
0
 42
0.0000001
 43
0.0000001
 44
0.0000000001
 40
0.0
 40
0.0
 40
0.0
 40
0.0
 40
0.5433503277
 40
1.0
 40
1.0
 40
1.0
 40
1.0
 10
113.5556471115
 20
215.5374260973
 30
0.0
 10
113.5560934716
 20
216.7771961893
 30
0.0
 10
113.5467429542
 20
219.0589124586
 30
0.0
 10
113.5153822727
 20
221.3405017844
 30
0.0
 10
113.4907074362
 20
222.3821536278
 30
0.0
  0
LINE
  5
364
100
AcDbEntity
  8
0
100
AcDbLine
 62
7
  6
CONTINUOUS
 10
113.4907074362
 20
222.3821536278
 11
113.4895805365
 21
222.4293782547
  0
SPLINE
  5
365
100
AcDbEntity
  8
0
100
AcDbSpline
 62
7
  6
CONTINUOUS
 70
0
 71
3
 72
9
 73
5
 74
0
 42
0.0000001
 43
0.0000001
 44
0.0000000001
 40
0.0
 40
0.0
 40
0.0
 40
0.0
 40
0.2854071223
 40
1.0
 40
1.0
 40
1.0
 40
1.0
 10
113.4508869703
 20
223.7080309159
 30
0.0
 10
113.4481576067
 20
223.7786344573
 30
0.0
 10
113.438086456
 20
224.02599056
 30
0.0
 10
113.4261155345
 20
224.273285698
 30
0.0
 10
113.4151026474
 20
224.4498494162
 30
0.0
  0
SPLINE
  5
366
100
AcDbEntity
  8
0
100
AcDbSpline
 62
7
  6
CONTINUOUS
 70
0
 71
3
 72
9
 73
5
 74
0
 42
0.0000001
 43
0.0000001
 44
0.0000000001
 40
0.0
 40
0.0
 40
0.0
 40
0.0
 40
0.3167774006
 40
1.0
 40
1.0
 40
1.0
 40
1.0
 10
113.4151026474
 20
224.4498494162
 30
0.0
 10
113.4120581649
 20
224.4986599718
 30
0.0
 10
113.4015610584
 20
224.6526554395
 30
0.0
 10
113.3895014018
 20
224.8067502567
 30
0.0
 10
113.3748621308
 20
224.911208176
 30
0.0
  0
SPLINE
  5
367
100
AcDbEntity
  8
0
100
AcDbSpline
 62
7
  6
CONTINUOUS
 70
0
 71
3
 72
9
 73
5
 74
0
 42
0.0000001
 43
0.0000001
 44
0.0000000001
 40
0.0
 40
0.0
 40
0.0
 40
0.0
 40
0.2933961705
 40
1.0
 40
1.0
 40
1.0
 40
1.0
 10
127.1810636073
 20
100.577694038
 30
0.0
 10
127.1951405266
 20
100.5851334445
 30
0.0
 10
127.2407206406
 20
100.6136510655
 30
0.0
 10
127.2777513699
 20
100.66306917
 30
0.0
 10
127.282222337
 20
100.70115312
 30
0.0
  0
SPLINE
  5
368
100
AcDbEntity
  8
0
100
AcDbSpline
 62
7
  6
CONTINUOUS
 70
0
 71
3
 72
8
 73
4
 74
0
 42
0.0000001
 43
0.0000001
 44
0.0000000001
 40
0.0
 40
0.0
 40
0.0
 40
0.0
 40
1.0
 40
1.0
 40
1.0
 40
1.0
 10
131.59914285
 20
116.2233062623
 30
0.0
 10
132.1228188792
 20
116.5783261174
 30
0.0
 10
132.6139217168
 20
116.9820380678
 30
0.0
 10
133.0844322674
 20
117.4049984713
 30
0.0
  0
SPLINE
  5
369
100
AcDbEntity
  8
0
100
AcDbSpline
 62
7
  6
CONTINUOUS
 70
0
 71
3
 72
9
 73
5
 74
0
 42
0.0000001
 43
0.0000001
 44
0.0000000001
 40
0.0
 40
0.0
 40
0.0
 40
0.0
 40
0.4979288388
 40
1.0
 40
1.0
 40
1.0
 40
1.0
 10
131.3374889129
 20
117.2349753427
 30
0.0
 10
129.5973305656
 20
114.0613540755
 30
0.0
 10
126.2151427608
 20
107.6257817071
 30
0.0
 10
122.9889334098
 20
101.1116364314
 30
0.0
 10
121.3935733548
 20
97.8293023727
 30
0.0
  0
SPLINE
  5
36A
100
AcDbEntity
  8
0
100
AcDbSpline
 62
7
  6
CONTINUOUS
 70
0
 71
3
 72
9
 73
5
 74
0
 42
0.0000001
 43
0.0000001
 44
0.0000000001
 40
0.0
 40
0.0
 40
0.0
 40
0.0
 40
0.2439547869
 40
1.0
 40
1.0
 40
1.0
 40
1.0
 10
113.44472541
 20
116.3840739111
 30
0.0
 10
113.457879724
 20
117.9680467253
 30
0.0
 10
113.504747796
 20
124.4609989676
 30
0.0
 10
113.5251942075
 20
130.9541370393
 30
0.0
 10
113.5269616497
 20
135.8632281737
 30
0.0
  0
SPLINE
  5
36B
100
AcDbEntity
  8
0
100
AcDbSpline
 62
7
  6
CONTINUOUS
 70
0
 71
3
 72
14
 73
10
 74
0
 42
0.0000001
 43
0.0000001
 44
0.0000000001
 40
0.0
 40
0.0
 40
0.0
 40
0.0
 40
0.1384663037
 40
0.2752979033
 40
0.4100287753
 40
0.5416986827
 40
0.7893710827
 40
0.9008421537
 40
1.0
 40
1.0
 40
1.0
 40
1.0
 10
121.3935733548
 20
97.8293023727
 30
0.0
 10
121.6531382032
 20
97.9716901735
 30
0.0
 10
122.1767161753
 20
98.2408492042
 30
0.0
 10
122.9551831228
 20
98.643968188
 30
0.0
 10
123.7159375237
 20
99.04971077
 30
0.0
 10
124.6944049174
 20
99.550393225
 30
0.0
 10
125.6461518344
 20
99.9945803331
 30
0.0
 10
126.5558635484
 20
100.3589802618
 30
0.0
 10
126.9793617744
 20
100.5128975454
 30
0.0
 10
127.1812871873
 20
100.5775038995
 30
0.0
  0
LINE
  5
36C
100
AcDbEntity
  8
0
100
AcDbLine
 62
7
  6
CONTINUOUS
 10
127.1812871873
 20
100.5775038995
 11
127.193184337
 21
100.705886601
  0
SPLINE
  5
36D
100
AcDbEntity
  8
0
100
AcDbSpline
 62
7
  6
CONTINUOUS
 70
0
 71
3
 72
19
 73
15
 74
0
 42
0.0000001
 43
0.0000001
 44
0.0000000001
 40
0.0
 40
0.0
 40
0.0
 40
0.0
 40
0.117715114
 40
0.2398232717
 40
0.3637919113
 40
0.4889338526
 40
0.6149659744
 40
0.7417568768
 40
0.8055540082
 40
0.8697664265
 40
0.9020873374
 40
0.9345774123
 40
0.9672716972
 40
1.0
 40
1.0
 40
1.0
 40
1.0
 10
127.193184337
 20
100.705886601
 30
0.0
 10
127.2529484729
 20
101.3502199847
 30
0.0
 10
127.3796263606
 20
102.6628045581
 30
0.0
 10
127.664440923
 20
104.6426363025
 30
0.0
 10
127.9675465923
 20
106.6605421423
 30
0.0
 10
128.2989361627
 20
108.696179413
 30
0.0
 10
128.685553143
 20
110.7376876128
 30
0.0
 10
129.1300950905
 20
112.4248608246
 30
0.0
 10
129.6393259011
 20
113.7315257296
 30
0.0
 10
130.0466841697
 20
114.5161952482
 30
0.0
 10
130.443020829
 20
115.1053615291
 30
0.0
 10
130.7831565413
 20
115.5207733842
 30
0.0
 10
131.1644506238
 20
115.9018468026
 30
0.0
 10
131.4485815858
 20
116.1248180849
 30
0.0
 10
131.59914285
 20
116.2233062623
 30
0.0
  0
SPLINE
  5
36E
100
AcDbEntity
  8
0
100
AcDbSpline
 62
7
  6
CONTINUOUS
 70
0
 71
3
 72
9
 73
5
 74
0
 42
0.0000001
 43
0.0000001
 44
0.0000000001
 40
0.0
 40
0.0
 40
0.0
 40
0.0
 40
0.2439776464
 40
1.0
 40
1.0
 40
1.0
 40
1.0
 10
114.7046813392
 20
116.3836281088
 30
0.0
 10
114.6915118393
 20
114.7995062808
 30
0.0
 10
114.6446512568
 20
108.3065511051
 30
0.0
 10
114.6240797485
 20
101.8134107154
 30
0.0
 10
114.6222623327
 20
96.9044658431
 30
0.0
  0
SPLINE
  5
36F
100
AcDbEntity
  8
0
100
AcDbSpline
 62
7
  6
CONTINUOUS
 70
0
 71
3
 72
9
 73
5
 74
0
 42
0.0000001
 43
0.0000001
 44
0.0000000001
 40
0.0
 40
0.0
 40
0.0
 40
0.0
 40
0.2543087533
 40
1.0
 40
1.0
 40
1.0
 40
1.0
 10
113.3624891702
 20
96.9049196484
 30
0.0
 10
113.3630836797
 20
98.5561764438
 30
0.0
 10
113.3716575964
 20
105.0492899067
 30
0.0
 10
113.4045169085
 20
111.5423791453
 30
0.0
 10
113.44472541
 20
116.3840739111
 30
0.0
  0
SPLINE
  5
370
100
AcDbEntity
  8
0
100
AcDbSpline
 62
7
  6
CONTINUOUS
 70
0
 71
3
 72
17
 73
13
 74
0
 42
0.0000001
 43
0.0000001
 44
0.0000000001
 40
0.0
 40
0.0
 40
0.0
 40
0.0
 40
0.0625220611
 40
0.1250996786
 40
0.187688532
 40
0.2503080905
 40
0.3755638574
 40
0.5007375999
 40
0.6257673606
 40
0.7506390816
 40
0.8753764573
 40
1.0
 40
1.0
 40
1.0
 40
1.0
 10
114.6222623459
 20
96.9045013903
 30
0.0
 10
114.7477468405
 20
96.9539632315
 30
0.0
 10
115.0040040631
 20
97.0394826288
 30
0.0
 10
115.3919287686
 20
97.155365182
 30
0.0
 10
115.7828825515
 20
97.2618926721
 30
0.0
 10
116.3091916184
 20
97.3846189388
 30
0.0
 10
116.9728192575
 20
97.5112274412
 30
0.0
 10
117.7736047622
 20
97.6338944082
 30
0.0
 10
118.5772749938
 20
97.7293746273
 30
0.0
 10
119.3827306177
 20
97.7977990858
 30
0.0
 10
120.1888252234
 20
97.843722394
 30
0.0
 10
120.7265329737
 20
97.8626844818
 30
0.0
 10
120.995350179
 20
97.8671495263
 30
0.0
  0
SPLINE
  5
371
100
AcDbEntity
  8
0
100
AcDbSpline
 62
7
  6
CONTINUOUS
 70
0
 71
3
 72
8
 73
4
 74
0
 42
0.0000001
 43
0.0000001
 44
0.0000000001
 40
0.0
 40
0.0
 40
0.0
 40
0.0
 40
1.0
 40
1.0
 40
1.0
 40
1.0
 10
120.995350179
 20
97.8671495263
 30
0.0
 10
121.1286206159
 20
97.871339322
 30
0.0
 10
121.2632882967
 20
97.8576012934
 30
0.0
 10
121.3935471204
 20
97.8291196751
 30
0.0
  0
SPLINE
  5
372
100
AcDbEntity
  8
0
100
AcDbSpline
 62
7
  6
CONTINUOUS
 70
0
 71
3
 72
12
 73
8
 74
0
 42
0.0000001
 43
0.0000001
 44
0.0000000001
 40
0.0
 40
0.0
 40
0.0
 40
0.0
 40
0.2474542223
 40
0.3720782571
 40
0.4971782553
 40
0.7483612633
 40
1.0
 40
1.0
 40
1.0
 40
1.0
 10
135.9561568768
 20
125.6343437096
 30
0.0
 10
136.0859324693
 20
126.4897831639
 30
0.0
 10
136.2876058581
 20
127.7752645905
 30
0.0
 10
136.6111115174
 20
129.4834690761
 30
0.0
 10
136.9795755886
 20
131.1958457384
 30
0.0
 10
137.5069181537
 20
133.3276688685
 30
0.0
 10
137.9998362634
 20
135.0161496936
 30
0.0
 10
138.2706106838
 20
135.853306971
 30
0.0
  0
SPLINE
  5
373
100
AcDbEntity
  8
0
100
AcDbSpline
 62
7
  6
CONTINUOUS
 70
0
 71
3
 72
9
 73
5
 74
0
 42
0.0000001
 43
0.0000001
 44
0.0000000001
 40
0.0
 40
0.0
 40
0.0
 40
0.0
 40
0.2088769476
 40
1.0
 40
1.0
 40
1.0
 40
1.0
 10
113.281397548
 20
22.8143320271
 30
0.0
 10
113.2849943346
 20
22.910508924
 30
0.0
 10
113.3001691695
 20
23.3710326577
 30
0.0
 10
113.309516156
 20
23.8317290556
 30
0.0
 10
113.3155280271
 20
24.1962048595
 30
0.0
  0
SPLINE
  5
374
100
AcDbEntity
  8
0
100
AcDbSpline
 62
7
  6
CONTINUOUS
 70
0
 71
3
 72
9
 73
5
 74
0
 42
0.0000001
 43
0.0000001
 44
0.0000000001
 40
0.0
 40
0.0
 40
0.0
 40
0.0
 40
0.2290871185
 40
1.0
 40
1.0
 40
1.0
 40
1.0
 10
113.3155280271
 20
24.1962048595
 30
0.0
 10
113.3190674086
 20
24.4107834669
 30
0.0
 10
113.3319916667
 20
25.3474926246
 30
0.0
 10
113.3368942033
 20
26.2843029173
 30
0.0
 10
113.3373178342
 20
27.0064905583
 30
0.0
  0
LINE
  5
375
100
AcDbEntity
  8
0
100
AcDbLine
 62
7
  6
CONTINUOUS
 10
113.3373178342
 20
27.0064905583
 11
113.3373407605
 21
27.054924178
  0
SPLINE
  5
376
100
AcDbEntity
  8
0
100
AcDbSpline
 62
7
  6
CONTINUOUS
 70
0
 71
3
 72
9
 73
5
 74
0
 42
0.0000001
 43
0.0000001
 44
0.0000000001
 40
0.0
 40
0.0
 40
0.0
 40
0.0
 40
0.2543127009
 40
1.0
 40
1.0
 40
1.0
 40
1.0
 10
114.7864999782
 20
135.862774453
 30
0.0
 10
114.7859079754
 20
134.2114919764
 30
0.0
 10
114.7772840167
 20
127.7183784057
 30
0.0
 10
114.7445022566
 20
121.2252887393
 30
0.0
 10
114.7043112887
 20
116.3836193207
 30
0.0
  0
SPLINE
  5
377
100
AcDbEntity
  8
0
100
AcDbSpline
 62
7
  6
CONTINUOUS
 70
0
 71
3
 72
10
 73
6
 74
0
 42
0.0000001
 43
0.0000001
 44
0.0000000001
 40
0.0
 40
0.0
 40
0.0
 40
0.0
 40
0.2605284759
 40
0.5267448054
 40
1.0
 40
1.0
 40
1.0
 40
1.0
 10
114.7043134078
 20
116.3838746229
 30
0.0
 10
116.149973129
 20
116.4301711888
 30
0.0
 10
119.0726742177
 20
116.5303918754
 30
0.0
 10
124.6189282132
 20
116.7808290524
 30
0.0
 10
128.7165545005
 20
117.0405981793
 30
0.0
 10
131.3367568279
 20
117.2351621616
 30
0.0
  0
SPLINE
  5
378
100
AcDbEntity
  8
0
100
AcDbSpline
 62
7
  6
CONTINUOUS
 70
0
 71
3
 72
15
 73
11
 74
0
 42
0.0000001
 43
0.0000001
 44
0.0000000001
 40
0.0
 40
0.0
 40
0.0
 40
0.0
 40
0.0174290456
 40
0.0425686534
 40
0.1151609448
 40
0.2155474556
 40
0.3405952998
 40
0.4863911767
 40
0.6483303331
 40
1.0
 40
1.0
 40
1.0
 40
1.0
 10
114.6316062878
 20
224.9306969477
 30
0.0
 10
114.6398676882
 20
224.8767282131
 30
0.0
 10
114.6538883387
 20
224.7440273011
 30
0.0
 10
114.6812070729
 20
224.3843331677
 30
0.0
 10
114.7102051422
 20
223.764272929
 30
0.0
 10
114.7407188199
 20
222.8312102428
 30
0.0
 10
114.7670130843
 20
221.6685801391
 30
0.0
 10
114.7885336067
 20
220.3130338068
 30
0.0
 10
114.8100688746
 20
218.2475175836
 30
0.0
 10
114.8157061054
 20
216.6385957582
 30
0.0
 10
114.815309483
 20
215.5369723323
 30
0.0
  0
SPLINE
  5
379
100
AcDbEntity
  8
0
100
AcDbSpline
 62
7
  6
CONTINUOUS
 70
0
 71
3
 72
17
 73
13
 74
0
 42
0.0000001
 43
0.0000001
 44
0.0000000001
 40
0.0
 40
0.0
 40
0.0
 40
0.0
 40
0.1680200135
 40
0.2512491804
 40
0.3333243454
 40
0.4138034223
 40
0.4921081805
 40
0.6397052594
 40
0.7702975341
 40
0.8774857358
 40
0.9554806231
 40
1.0
 40
1.0
 40
1.0
 40
1.0
 10
140.9314878796
 20
215.527535614
 30
0.0
 10
140.8454481734
 20
215.907750433
 30
0.0
 10
140.7018265033
 20
216.4736613339
 30
0.0
 10
140.4504422126
 20
217.2054631674
 30
0.0
 10
140.2362120591
 20
217.7341433382
 30
0.0
 10
140.0102898089
 20
218.2452985686
 30
0.0
 10
139.713104194
 20
218.8910562935
 30
0.0
 10
139.3575220889
 20
219.6378497201
 30
0.0
 10
138.976651938
 20
220.4467898601
 30
0.0
 10
138.6761502339
 20
221.115098069
 30
0.0
 10
138.4698351662
 20
221.6064069427
 30
0.0
 10
138.368943257
 20
221.872476
 30
0.0
 10
138.3383220367
 20
221.9711234641
 30
0.0
  0
SPLINE
  5
37A
100
AcDbEntity
  8
0
100
AcDbSpline
 62
7
  6
CONTINUOUS
 70
0
 71
3
 72
13
 73
9
 74
0
 42
0.0000001
 43
0.0000001
 44
0.0000000001
 40
0.0
 40
0.0
 40
0.0
 40
0.0
 40
0.2522858257
 40
0.3793239311
 40
0.506812956
 40
0.6341817465
 40
0.7594653607
 40
1.0
 40
1.0
 40
1.0
 40
1.0
 10
120.9432614278
 20
96.0839846432
 30
0.0
 10
120.4052910068
 20
96.0938737687
 30
0.0
 10
119.5964205359
 20
96.1135705978
 30
0.0
 10
118.5168896523
 20
96.1704077875
 30
0.0
 10
117.7053093575
 20
96.2417749747
 30
0.0
 10
116.9018383426
 20
96.3542771871
 30
0.0
 10
115.8721514468
 20
96.5725092584
 30
0.0
 10
115.1218299491
 20
96.7883231248
 30
0.0
 10
114.6221558948
 20
96.9044861009
 30
0.0
  0
SPLINE
  5
37B
100
AcDbEntity
  8
0
100
AcDbSpline
 62
7
  6
CONTINUOUS
 70
0
 71
3
 72
9
 73
5
 74
0
 42
0.0000001
 43
0.0000001
 44
0.0000000001
 40
0.0
 40
0.0
 40
0.0
 40
0.0
 40
0.2500219861
 40
1.0
 40
1.0
 40
1.0
 40
1.0
 10
138.267257938
 20
135.8538364116
 30
0.0
 10
138.9407923982
 20
140.2939226919
 30
0.0
 10
141.6343521113
 20
158.0527577842
 30
0.0
 10
144.3265375885
 20
175.8118013142
 30
0.0
 10
146.3448283979
 20
189.1308130673
 30
0.0
  0
SPLINE
  5
37C
100
AcDbEntity
  8
0
100
AcDbSpline
 62
7
  6
CONTINUOUS
 70
0
 71
3
 72
9
 73
5
 74
0
 42
0.0000001
 43
0.0000001
 44
0.0000000001
 40
0.0
 40
0.0
 40
0.0
 40
0.0
 40
0.2499667758
 40
1.0
 40
1.0
 40
1.0
 40
1.0
 10
146.2552192537
 20
191.7070080638
 30
0.0
 10
145.8117842367
 20
193.6918217556
 30
0.0
 10
144.0376519431
 20
201.6320968078
 30
0.0
 10
142.2629188781
 20
209.5722376254
 30
0.0
 10
140.9314906534
 20
215.527535613
 30
0.0
  0
SPLINE
  5
37D
100
AcDbEntity
  8
0
100
AcDbSpline
 62
7
  6
CONTINUOUS
 70
0
 71
3
 72
11
 73
7
 74
0
 42
0.0000001
 43
0.0000001
 44
0.0000000001
 40
0.0
 40
0.0
 40
0.0
 40
0.0
 40
0.3289765849
 40
0.6116303451
 40
0.8312821891
 40
1.0
 40
1.0
 40
1.0
 40
1.0
 10
78.4243074512
 20
174.9074695452
 30
0.0
 10
78.4242683495
 20
174.798864259
 30
0.0
 10
78.4000164139
 20
174.5957950981
 30
0.0
 10
78.2982035118
 20
174.3376552001
 30
0.0
 10
78.1572763312
 20
174.1606138356
 30
0.0
 10
78.0300004471
 20
174.1076057462
 30
0.0
 10
77.9743015096
 20
174.1076249277
 30
0.0
  0
SPLINE
  5
37E
100
AcDbEntity
  8
0
100
AcDbSpline
 62
7
  6
CONTINUOUS
 70
0
 71
3
 72
13
 73
9
 74
0
 42
0.0000001
 43
0.0000001
 44
0.0000000001
 40
0.0
 40
0.0
 40
0.0
 40
0.0
 40
0.1163777762
 40
0.2698822067
 40
0.3968614784
 40
0.5745684307
 40
0.7821050331
 40
1.0
 40
1.0
 40
1.0
 40
1.0
 10
92.310968341
 20
222.6925351948
 30
0.0
 10
92.598724007
 20
222.9338286505
 30
0.0
 10
93.2732070551
 20
223.4848929121
 30
0.0
 10
94.3131766575
 20
224.2354180982
 30
0.0
 10
95.5932575682
 20
224.9794006201
 30
0.0
 10
97.1140496373
 20
225.6406887641
 30
0.0
 10
99.004216589
 20
226.1390333058
 30
0.0
 10
100.3801325418
 20
226.2592543517
 30
0.0
 10
101.0832477514
 20
226.2590281881
 30
0.0
  0
SPLINE
  5
37F
100
AcDbEntity
  8
0
100
AcDbSpline
 62
7
  6
CONTINUOUS
 70
0
 71
3
 72
11
 73
7
 74
0
 42
0.0000001
 43
0.0000001
 44
0.0000000001
 40
0.0
 40
0.0
 40
0.0
 40
0.0
 40
0.3291458793
 40
0.6117635796
 40
0.8313393197
 40
1.0
 40
1.0
 40
1.0
 40
1.0
 10
78.4330894329
 20
199.307467964
 30
0.0
 10
78.4331285545
 20
199.416128529
 30
0.0
 10
78.409047621
 20
199.6192700834
 30
0.0
 10
78.307309217
 20
199.8774590301
 30
0.0
 10
78.1665334491
 20
200.0545416
 30
0.0
 10
78.0393337731
 20
200.1076040698
 30
0.0
 10
77.983654009
 20
200.1076232447
 30
0.0
  0
SPLINE
  5
380
100
AcDbEntity
  8
0
100
AcDbSpline
 62
7
  6
CONTINUOUS
 70
0
 71
3
 72
39
 73
35
 74
0
 42
0.0000001
 43
0.0000001
 44
0.0000000001
 40
0.0
 40
0.0
 40
0.0
 40
0.0
 40
0.0008274489
 40
0.0027195915
 40
0.0057727003
 40
0.0099984208
 40
0.0153960573
 40
0.0219587978
 40
0.0385070257
 40
0.0594834759
 40
0.0847025455
 40
0.1139102444
 40
0.1468346536
 40
0.183157975
 40
0.2225266166
 40
0.3088759094
 40
0.4025653952
 40
0.4999959117
 40
0.597426588
 40
0.6911165474
 40
0.7774666093
 40
0.8168357374
 40
0.8531596072
 40
0.8860846215
 40
0.9152929762
 40
0.9405127458
 40
0.9614899334
 40
0.9780389288
 40
0.9846020617
 40
0.9900000952
 40
0.994226215
 40
0.9972797225
 40
0.9991722537
 40
1.0
 40
1.0
 40
1.0
 40
1.0
 10
76.353429558
 20
187.1080945936
 30
0.0
 10
76.3567431828
 20
187.1080945936
 30
0.0
 10
76.3630741165
 20
187.0957552338
 30
0.0
 10
76.3681266373
 20
187.0754715971
 30
0.0
 10
76.3749738924
 20
187.0381517314
 30
0.0
 10
76.3812145595
 20
186.9882781741
 30
0.0
 10
76.3877778661
 20
186.9235911825
 30
0.0
 10
76.3970455508
 20
186.8098888124
 30
0.0
 10
76.4079227173
 20
186.6335978519
 30
0.0
 10
76.4198190722
 20
186.3826361203
 30
0.0
 10
76.4311495262
 20
186.0808738921
 30
0.0
 10
76.4417976553
 20
185.7312280893
 30
0.0
 10
76.451614175
 20
185.3370703341
 30
0.0
 10
76.4605017115
 20
184.9021921299
 30
0.0
 10
76.4713206995
 20
184.2533660938
 30
0.0
 10
76.4816004508
 20
183.3747756483
 30
0.0
 10
76.4888466937
 20
182.2636340253
 30
0.0
 10
76.4910127094
 20
181.1080940284
 30
0.0
 10
76.4880146164
 20
179.9525539942
 30
0.0
 10
76.4799682649
 20
178.8414122602
 30
0.0
 10
76.4690558655
 20
177.9628225194
 30
0.0
 10
76.4577696878
 20
177.3139972163
 30
0.0
 10
76.4485690049
 20
176.8791189556
 30
0.0
 10
76.4384686602
 20
176.484961124
 30
0.0
 10
76.4275687504
 20
176.1353152221
 30
0.0
 10
76.4160210047
 20
175.8335528468
 30
0.0
 10
76.4039438868
 20
175.5825908983
 30
0.0
 10
76.3929398486
 20
175.4063002271
 30
0.0
 10
76.3835901961
 20
175.2925982709
 30
0.0
 10
76.3769805482
 20
175.2279113033
 30
0.0
 10
76.3707032606
 20
175.1780372873
 30
0.0
 10
76.3638305594
 20
175.1407178412
 30
0.0
 10
76.3587605506
 20
175.1204330742
 30
0.0
 10
76.3524239597
 20
175.1080953717
 30
0.0
 10
76.349109144
 20
175.1080953717
 30
0.0
  0
SPLINE
  5
381
100
AcDbEntity
  8
0
100
AcDbSpline
 62
7
  6
CONTINUOUS
 70
0
 71
3
 72
9
 73
5
 74
0
 42
0.0000001
 43
0.0000001
 44
0.0000000001
 40
0.0
 40
0.0
 40
0.0
 40
0.0
 40
0.2642143207
 40
1.0
 40
1.0
 40
1.0
 40
1.0
 10
113.3373233668
 20
27.0066131294
 30
0.0
 10
113.3372345025
 20
26.7597914989
 30
0.0
 10
113.335244804
 20
25.825622773
 30
0.0
 10
113.3274430243
 20
24.8914514058
 30
0.0
 10
113.3164260718
 20
24.2041892499
 30
0.0
  0
SPLINE
  5
382
100
AcDbEntity
  8
0
100
AcDbSpline
 62
7
  6
CONTINUOUS
 70
0
 71
3
 72
9
 73
5
 74
0
 42
0.0000001
 43
0.0000001
 44
0.0000000001
 40
0.0
 40
0.0
 40
0.0
 40
0.0
 40
0.2875315007
 40
1.0
 40
1.0
 40
1.0
 40
1.0
 10
113.3164260718
 20
24.2041892499
 30
0.0
 10
113.3142715392
 20
24.0697846866
 30
0.0
 10
113.3059515543
 20
23.60235903
 30
0.0
 10
113.2947959163
 20
23.1349585191
 30
0.0
 10
113.282709484
 20
22.8020967392
 30
0.0
  0
SPLINE
  5
383
100
AcDbEntity
  8
0
100
AcDbSpline
 62
7
  6
CONTINUOUS
 70
0
 71
3
 72
13
 73
9
 74
0
 42
0.0000001
 43
0.0000001
 44
0.0000000001
 40
0.0
 40
0.0
 40
0.0
 40
0.0
 40
0.4060860224
 40
0.7106722365
 40
0.8233596733
 40
0.9091335339
 40
0.9679147023
 40
1.0
 40
1.0
 40
1.0
 40
1.0
 10
113.2779615299
 20
22.6780198792
 30
0.0
 10
113.2742942693
 20
22.5872109238
 30
0.0
 10
113.2670642746
 20
22.4283511802
 30
0.0
 10
113.2558870242
 20
22.2443207854
 30
0.0
 10
113.2458621425
 20
22.1322799281
 30
0.0
 10
113.2394113358
 20
22.0748745945
 30
0.0
 10
113.2325542748
 20
22.0362894605
 30
0.0
 10
113.2278281318
 20
22.0159534447
 30
0.0
 10
113.2239712067
 20
22.0098964256
 30
0.0
  0
SPLINE
  5
384
100
AcDbEntity
  8
0
100
AcDbSpline
 62
7
  6
CONTINUOUS
 70
0
 71
3
 72
9
 73
5
 74
0
 42
0.0000001
 43
0.0000001
 44
0.0000000001
 40
0.0
 40
0.0
 40
0.0
 40
0.0
 40
0.5900235871
 40
1.0
 40
1.0
 40
1.0
 40
1.0
 10
113.2239712067
 20
22.0098964256
 30
0.0
 10
113.2233932311
 20
22.0089887572
 30
0.0
 10
113.2223218537
 20
22.0074860368
 30
0.0
 10
113.2205430934
 20
22.0066134536
 30
0.0
 10
113.2197953917
 20
22.0066134536
 30
0.0
  0
SPLINE
  5
385
100
AcDbEntity
  8
0
100
AcDbSpline
 62
7
  6
CONTINUOUS
 70
0
 71
3
 72
9
 73
5
 74
0
 42
0.0000001
 43
0.0000001
 44
0.0000000001
 40
0.0
 40
0.0
 40
0.0
 40
0.0
 40
0.2439784691
 40
1.0
 40
1.0
 40
1.0
 40
1.0
 10
113.4447262859
 20
116.3857588675
 30
0.0
 10
113.4315731892
 20
114.8016326
 30
0.0
 10
113.3847776723
 20
108.3086812178
 30
0.0
 10
113.3642643572
 20
101.8155449212
 30
0.0
 10
113.362490063
 20
96.9066085958
 30
0.0
  0
SPLINE
  5
386
100
AcDbEntity
  8
0
100
AcDbSpline
 62
7
  6
CONTINUOUS
 70
0
 71
3
 72
9
 73
5
 74
0
 42
0.0000001
 43
0.0000001
 44
0.0000000001
 40
0.0
 40
0.0
 40
0.0
 40
0.0
 40
0.2543120365
 40
1.0
 40
1.0
 40
1.0
 40
1.0
 10
113.5269619732
 20
135.8649171227
 30
0.0
 10
113.5263651326
 20
134.2136393579
 30
0.0
 10
113.5177231013
 20
127.7205273673
 30
0.0
 10
113.4849264512
 20
121.2274393434
 30
0.0
 10
113.4447257503
 20
116.3857668511
 30
0.0
  0
SPLINE
  5
387
100
AcDbEntity
  8
0
100
AcDbSpline
 62
7
  6
CONTINUOUS
 70
0
 71
3
 72
9
 73
5
 74
0
 42
0.0000001
 43
0.0000001
 44
0.0000000001
 40
0.0
 40
0.0
 40
0.0
 40
0.0
 40
0.4051640754
 40
1.0
 40
1.0
 40
1.0
 40
1.0
 10
113.37373513
 20
224.8990708757
 30
0.0
 10
113.3833163215
 20
224.8329462728
 30
0.0
 10
113.3991775481
 20
224.668686827
 30
0.0
 10
113.4105737546
 20
224.5041924328
 30
0.0
 10
113.4165490953
 20
224.4062808955
 30
0.0
  0
SPLINE
  5
388
100
AcDbEntity
  8
0
100
AcDbSpline
 62
7
  6
CONTINUOUS
 70
0
 71
3
 72
9
 73
5
 74
0
 42
0.0000001
 43
0.0000001
 44
0.0000000001
 40
0.0
 40
0.0
 40
0.0
 40
0.0
 40
0.200083548
 40
1.0
 40
1.0
 40
1.0
 40
1.0
 10
113.4196086777
 20
224.3549930742
 30
0.0
 10
113.4253163643
 20
224.2571505515
 30
0.0
 10
113.450354163
 20
223.7679402313
 30
0.0
 10
113.4661713395
 20
223.2783097097
 30
0.0
 10
113.4771744435
 20
222.8866334103
 30
0.0
  0
SPLINE
  5
389
100
AcDbEntity
  8
0
100
AcDbSpline
 62
7
  6
CONTINUOUS
 70
0
 71
3
 72
9
 73
5
 74
0
 42
0.0000001
 43
0.0000001
 44
0.0000000001
 40
0.0
 40
0.0
 40
0.0
 40
0.0
 40
0.4463720242
 40
1.0
 40
1.0
 40
1.0
 40
1.0
 10
113.4771744435
 20
222.8866334103
 30
0.0
 10
113.5079670702
 20
221.7905116136
 30
0.0
 10
113.5448563878
 20
219.3340452391
 30
0.0
 10
113.5561295716
 20
216.8774644217
 30
0.0
 10
113.5556399109
 20
215.5174260986
 30
0.0
  0
SPLINE
  5
38A
100
AcDbEntity
  8
0
100
AcDbSpline
 62
7
  6
CONTINUOUS
 70
0
 71
3
 72
18
 73
14
 74
0
 42
0.0000001
 43
0.0000001
 44
0.0000000001
 40
0.0
 40
0.0
 40
0.0
 40
0.0
 40
0.006869367
 40
0.0226676933
 40
0.0472828572
 40
0.0805082266
 40
0.1220863027
 40
0.1716922829
 40
0.2933791531
 40
0.4418401515
 40
0.6126002779
 40
0.8005194951
 40
1.0
 40
1.0
 40
1.0
 40
1.0
 10
101.1608831127
 20
226.2591382502
 30
0.0
 10
101.183754971
 20
226.2591382502
 30
0.0
 10
101.2589984502
 20
226.2515593157
 30
0.0
 10
101.4158821516
 20
226.2398220825
 30
0.0
 10
101.6601208516
 20
226.2175983643
 30
0.0
 10
101.9898743484
 20
226.1889859076
 30
0.0
 10
102.4025617684
 20
226.1531944422
 30
0.0
 10
103.1088424699
 20
226.0939690585
 30
0.0
 10
104.1702378034
 20
226.010782859
 30
0.0
 10
105.6348674743
 20
225.9106020805
 30
0.0
 10
107.3208169707
 20
225.8160683558
 30
0.0
 10
109.1776801984
 20
225.738469955
 30
0.0
 10
110.467175422
 20
225.7048557834
 30
0.0
 10
111.131249435
 20
225.6930424782
 30
0.0
  0
SPLINE
  5
38B
100
AcDbEntity
  8
0
100
AcDbSpline
 62
7
  6
CONTINUOUS
 70
0
 71
3
 72
11
 73
7
 74
0
 42
0.0000001
 43
0.0000001
 44
0.0000000001
 40
0.0
 40
0.0
 40
0.0
 40
0.0
 40
0.1662129986
 40
0.4009026774
 40
0.6873288888
 40
1.0
 40
1.0
 40
1.0
 40
1.0
 10
83.2383640432
 20
157.5701104835
 30
0.0
 10
83.4998776867
 20
157.7390137293
 30
0.0
 10
84.1572338165
 20
158.1042315743
 30
0.0
 10
85.3115901581
 20
158.6740534295
 30
0.0
 10
86.7349468625
 20
159.3174572076
 30
0.0
 10
87.768496551
 20
159.754555787
 30
0.0
 10
88.3101871766
 20
159.9771211126
 30
0.0
  0
SPLINE
  5
38C
100
AcDbEntity
  8
0
100
AcDbSpline
 62
7
  6
CONTINUOUS
 70
0
 71
3
 72
30
 73
26
 74
0
 42
0.0000001
 43
0.0000001
 44
0.0000000001
 40
0.0
 40
0.0
 40
0.0
 40
0.0
 40
0.0072100315
 40
0.0130087816
 40
0.020992108
 40
0.0244211982
 40
0.028615312
 40
0.0340730984
 40
0.0408860421
 40
0.0489992917
 40
0.0583336004
 40
0.0802055814
 40
0.1054834141
 40
0.133278627
 40
0.1630366835
 40
0.1942844054
 40
0.2600465113
 40
0.3288658104
 40
0.3997726244
 40
0.472186269
 40
0.5457173899
 40
0.6201052819
 40
0.695167221
 40
0.8468522232
 40
1.0
 40
1.0
 40
1.0
 40
1.0
 10
76.4616584955
 20
171.2486296206
 30
0.0
 10
76.4652022824
 20
171.2867147489
 30
0.0
 10
76.4746684499
 20
171.3558779982
 30
0.0
 10
76.5025686941
 20
171.461252768
 30
0.0
 10
76.5557671445
 20
171.551157569
 30
0.0
 10
76.6430067931
 20
171.5619145511
 30
0.0
 10
76.7086933795
 20
171.5349717447
 30
0.0
 10
76.7795451124
 20
171.4834431685
 30
0.0
 10
76.8572374934
 20
171.407814346
 30
0.0
 10
76.9412419863
 20
171.3101949214
 30
0.0
 10
77.0671471094
 20
171.143750014
 30
0.0
 10
77.2311799763
 20
170.892661505
 30
0.0
 10
77.4326794106
 20
170.5498588885
 30
0.0
 10
77.6439619402
 20
170.1644973739
 30
0.0
 10
77.8611813537
 20
169.7464445154
 30
0.0
 10
78.1621752512
 20
169.145029832
 30
0.0
 10
78.5419342732
 20
168.3514196787
 30
0.0
 10
78.9987903601
 20
167.3616236322
 30
0.0
 10
79.460750002
 20
166.3353782463
 30
0.0
 10
79.9259509295
 20
165.2832163181
 30
0.0
 10
80.393646974
 20
164.2119819754
 30
0.0
 10
80.8633912864
 20
163.1263209743
 30
0.0
 10
81.4947359699
 20
161.6588275231
 30
0.0
 10
82.2850870431
 20
159.8049002646
 30
0.0
 10
82.9203919274
 20
158.3177613402
 30
0.0
 10
83.238363913
 20
157.5701103994
 30
0.0
  0
SPLINE
  5
38D
100
AcDbEntity
  8
0
100
AcDbSpline
 62
7
  6
CONTINUOUS
 70
0
 71
3
 72
11
 73
7
 74
0
 42
0.0000001
 43
0.0000001
 44
0.0000000001
 40
0.0
 40
0.0
 40
0.0
 40
0.0
 40
0.1789857901
 40
0.4167713753
 40
0.697695381
 40
1.0
 40
1.0
 40
1.0
 40
1.0
 10
85.5656540342
 20
152.5286233375
 30
0.0
 10
85.8304691883
 20
152.7142619653
 30
0.0
 10
86.4697798854
 20
153.1137104744
 30
0.0
 10
87.5692137461
 20
153.730752252
 30
0.0
 10
88.886690324
 20
154.413175504
 30
0.0
 10
89.8344845283
 20
154.8740403489
 30
0.0
 10
90.3282462333
 20
155.1076152813
 30
0.0
  0
SPLINE
  5
38E
100
AcDbEntity
  8
0
100
AcDbSpline
 62
7
  6
CONTINUOUS
 70
0
 71
3
 72
10
 73
6
 74
0
 42
0.0000001
 43
0.0000001
 44
0.0000000001
 40
0.0
 40
0.0
 40
0.0
 40
0.0
 40
0.5009978532
 40
0.7500028152
 40
1.0
 40
1.0
 40
1.0
 40
1.0
 10
90.3282716804
 20
155.1076273191
 30
0.0
 10
90.864290461
 20
153.9074053748
 30
0.0
 10
91.4943295195
 20
152.0301728004
 30
0.0
 10
92.0532716947
 20
149.4660508397
 30
0.0
 10
92.2393762546
 20
148.1682575276
 30
0.0
 10
92.3046505131
 20
147.5155916088
 30
0.0
  0
SPLINE
  5
38F
100
AcDbEntity
  8
0
100
AcDbSpline
 62
7
  6
CONTINUOUS
 70
0
 71
3
 72
9
 73
5
 74
0
 42
0.0000001
 43
0.0000001
 44
0.0000000001
 40
0.0
 40
0.0
 40
0.0
 40
0.0
 40
0.2509249163
 40
1.0
 40
1.0
 40
1.0
 40
1.0
 10
88.3101919935
 20
159.9771230918
 30
0.0
 10
88.4696418212
 20
159.5660565126
 30
0.0
 10
89.1130317327
 20
157.9309769501
 30
0.0
 10
89.7915150796
 20
156.3094323298
 30
0.0
 10
90.3282462333
 20
155.1076152813
 30
0.0
  0
SPLINE
  5
390
100
AcDbEntity
  8
0
100
AcDbSpline
 62
7
  6
CONTINUOUS
 70
0
 71
3
 72
9
 73
5
 74
0
 42
0.0000001
 43
0.0000001
 44
0.0000000001
 40
0.0
 40
0.0
 40
0.0
 40
0.0
 40
0.2500925503
 40
1.0
 40
1.0
 40
1.0
 40
1.0
 10
92.304624421
 20
147.5155888442
 30
0.0
 10
92.324321976
 20
147.2176438586
 30
0.0
 10
92.3862196817
 20
146.0255331761
 30
0.0
 10
92.3782980663
 20
144.8275337841
 30
0.0
 10
92.3025067443
 20
143.9354032597
 30
0.0
  0
SPLINE
  5
391
100
AcDbEntity
  8
0
100
AcDbSpline
 62
7
  6
CONTINUOUS
 70
0
 71
3
 72
10
 73
6
 74
0
 42
0.0000001
 43
0.0000001
 44
0.0000000001
 40
0.0
 40
0.0
 40
0.0
 40
0.0
 40
0.2833508421
 40
0.5260386338
 40
1.0
 40
1.0
 40
1.0
 40
1.0
 10
112.3059748365
 20
215.5178764348
 30
0.0
 10
111.2643119013
 20
215.5182516706
 30
0.0
 10
109.3305032869
 20
215.5373696648
 30
0.0
 10
105.6547205956
 20
215.5938771113
 30
0.0
 10
103.0206222143
 20
215.6443956406
 30
0.0
 10
101.2785954846
 20
215.6800332849
 30
0.0
  0
SPLINE
  5
392
100
AcDbEntity
  8
0
100
AcDbSpline
 62
7
  6
CONTINUOUS
 70
0
 71
3
 72
22
 73
18
 74
0
 42
0.0000001
 43
0.0000001
 44
0.0000000001
 40
0.0
 40
0.0
 40
0.0
 40
0.0
 40
0.1247948988
 40
0.1872137991
 40
0.2496468763
 40
0.3433273653
 40
0.4370265196
 40
0.5307809797
 40
0.5776646276
 40
0.6245866482
 40
0.6714839387
 40
0.7183540746
 40
0.7652958749
 40
0.8122222595
 40
0.8591694722
 40
0.9061133841
 40
1.0
 40
1.0
 40
1.0
 40
1.0
 10
108.1441129658
 20
135.8694064231
 30
0.0
 10
108.3160847462
 20
135.8679214162
 30
0.0
 10
108.5740867125
 20
135.8676921319
 30
0.0
 10
108.9180931815
 20
135.8624743879
 30
0.0
 10
109.2192546794
 20
135.8634734469
 30
0.0
 10
109.5634757025
 20
135.8799865883
 30
0.0
 10
109.9506165866
 20
135.8541115306
 30
0.0
 10
110.273569568
 20
135.8633243918
 30
0.0
 10
110.5321229997
 20
135.8642062091
 30
0.0
 10
110.7257526118
 20
135.853627231
 30
0.0
 10
110.9194642577
 20
135.8425381527
 30
0.0
 10
111.1133939299
 20
135.8508753503
 30
0.0
 10
111.3068641984
 20
135.8649955619
 30
0.0
 10
111.5010385142
 20
135.864491373
 30
0.0
 10
111.6950601304
 20
135.862347153
 30
0.0
 10
111.9538428456
 20
135.8646050255
 30
0.0
 10
112.1479139767
 20
135.8649172443
 30
0.0
 10
112.2772971746
 20
135.8653428288
 30
0.0
  0
SPLINE
  5
393
100
AcDbEntity
  8
0
100
AcDbSpline
 62
7
  6
CONTINUOUS
 70
0
 71
3
 72
21
 73
17
 74
0
 42
0.0000001
 43
0.0000001
 44
0.0000000001
 40
0.0
 40
0.0
 40
0.0
 40
0.0
 40
0.063672864
 40
0.1269454148
 40
0.1891100943
 40
0.2512626295
 40
0.313549014
 40
0.3758498612
 40
0.4380458447
 40
0.5002663892
 40
0.6248558412
 40
0.7495995573
 40
0.8120673695
 40
0.874626009
 40
0.9372757268
 40
1.0
 40
1.0
 40
1.0
 40
1.0
 10
92.2988252783
 20
136.01232569
 30
0.0
 10
92.6351703222
 20
136.0147153519
 30
0.0
 10
93.305287688
 20
136.0514797255
 30
0.0
 10
94.3044369538
 20
136.0280662551
 30
0.0
 10
95.2951111899
 20
136.0070690924
 30
0.0
 10
96.2809267654
 20
136.0136224564
 30
0.0
 10
97.2673308847
 20
136.0221304975
 30
0.0
 10
98.2540355683
 20
136.0190500176
 30
0.0
 10
99.2403490244
 20
136.0124793665
 30
0.0
 10
100.5557281316
 20
136.0088693087
 30
0.0
 10
102.2014857628
 20
135.9979720675
 30
0.0
 10
103.848505921
 20
135.9812388506
 30
0.0
 10
105.1677752365
 20
135.9614657318
 30
0.0
 10
106.1589729656
 20
135.9400788696
 30
0.0
 10
107.1512233979
 20
135.9093486424
 30
0.0
 10
107.8127873527
 20
135.8727609329
 30
0.0
 10
108.1441137979
 20
135.8694912784
 30
0.0
  0
SPLINE
  5
394
100
AcDbEntity
  8
0
100
AcDbSpline
 62
7
  6
CONTINUOUS
 70
0
 71
3
 72
11
 73
7
 74
0
 42
0.0000001
 43
0.0000001
 44
0.0000000001
 40
0.0
 40
0.0
 40
0.0
 40
0.0
 40
0.2520184314
 40
0.5078394848
 40
0.7582287909
 40
1.0
 40
1.0
 40
1.0
 40
1.0
 10
92.3033781204
 20
143.9353971003
 30
0.0
 10
92.2226500616
 20
143.3128791882
 30
0.0
 10
91.9503789725
 20
142.0658996552
 30
0.0
 10
91.0758206043
 20
140.3634737731
 30
0.0
 10
89.7957503204
 20
138.9854604003
 30
0.0
 10
88.8052714853
 20
138.256101491
 30
0.0
 10
88.302270831
 20
137.9249774689
 30
0.0
  0
SPLINE
  5
395
100
AcDbEntity
  8
0
100
AcDbSpline
 62
7
  6
CONTINUOUS
 70
0
 71
3
 72
9
 73
5
 74
0
 42
0.0000001
 43
0.0000001
 44
0.0000000001
 40
0.0
 40
0.0
 40
0.0
 40
0.0
 40
0.5018271882
 40
1.0
 40
1.0
 40
1.0
 40
1.0
 10
81.4041984693
 20
94.6629183948
 30
0.0
 10
81.4067188127
 20
94.6779412828
 30
0.0
 10
81.4187075862
 20
94.7343878532
 30
0.0
 10
81.4308704473
 20
94.67817477
 30
0.0
 10
81.4333619906
 20
94.6632595319
 30
0.0
  0
SPLINE
  5
396
100
AcDbEntity
  8
0
100
AcDbSpline
 62
7
  6
CONTINUOUS
 70
0
 71
3
 72
13
 73
9
 74
0
 42
0.0000001
 43
0.0000001
 44
0.0000000001
 40
0.0
 40
0.0
 40
0.0
 40
0.0
 40
0.3455216677
 40
0.6496085935
 40
0.775006853
 40
0.8774647894
 40
0.9533907563
 40
1.0
 40
1.0
 40
1.0
 40
1.0
 10
82.1219429899
 20
90.1060498618
 30
0.0
 10
82.1217525048
 20
89.5769751049
 30
0.0
 10
82.0641180605
 20
88.5813762223
 30
0.0
 10
81.8739213397
 20
87.4084482735
 30
0.0
 10
81.6976440639
 20
86.613127846
 30
0.0
 10
81.5845341837
 20
86.1618680056
 30
0.0
 10
81.4977668853
 20
85.8285249948
 30
0.0
 10
81.4500657964
 20
85.646951751
 30
0.0
 10
81.4354182814
 20
85.5771013136
 30
0.0
  0
SPLINE
  5
397
100
AcDbEntity
  8
0
100
AcDbSpline
 62
7
  6
CONTINUOUS
 70
0
 71
3
 72
8
 73
4
 74
0
 42
0.0000001
 43
0.0000001
 44
0.0000000001
 40
0.0
 40
0.0
 40
0.0
 40
0.0
 40
1.0
 40
1.0
 40
1.0
 40
1.0
 10
81.4354182814
 20
85.5771013136
 30
0.0
 10
81.4335028021
 20
85.5679668585
 30
0.0
 10
81.4316784562
 20
85.5588107374
 30
0.0
 10
81.4300807555
 20
85.5496153753
 30
0.0
  0
SPLINE
  5
398
100
AcDbEntity
  8
0
100
AcDbSpline
 62
7
  6
CONTINUOUS
 70
0
 71
3
 72
8
 73
4
 74
0
 42
0.0000001
 43
0.0000001
 44
0.0000000001
 40
0.0
 40
0.0
 40
0.0
 40
0.0
 40
1.0
 40
1.0
 40
1.0
 40
1.0
 10
81.4333618551
 20
94.6629124262
 30
0.0
 10
81.4349841987
 20
94.6535363756
 30
0.0
 10
81.4368416669
 20
94.6442008862
 30
0.0
 10
81.4387921546
 20
94.6348875666
 30
0.0
  0
SPLINE
  5
399
100
AcDbEntity
  8
0
100
AcDbSpline
 62
7
  6
CONTINUOUS
 70
0
 71
3
 72
13
 73
9
 74
0
 42
0.0000001
 43
0.0000001
 44
0.0000000001
 40
0.0
 40
0.0
 40
0.0
 40
0.0
 40
0.0477145739
 40
0.1226535194
 40
0.2227871133
 40
0.3454138324
 40
0.6463441504
 40
1.0
 40
1.0
 40
1.0
 40
1.0
 10
81.4387921546
 20
94.6348875666
 30
0.0
 10
81.4507899901
 20
94.5775994952
 30
0.0
 10
81.4882197146
 20
94.431799404
 30
0.0
 10
81.5569605996
 20
94.1673403858
 30
0.0
 10
81.6475348614
 20
93.813538896
 30
0.0
 10
81.7951885249
 20
93.1882997635
 30
0.0
 10
81.9752579947
 20
92.2513739281
 30
0.0
 10
82.0638743087
 20
91.4519977273
 30
0.0
 10
82.0919721405
 20
91.0190828633
 30
0.0
  0
SPLINE
  5
39A
100
AcDbEntity
  8
0
100
AcDbSpline
 62
7
  6
CONTINUOUS
 70
0
 71
3
 72
25
 73
21
 74
0
 42
0.0000001
 43
0.0000001
 44
0.0000000001
 40
0.0
 40
0.0
 40
0.0
 40
0.0
 40
0.1095854007
 40
0.2135268693
 40
0.3125068422
 40
0.4061589639
 40
0.494111331
 40
0.5760318931
 40
0.6515953278
 40
0.72048689
 40
0.782296581
 40
0.8367722902
 40
0.8837238074
 40
0.9229600718
 40
0.954289595
 40
0.977609561
 40
0.9862425376
 40
0.9928476909
 40
0.9974245371
 40
1.0
 40
1.0
 40
1.0
 40
1.0
 10
88.893158044
 20
96.7255769265
 30
0.0
 10
88.6238767174
 20
96.6832875555
 30
0.0
 10
88.0900304723
 20
96.6741983448
 30
0.0
 10
87.3137503667
 20
96.6807831468
 30
0.0
 10
86.5757829178
 20
96.6799184558
 30
0.0
 10
85.8779777707
 20
96.6704772923
 30
0.0
 10
85.2224938922
 20
96.6657722279
 30
0.0
 10
84.6120271824
 20
96.6580471225
 30
0.0
 10
84.0492633481
 20
96.6362911057
 30
0.0
 10
83.53613146
 20
96.6386664129
 30
0.0
 10
83.0755599485
 20
96.6336501733
 30
0.0
 10
82.6695496487
 20
96.6279105859
 30
0.0
 10
82.3196521284
 20
96.631091601
 30
0.0
 10
82.0274197988
 20
96.6383031977
 30
0.0
 10
81.793973399
 20
96.6436227054
 30
0.0
 10
81.6365607886
 20
96.6474650889
 30
0.0
 10
81.5407972574
 20
96.6514720294
 30
0.0
 10
81.4914712935
 20
96.6543779395
 30
0.0
 10
81.4576915368
 20
96.6582084569
 30
0.0
 10
81.4397873256
 20
96.6612481495
 30
0.0
 10
81.4340596408
 20
96.6641174387
 30
0.0
  0
SPLINE
  5
39B
100
AcDbEntity
  8
0
100
AcDbSpline
 62
7
  6
CONTINUOUS
 70
0
 71
3
 72
13
 73
9
 74
0
 42
0.0000001
 43
0.0000001
 44
0.0000000001
 40
0.0
 40
0.0
 40
0.0
 40
0.0
 40
0.3455216677
 40
0.6496085935
 40
0.775006853
 40
0.8774647894
 40
0.9533907563
 40
1.0
 40
1.0
 40
1.0
 40
1.0
 10
82.104661334
 20
42.1060529744
 30
0.0
 10
82.1044708489
 20
41.5769782176
 30
0.0
 10
82.0468364046
 20
40.5813793349
 30
0.0
 10
81.8566396838
 20
39.4084513861
 30
0.0
 10
81.680362408
 20
38.6131309587
 30
0.0
 10
81.5672525277
 20
38.1618711183
 30
0.0
 10
81.4804852294
 20
37.8285281075
 30
0.0
 10
81.4327841405
 20
37.6469548636
 30
0.0
 10
81.4181366254
 20
37.5771044263
 30
0.0
  0
SPLINE
  5
39C
100
AcDbEntity
  8
0
100
AcDbSpline
 62
7
  6
CONTINUOUS
 70
0
 71
3
 72
8
 73
4
 74
0
 42
0.0000001
 43
0.0000001
 44
0.0000000001
 40
0.0
 40
0.0
 40
0.0
 40
0.0
 40
1.0
 40
1.0
 40
1.0
 40
1.0
 10
81.4181366254
 20
37.5771044263
 30
0.0
 10
81.4162211461
 20
37.5679699711
 30
0.0
 10
81.4143968002
 20
37.5588138501
 30
0.0
 10
81.4127990995
 20
37.5496184879
 30
0.0
  0
SPLINE
  5
39D
100
AcDbEntity
  8
0
100
AcDbSpline
 62
7
  6
CONTINUOUS
 70
0
 71
3
 72
8
 73
4
 74
0
 42
0.0000001
 43
0.0000001
 44
0.0000000001
 40
0.0
 40
0.0
 40
0.0
 40
0.0
 40
1.0
 40
1.0
 40
1.0
 40
1.0
 10
81.4160801991
 20
46.6629155389
 30
0.0
 10
81.4177025428
 20
46.6535394883
 30
0.0
 10
81.419560011
 20
46.6442039988
 30
0.0
 10
81.4215104986
 20
46.6348906793
 30
0.0
  0
SPLINE
  5
39E
100
AcDbEntity
  8
0
100
AcDbSpline
 62
7
  6
CONTINUOUS
 70
0
 71
3
 72
13
 73
9
 74
0
 42
0.0000001
 43
0.0000001
 44
0.0000000001
 40
0.0
 40
0.0
 40
0.0
 40
0.0
 40
0.0477145739
 40
0.1226535194
 40
0.2227871133
 40
0.3454138324
 40
0.6463441504
 40
1.0
 40
1.0
 40
1.0
 40
1.0
 10
81.4215104986
 20
46.6348906793
 30
0.0
 10
81.4335083341
 20
46.5776026079
 30
0.0
 10
81.4709380586
 20
46.4318025166
 30
0.0
 10
81.5396789437
 20
46.1673434984
 30
0.0
 10
81.6302532054
 20
45.8135420085
 30
0.0
 10
81.777906869
 20
45.188302876
 30
0.0
 10
81.9579763388
 20
44.2513770405
 30
0.0
 10
82.0465926528
 20
43.4520008396
 30
0.0
 10
82.0746904846
 20
43.0190859755
 30
0.0
  0
SPLINE
  5
39F
100
AcDbEntity
  8
0
100
AcDbSpline
 62
7
  6
CONTINUOUS
 70
0
 71
3
 72
14
 73
10
 74
0
 42
0.0000001
 43
0.0000001
 44
0.0000000001
 40
0.0
 40
0.0
 40
0.0
 40
0.0
 40
0.255128514
 40
0.38203118
 40
0.508055246
 40
0.6330229518
 40
0.7569939704
 40
0.8789262964
 40
1.0
 40
1.0
 40
1.0
 40
1.0
 10
81.4822975413
 20
137.8037020816
 30
0.0
 10
81.6170303558
 20
137.6107448823
 30
0.0
 10
81.826021339
 20
137.3264922688
 30
0.0
 10
82.129227497
 20
136.9688952868
 30
0.0
 10
82.3705782586
 20
136.7169364669
 30
0.0
 10
82.6296166462
 20
136.4871789431
 30
0.0
 10
82.9060633144
 20
136.2842669035
 30
0.0
 10
83.2124053384
 20
136.1334817267
 30
0.0
 10
83.4353001948
 20
136.0900511234
 30
0.0
 10
83.5466362474
 20
136.0812500265
 30
0.0
  0
SPLINE
  5
3A0
100
AcDbEntity
  8
0
100
AcDbSpline
 62
7
  6
CONTINUOUS
 70
0
 71
3
 72
11
 73
7
 74
0
 42
0.0000001
 43
0.0000001
 44
0.0000000001
 40
0.0
 40
0.0
 40
0.0
 40
0.0
 40
0.2902829793
 40
0.5519637733
 40
0.7855653867
 40
1.0
 40
1.0
 40
1.0
 40
1.0
 10
88.3021917596
 20
137.9251546725
 30
0.0
 10
87.7091196163
 20
137.6695144268
 30
0.0
 10
86.5044445439
 20
137.352101978
 30
0.0
 10
84.747964827
 20
137.2941927618
 30
0.0
 10
83.1791865534
 20
137.4981804781
 30
0.0
 10
82.1985073296
 20
137.6774137528
 30
0.0
 10
81.7251565926
 20
137.7369061756
 30
0.0
  0
SPLINE
  5
3A1
100
AcDbEntity
  8
0
100
AcDbSpline
 62
7
  6
CONTINUOUS
 70
0
 71
3
 72
9
 73
5
 74
0
 42
0.0000001
 43
0.0000001
 44
0.0000000001
 40
0.0
 40
0.0
 40
0.0
 40
0.0
 40
0.2362693978
 40
1.0
 40
1.0
 40
1.0
 40
1.0
 10
83.5466491697
 20
136.0813817015
 30
0.0
 10
83.921161269
 20
136.073794643
 30
0.0
 10
85.506349688
 20
136.0457508279
 30
0.0
 10
87.091761472
 20
136.0314815107
 30
0.0
 10
88.3025905722
 20
136.0257755933
 30
0.0
  0
SPLINE
  5
3A2
100
AcDbEntity
  8
0
100
AcDbSpline
 62
7
  6
CONTINUOUS
 70
0
 71
3
 72
9
 73
5
 74
0
 42
0.0000001
 43
0.0000001
 44
0.0000000001
 40
0.0
 40
0.0
 40
0.0
 40
0.0
 40
0.5018270297
 40
1.0
 40
1.0
 40
1.0
 40
1.0
 10
81.43008077
 20
85.5496100367
 30
0.0
 10
81.4275604265
 20
85.5345871485
 30
0.0
 10
81.4155716407
 20
85.4781405694
 30
0.0
 10
81.4034087858
 20
85.5343536822
 30
0.0
 10
81.4009172409
 20
85.54926893
 30
0.0
  0
SPLINE
  5
3A3
100
AcDbEntity
  8
0
100
AcDbSpline
 62
7
  6
CONTINUOUS
 70
0
 71
3
 72
9
 73
5
 74
0
 42
0.0000001
 43
0.0000001
 44
0.0000000001
 40
0.0
 40
0.0
 40
0.0
 40
0.0
 40
0.5018270297
 40
1.0
 40
1.0
 40
1.0
 40
1.0
 10
81.3869168134
 20
46.6629215074
 30
0.0
 10
81.3894371568
 20
46.6779443956
 30
0.0
 10
81.4014259426
 20
46.7343909748
 30
0.0
 10
81.4135887975
 20
46.6781778619
 30
0.0
 10
81.4160803424
 20
46.6632626142
 30
0.0
  0
SPLINE
  5
3A4
100
AcDbEntity
  8
0
100
AcDbSpline
 62
7
  6
CONTINUOUS
 70
0
 71
3
 72
9
 73
5
 74
0
 42
0.0000001
 43
0.0000001
 44
0.0000000001
 40
0.0
 40
0.0
 40
0.0
 40
0.0
 40
0.2780067031
 40
1.0
 40
1.0
 40
1.0
 40
1.0
 10
81.4822667654
 20
137.8037020929
 30
0.0
 10
81.4202054605
 20
137.7566891498
 30
0.0
 10
81.1975171646
 20
137.586864856
 30
0.0
 10
80.9710047654
 20
137.4220390529
 30
0.0
 10
80.8117030578
 20
137.2975099584
 30
0.0
  0
SPLINE
  5
3A5
100
AcDbEntity
  8
0
100
AcDbSpline
 62
7
  6
CONTINUOUS
 70
0
 71
3
 72
8
 73
4
 74
0
 42
0.0000001
 43
0.0000001
 44
0.0000000001
 40
0.0
 40
0.0
 40
0.0
 40
0.0
 40
1.0
 40
1.0
 40
1.0
 40
1.0
 10
88.3049176238
 20
135.7173108407
 30
0.0
 10
88.3034419293
 20
135.8201182325
 30
0.0
 10
88.3032601252
 20
135.9229402099
 30
0.0
 10
88.3025930895
 20
136.0257560284
 30
0.0
  0
SPLINE
  5
3A6
100
AcDbEntity
  8
0
100
AcDbSpline
 62
7
  6
CONTINUOUS
 70
0
 71
3
 72
22
 73
18
 74
0
 42
0.0000001
 43
0.0000001
 44
0.0000000001
 40
0.0
 40
0.0
 40
0.0
 40
0.0
 40
0.0616192802
 40
0.1236139504
 40
0.1857886411
 40
0.2480715494
 40
0.3104464332
 40
0.3728934409
 40
0.4354025129
 40
0.4979629853
 40
0.6232204211
 40
0.7486463186
 40
0.8114183792
 40
0.8742317344
 40
0.9370897455
 40
0.9685383154
 40
1.0
 40
1.0
 40
1.0
 40
1.0
 10
92.2929642302
 20
135.7282338818
 30
0.0
 10
92.6185890874
 20
135.7300136379
 30
0.0
 10
93.2715255625
 20
135.7612488787
 30
0.0
 10
94.2533994121
 20
135.7354798141
 30
0.0
 10
95.2383773813
 20
135.7119537158
 30
0.0
 10
96.2257950545
 20
135.7134065743
 30
0.0
 10
97.2145124205
 20
135.7202426178
 30
0.0
 10
98.2044781226
 20
135.7228201489
 30
0.0
 10
99.195415379
 20
135.7207399975
 30
0.0
 10
100.5182791197
 20
135.7247911695
 30
0.0
 10
102.1735787571
 20
135.7374262986
 30
0.0
 10
103.8300086308
 20
135.75106242
 30
0.0
 10
105.1562909125
 20
135.774575637
 30
0.0
 10
106.1518870986
 20
135.7963141729
 30
0.0
 10
106.9819123181
 20
135.8188835978
 30
0.0
 10
107.6460961787
 20
135.8425025374
 30
0.0
 10
107.9782764068
 20
135.8575393009
 30
0.0
 10
108.1441129659
 20
135.869406423
 30
0.0
  0
SPLINE
  5
3A7
100
AcDbEntity
  8
0
100
AcDbSpline
 62
7
  6
CONTINUOUS
 70
0
 71
3
 72
9
 73
5
 74
0
 42
0.0000001
 43
0.0000001
 44
0.0000000001
 40
0.0
 40
0.0
 40
0.0
 40
0.0
 40
0.5018270297
 40
1.0
 40
1.0
 40
1.0
 40
1.0
 10
81.412799114
 20
37.5496131494
 30
0.0
 10
81.4102787705
 20
37.5345902612
 30
0.0
 10
81.3982899848
 20
37.478143682
 30
0.0
 10
81.3861271299
 20
37.5343567949
 30
0.0
 10
81.3836355849
 20
37.5492720426
 30
0.0
  0
SPLINE
  5
3A8
100
AcDbEntity
  8
0
100
AcDbSpline
 62
7
  6
CONTINUOUS
 70
0
 71
3
 72
9
 73
5
 74
0
 42
0.0000001
 43
0.0000001
 44
0.0000000001
 40
0.0
 40
0.0
 40
0.0
 40
0.0
 40
0.2515202009
 40
1.0
 40
1.0
 40
1.0
 40
1.0
 10
82.9927032526
 20
24.2844059788
 30
0.0
 10
82.8918255575
 20
24.3770120416
 30
0.0
 10
82.5062970417
 20
24.7619036013
 30
0.0
 10
82.186484852
 20
25.2116450265
 30
0.0
 10
81.9910400756
 20
25.5692228347
 30
0.0
  0
SPLINE
  5
3A9
100
AcDbEntity
  8
0
100
AcDbSpline
 62
7
  6
CONTINUOUS
 70
0
 71
3
 72
8
 73
4
 74
0
 42
0.0000001
 43
0.0000001
 44
0.0000000001
 40
0.0
 40
0.0
 40
0.0
 40
0.0
 40
1.0
 40
1.0
 40
1.0
 40
1.0
 10
92.2971706774
 20
136.0122547959
 30
0.0
 10
92.3031157276
 20
135.9177575118
 30
0.0
 10
92.309396761
 20
135.8214807489
 30
0.0
 10
92.2929633969
 20
135.7282336317
 30
0.0
  0
SPLINE
  5
3AA
100
AcDbEntity
  8
0
100
AcDbSpline
 62
7
  6
CONTINUOUS
 70
0
 71
3
 72
9
 73
5
 74
0
 42
0.0000001
 43
0.0000001
 44
0.0000000001
 40
0.0
 40
0.0
 40
0.0
 40
0.0
 40
0.2595229652
 40
1.0
 40
1.0
 40
1.0
 40
1.0
 10
92.2882234368
 20
135.72851722
 30
0.0
 10
92.1644552778
 20
134.1816878108
 30
0.0
 10
91.6863252488
 20
128.2215098446
 30
0.0
 10
91.1998213626
 20
122.2619762879
 30
0.0
 10
90.8241823733
 20
117.850384324
 30
0.0
  0
SPLINE
  5
3AB
100
AcDbEntity
  8
0
100
AcDbSpline
 62
7
  6
CONTINUOUS
 70
0
 71
3
 72
10
 73
6
 74
0
 42
0.0000001
 43
0.0000001
 44
0.0000000001
 40
0.0
 40
0.0
 40
0.0
 40
0.0
 40
0.2499824995
 40
0.6250167075
 40
1.0
 40
1.0
 40
1.0
 40
1.0
 10
92.2929633969
 20
135.7282336317
 30
0.0
 10
91.9606635267
 20
135.7247567252
 30
0.0
 10
91.1298005005
 20
135.7170257955
 30
0.0
 10
89.8004399296
 20
135.7283662895
 30
0.0
 10
88.8033807616
 20
135.7224641461
 30
0.0
 10
88.3049176238
 20
135.7173108407
 30
0.0
  0
SPLINE
  5
3AC
100
AcDbEntity
  8
0
100
AcDbSpline
 62
7
  6
CONTINUOUS
 70
0
 71
3
 72
14
 73
10
 74
0
 42
0.0000001
 43
0.0000001
 44
0.0000000001
 40
0.0
 40
0.0
 40
0.0
 40
0.0
 40
0.2555113983
 40
0.3834529363
 40
0.5108470556
 40
0.6371386942
 40
0.7614967456
 40
0.8828652491
 40
1.0
 40
1.0
 40
1.0
 40
1.0
 10
83.5507022996
 20
135.6637288264
 30
0.0
 10
83.9187868853
 20
134.2282333347
 30
0.0
 10
84.4604143887
 20
132.07091791
 30
0.0
 10
85.1023927905
 20
129.1781586012
 30
0.0
 10
85.5179754146
 20
127.0037350971
 30
0.0
 10
85.8404744449
 20
124.8339077625
 30
0.0
 10
86.0236559594
 20
122.6825549576
 30
0.0
 10
86.0081608249
 20
120.5718800306
 30
0.0
 10
85.7558646791
 20
119.2024069448
 30
0.0
 10
85.5735632118
 20
118.5479556005
 30
0.0
  0
SPLINE
  5
3AD
100
AcDbEntity
  8
0
100
AcDbSpline
 62
7
  6
CONTINUOUS
 70
0
 71
3
 72
39
 73
35
 74
0
 42
0.0000001
 43
0.0000001
 44
0.0000000001
 40
0.0
 40
0.0
 40
0.0
 40
0.0
 40
0.0008274454
 40
0.0027195738
 40
0.0057726555
 40
0.0099983335
 40
0.0153959099
 40
0.021958547
 40
0.0385065252
 40
0.0594829856
 40
0.0847022856
 40
0.1139097543
 40
0.1468328282
 40
0.1831539265
 40
0.2225207529
 40
0.3088677186
 40
0.4025564128
 40
0.4999861275
 40
0.5974159166
 40
0.6911056697
 40
0.7774564851
 40
0.8168257822
 40
0.8531505194
 40
0.8860764365
 40
0.9152873047
 40
0.9405094909
 40
0.9614881089
 40
0.9780382251
 40
0.9846016708
 40
0.9899998722
 40
0.9942261057
 40
0.9972796822
 40
0.9991722468
 40
1.0
 40
1.0
 40
1.0
 40
1.0
 10
76.349109144
 20
175.1080953717
 30
0.0
 10
76.3457955331
 20
175.1080953717
 30
0.0
 10
76.3394645977
 20
175.1204346101
 30
0.0
 10
76.3344120944
 20
175.140718107
 30
0.0
 10
76.3275648645
 20
175.1780376119
 30
0.0
 10
76.3213242334
 20
175.2279106615
 30
0.0
 10
76.3147609943
 20
175.2925968262
 30
0.0
 10
76.305493358
 20
175.4062975417
 30
0.0
 10
76.2946161432
 20
175.5825871221
 30
0.0
 10
76.2827198548
 20
175.8335488198
 30
0.0
 10
76.2713894646
 20
176.135311091
 30
0.0
 10
76.2607413826
 20
176.4849515446
 30
0.0
 10
76.2509250196
 20
176.8790941255
 30
0.0
 10
76.2420376299
 20
177.3139508075
 30
0.0
 10
76.2312192151
 20
177.9627513563
 30
0.0
 10
76.2209389128
 20
178.8413220313
 30
0.0
 10
76.2136924117
 20
179.9524479499
 30
0.0
 10
76.2115259421
 20
181.1079780075
 30
0.0
 10
76.2145235234
 20
182.2635104499
 30
0.0
 10
76.2225694334
 20
183.3746508203
 30
0.0
 10
76.2334809446
 20
184.2532434382
 30
0.0
 10
76.2447669683
 20
184.9020759095
 30
0.0
 10
76.2539668686
 20
185.3369619536
 30
0.0
 10
76.264067942
 20
185.7311369262
 30
0.0
 10
76.2749678699
 20
186.0808061934
 30
0.0
 10
76.2865157097
 20
186.3825940578
 30
0.0
 10
76.2985936574
 20
186.6335758793
 30
0.0
 10
76.30959802
 20
186.8098780283
 30
0.0
 10
76.318948074
 20
186.923586379
 30
0.0
 10
76.325557965
 20
186.9882757278
 30
0.0
 10
76.3318353553
 20
187.0381511152
 30
0.0
 10
76.3387081118
 20
187.0754714921
 30
0.0
 10
76.3437781381
 20
187.0957566049
 30
0.0
 10
76.3501147148
 20
187.1080945936
 30
0.0
 10
76.353429558
 20
187.1080945936
 30
0.0
  0
SPLINE
  5
3AE
100
AcDbEntity
  8
0
100
AcDbSpline
 62
7
  6
CONTINUOUS
 70
0
 71
3
 72
9
 73
5
 74
0
 42
0.0000001
 43
0.0000001
 44
0.0000000001
 40
0.0
 40
0.0
 40
0.0
 40
0.0
 40
0.2622447191
 40
1.0
 40
1.0
 40
1.0
 40
1.0
 10
88.3054068938
 20
135.7167714995
 30
0.0
 10
87.8897737741
 20
135.714925584
 30
0.0
 10
86.3048813599
 20
135.7056484121
 30
0.0
 10
84.7200296684
 20
135.6862484482
 30
0.0
 10
83.5509611846
 20
135.6637997679
 30
0.0
  0
SPLINE
  5
3AF
100
AcDbEntity
  8
0
100
AcDbSpline
 62
7
  6
CONTINUOUS
 70
0
 71
3
 72
13
 73
9
 74
0
 42
0.0000001
 43
0.0000001
 44
0.0000000001
 40
0.0
 40
0.0
 40
0.0
 40
0.0
 40
0.140672354
 40
0.2783001083
 40
0.4116846794
 40
0.5396548899
 40
0.7785143494
 40
1.0
 40
1.0
 40
1.0
 40
1.0
 10
85.237690369
 20
117.1471550693
 30
0.0
 10
85.2004702344
 20
116.9191318488
 30
0.0
 10
85.0818921303
 20
116.4763188259
 30
0.0
 10
84.8655958885
 20
115.8344590876
 30
0.0
 10
84.5627360784
 20
115.2508323534
 30
0.0
 10
84.1105236739
 20
114.5634559101
 30
0.0
 10
83.443451354
 20
113.8534068286
 30
0.0
 10
82.7910336786
 20
113.4420111494
 30
0.0
 10
82.4508850913
 20
113.3130657682
 30
0.0
  0
SPLINE
  5
3B0
100
AcDbEntity
  8
0
100
AcDbSpline
 62
7
  6
CONTINUOUS
 70
0
 71
3
 72
9
 73
5
 74
0
 42
0.0000001
 43
0.0000001
 44
0.0000000001
 40
0.0
 40
0.0
 40
0.0
 40
0.0
 40
0.2485397711
 40
1.0
 40
1.0
 40
1.0
 40
1.0
 10
85.5738492218
 20
118.5477868589
 30
0.0
 10
85.5392333357
 20
118.4335402014
 30
0.0
 10
85.4047924777
 20
117.9724976955
 30
0.0
 10
85.2957995025
 20
117.503391569
 30
0.0
 10
85.2376549213
 20
117.1471732211
 30
0.0
  0
SPLINE
  5
3B1
100
AcDbEntity
  8
0
100
AcDbSpline
 62
7
  6
CONTINUOUS
 70
0
 71
3
 72
9
 73
5
 74
0
 42
0.0000001
 43
0.0000001
 44
0.0000000001
 40
0.0
 40
0.0
 40
0.0
 40
0.0
 40
0.2797310575
 40
1.0
 40
1.0
 40
1.0
 40
1.0
 10
88.6045647017
 20
118.0653917066
 30
0.0
 10
88.3196456557
 20
118.0930185436
 30
0.0
 10
87.3028612873
 20
118.2088873776
 30
0.0
 10
86.2926309754
 20
118.3841955324
 30
0.0
 10
85.5738659092
 20
118.5474316279
 30
0.0
  0
SPLINE
  5
3B2
100
AcDbEntity
  8
0
100
AcDbSpline
 62
7
  6
CONTINUOUS
 70
0
 71
3
 72
8
 73
4
 74
0
 42
0.0000001
 43
0.0000001
 44
0.0000000001
 40
0.0
 40
0.0
 40
0.0
 40
0.0
 40
1.0
 40
1.0
 40
1.0
 40
1.0
 10
88.8558105093
 20
97.1203747396
 30
0.0
 10
88.8671965608
 20
97.1187793407
 30
0.0
 10
88.8786676982
 20
97.117679129
 30
0.0
 10
88.890154192
 20
97.1171812073
 30
0.0
  0
LINE
  5
3B3
100
AcDbEntity
  8
0
100
AcDbLine
 62
7
  6
CONTINUOUS
 10
81.390978876
 20
97.5118681223
 11
81.4156918445
 21
97.1733858047
  0
SPLINE
  5
3B4
100
AcDbEntity
  8
0
100
AcDbSpline
 62
7
  6
CONTINUOUS
 70
0
 71
3
 72
9
 73
5
 74
0
 42
0.0000001
 43
0.0000001
 44
0.0000000001
 40
0.0
 40
0.0
 40
0.0
 40
0.0
 40
0.244097897
 40
1.0
 40
1.0
 40
1.0
 40
1.0
 10
81.6767111749
 20
115.3513437062
 30
0.0
 10
81.7158972923
 20
115.1780124157
 30
0.0
 10
81.9031066833
 20
114.474102956
 30
0.0
 10
82.1896815297
 20
113.7975748445
 30
0.0
 10
82.4508659973
 20
113.3132018629
 30
0.0
  0
SPLINE
  5
3B5
100
AcDbEntity
  8
0
100
AcDbSpline
 62
7
  6
CONTINUOUS
 70
0
 71
3
 72
13
 73
9
 74
0
 42
0.0000001
 43
0.0000001
 44
0.0000000001
 40
0.0
 40
0.0
 40
0.0
 40
0.0
 40
0.3237575293
 40
0.4643671749
 40
0.5906885137
 40
0.8108105082
 40
0.9090895754
 40
1.0
 40
1.0
 40
1.0
 40
1.0
 10
83.2431586509
 20
117.9332806877
 30
0.0
 10
83.2500427388
 20
117.5851654524
 30
0.0
 10
83.1996169278
 20
117.0768644131
 30
0.0
 10
82.9627380213
 20
116.4836559574
 30
0.0
 10
82.679953346
 20
116.0397898136
 30
0.0
 10
82.327627493
 20
115.7042882623
 30
0.0
 10
81.9542337258
 20
115.4702622871
 30
0.0
 10
81.7689101949
 20
115.3838293712
 30
0.0
 10
81.6766972261
 20
115.3513398229
 30
0.0
  0
SPLINE
  5
3B6
100
AcDbEntity
  8
0
100
AcDbSpline
 62
7
  6
CONTINUOUS
 70
0
 71
3
 72
9
 73
5
 74
0
 42
0.0000001
 43
0.0000001
 44
0.0000000001
 40
0.0
 40
0.0
 40
0.0
 40
0.0
 40
0.4624016545
 40
1.0
 40
1.0
 40
1.0
 40
1.0
 10
83.2431586509
 20
117.9332806877
 30
0.0
 10
83.5272701287
 20
117.7630220199
 30
0.0
 10
84.1804252944
 20
117.4597806547
 30
0.0
 10
84.8650211456
 20
117.2442961477
 30
0.0
 10
85.2376567255
 20
117.1471722962
 30
0.0
  0
SPLINE
  5
3B7
100
AcDbEntity
  8
0
100
AcDbSpline
 62
7
  6
CONTINUOUS
 70
0
 71
3
 72
9
 73
5
 74
0
 42
0.0000001
 43
0.0000001
 44
0.0000000001
 40
0.0
 40
0.0
 40
0.0
 40
0.0
 40
0.2495890207
 40
1.0
 40
1.0
 40
1.0
 40
1.0
 10
85.5656540341
 20
152.5286233376
 30
0.0
 10
85.3577558155
 20
152.9412195122
 30
0.0
 10
84.5411060032
 20
154.6025399955
 30
0.0
 10
83.7830557167
 20
156.2922719246
 30
0.0
 10
83.238363913
 20
157.5701103994
 30
0.0
  0
SPLINE
  5
3B8
100
AcDbEntity
  8
0
100
AcDbSpline
 62
7
  6
CONTINUOUS
 70
0
 71
3
 72
22
 73
18
 74
0
 42
0.0000001
 43
0.0000001
 44
0.0000000001
 40
0.0
 40
0.0
 40
0.0
 40
0.0
 40
0.2432614506
 40
0.4563089044
 40
0.6357882672
 40
0.7119420847
 40
0.7786242497
 40
0.8355399504
 40
0.8823950865
 40
0.9189401754
 40
0.9451343433
 40
0.9544327631
 40
0.9613333876
 40
0.9661728101
 40
0.9699064746
 40
0.9803582749
 40
1.0
 40
1.0
 40
1.0
 40
1.0
 10
76.4616584955
 20
171.2486296206
 30
0.0
 10
76.4471542505
 20
171.1047479082
 30
0.0
 10
76.4189659383
 20
170.8349514729
 30
0.0
 10
76.3760532494
 20
170.4594348957
 30
0.0
 10
76.3406410116
 20
170.1830610605
 30
0.0
 10
76.3129802608
 20
169.9934575571
 30
0.0
 10
76.2941777046
 20
169.8762041534
 30
0.0
 10
76.276252332
 20
169.7764669806
 30
0.0
 10
76.2593082443
 20
169.694774
 30
0.0
 10
76.2433055494
 20
169.6315958378
 30
0.0
 10
76.2299614189
 20
169.590833875
 30
0.0
 10
76.2190441655
 20
169.5679908289
 30
0.0
 10
76.2120676227
 20
169.5576721129
 30
0.0
 10
76.2049996141
 20
169.5511616021
 30
0.0
 10
76.1926790129
 20
169.5505911161
 30
0.0
 10
76.180891699
 20
169.5710423982
 30
0.0
 10
76.1762060502
 20
169.5869964814
 30
0.0
 10
76.1732947195
 20
169.5983040682
 30
0.0
  0
SPLINE
  5
3B9
100
AcDbEntity
  8
0
100
AcDbSpline
 62
7
  6
CONTINUOUS
 70
0
 71
3
 72
9
 73
5
 74
0
 42
0.0000001
 43
0.0000001
 44
0.0000000001
 40
0.0
 40
0.0
 40
0.0
 40
0.0
 40
0.2670348362
 40
1.0
 40
1.0
 40
1.0
 40
1.0
 10
80.6912440344
 20
114.6388632962
 30
0.0
 10
80.7672747248
 20
114.7164384667
 30
0.0
 10
81.0588406456
 20
114.9981590055
 30
0.0
 10
81.3977811317
 20
115.2459959699
 30
0.0
 10
81.6766972261
 20
115.3513398229
 30
0.0
  0
SPLINE
  5
3BA
100
AcDbEntity
  8
0
100
AcDbSpline
 62
7
  6
CONTINUOUS
 70
0
 71
3
 72
12
 73
8
 74
0
 42
0.0000001
 43
0.0000001
 44
0.0000000001
 40
0.0
 40
0.0
 40
0.0
 40
0.0
 40
0.1428022783
 40
0.2761483967
 40
0.5263850738
 40
0.7659815573
 40
1.0
 40
1.0
 40
1.0
 40
1.0
 10
83.5509615196
 20
135.6636177361
 30
0.0
 10
83.3940005019
 20
135.6484490356
 30
0.0
 10
83.0850986064
 20
135.6619535764
 30
0.0
 10
82.5225693884
 20
135.8210976952
 30
0.0
 10
81.9188184795
 20
136.1699595659
 30
0.0
 10
81.317932749
 20
136.7007976233
 30
0.0
 10
80.9727852952
 20
137.0953778411
 30
0.0
 10
80.8116726031
 20
137.2974257477
 30
0.0
  0
SPLINE
  5
3BB
100
AcDbEntity
  8
0
100
AcDbSpline
 62
7
  6
CONTINUOUS
 70
0
 71
3
 72
9
 73
5
 74
0
 42
0.0000001
 43
0.0000001
 44
0.0000000001
 40
0.0
 40
0.0
 40
0.0
 40
0.0
 40
0.4628640935
 40
1.0
 40
1.0
 40
1.0
 40
1.0
 10
83.2181773888
 20
119.5233477883
 30
0.0
 10
83.5481973857
 20
119.3070661211
 30
0.0
 10
84.3181297432
 20
118.9275154166
 30
0.0
 10
85.1309742035
 20
118.6640767725
 30
0.0
 10
85.573851913
 20
118.5477850105
 30
0.0
  0
SPLINE
  5
3BC
100
AcDbEntity
  8
0
100
AcDbSpline
 62
7
  6
CONTINUOUS
 70
0
 71
3
 72
9
 73
5
 74
0
 42
0.0000001
 43
0.0000001
 44
0.0000000001
 40
0.0
 40
0.0
 40
0.0
 40
0.0
 40
0.2857227798
 40
1.0
 40
1.0
 40
1.0
 40
1.0
 10
80.8117132601
 20
137.2975341404
 30
0.0
 10
80.7349525235
 20
137.294789933
 30
0.0
 10
80.466351606
 20
137.2846553206
 30
0.0
 10
80.1975946156
 20
137.2722650581
 30
0.0
 10
80.0064591772
 20
137.2538922961
 30
0.0
  0
SPLINE
  5
3BD
100
AcDbEntity
  8
0
100
AcDbSpline
 62
7
  6
CONTINUOUS
 70
0
 71
3
 72
20
 73
16
 74
0
 42
0.0000001
 43
0.0000001
 44
0.0000000001
 40
0.0
 40
0.0
 40
0.0
 40
0.0
 40
0.2309810605
 40
0.4339399901
 40
0.6072823914
 40
0.7499130944
 40
0.8609676782
 40
0.9044401841
 40
0.9397915673
 40
0.9669642035
 40
0.9774696832
 40
0.9859222593
 40
0.9923319343
 40
0.9967238843
 40
1.0
 40
1.0
 40
1.0
 40
1.0
 10
83.2431586509
 20
117.9332806877
 30
0.0
 10
82.9380825912
 20
118.1031429092
 30
0.0
 10
82.364545816
 20
118.4215513007
 30
0.0
 10
81.560443546
 20
118.8645081932
 30
0.0
 10
80.8716819049
 20
119.2400398942
 30
0.0
 10
80.3030378096
 20
119.545584412
 30
0.0
 10
79.9053876486
 20
119.7546534911
 30
0.0
 10
79.6496438355
 20
119.8849036103
 30
0.0
 10
79.5058411629
 20
119.9558143158
 30
0.0
 10
79.4062245713
 20
120.0029208995
 30
0.0
 10
79.3419308512
 20
120.0308106456
 30
0.0
 10
79.3072060258
 20
120.0453709477
 30
0.0
 10
79.2777838877
 20
120.0549023616
 30
0.0
 10
79.2618271789
 20
120.0613130637
 30
0.0
 10
79.2419443486
 20
120.0611818528
 30
0.0
 10
79.2426838299
 20
120.0562848255
 30
0.0
  0
SPLINE
  5
3BE
100
AcDbEntity
  8
0
100
AcDbSpline
 62
7
  6
CONTINUOUS
 70
0
 71
3
 72
23
 73
19
 74
0
 42
0.0000001
 43
0.0000001
 44
0.0000000001
 40
0.0
 40
0.0
 40
0.0
 40
0.0
 40
0.4362012866
 40
0.6111722004
 40
0.6870785879
 40
0.7549654592
 40
0.8146655356
 40
0.8660728773
 40
0.9090870064
 40
0.9436125557
 40
0.9576658091
 40
0.9695678269
 40
0.9793142332
 40
0.9869084939
 40
0.992374374
 40
0.9958064862
 40
0.9976947047
 40
1.0
 40
1.0
 40
1.0
 40
1.0
 10
80.0064687048
 20
137.2538485282
 30
0.0
 10
79.4389623914
 20
137.8229515611
 30
0.0
 10
78.6441207
 20
138.6206430339
 30
0.0
 10
77.746191152
 20
139.5130355515
 30
0.0
 10
77.3274320203
 20
139.9248539352
 30
0.0
 10
77.0588475887
 20
140.1864696846
 30
0.0
 10
76.8211080017
 20
140.4150491885
 30
0.0
 10
76.614701761
 20
140.6100863551
 30
0.0
 10
76.440005784
 20
140.7711140984
 30
0.0
 10
76.3138814678
 20
140.8832810539
 30
0.0
 10
76.2287983462
 20
140.9552439752
 30
0.0
 10
76.177687978
 20
140.9966900261
 30
0.0
 10
76.1347203338
 20
141.0291556525
 30
0.0
 10
76.1002288208
 20
141.0533442527
 30
0.0
 10
76.0735033602
 20
141.0677032318
 30
0.0
 10
76.0554585185
 20
141.0764451861
 30
0.0
 10
76.0392249308
 20
141.0724521708
 30
0.0
 10
76.0399700238
 20
141.0626650164
 30
0.0
 10
76.0406368986
 20
141.0584701654
 30
0.0
  0
SPLINE
  5
3BF
100
AcDbEntity
  8
0
100
AcDbSpline
 62
7
  6
CONTINUOUS
 70
0
 71
3
 72
12
 73
8
 74
0
 42
0.0000001
 43
0.0000001
 44
0.0000000001
 40
0.0
 40
0.0
 40
0.0
 40
0.0
 40
0.1184329562
 40
0.240903751
 40
0.4920859038
 40
0.7464812281
 40
1.0
 40
1.0
 40
1.0
 40
1.0
 10
83.2181775239
 20
119.5233549654
 30
0.0
 10
83.2156453512
 20
120.2364105716
 30
0.0
 10
83.1434523174
 20
121.6866184329
 30
0.0
 10
82.8320063944
 20
124.6337393631
 30
0.0
 10
82.1958554892
 20
128.3648686389
 30
0.0
 10
81.1844045967
 20
132.8229846039
 30
0.0
 10
80.4072515172
 20
135.7810473692
 30
0.0
 10
80.0064629474
 20
137.2538730206
 30
0.0
  0
SPLINE
  5
3C0
100
AcDbEntity
  8
0
100
AcDbSpline
 62
7
  6
CONTINUOUS
 70
0
 71
3
 72
9
 73
5
 74
0
 42
0.0000001
 43
0.0000001
 44
0.0000000001
 40
0.0
 40
0.0
 40
0.0
 40
0.0
 40
0.2925694987
 40
1.0
 40
1.0
 40
1.0
 40
1.0
 10
81.227856953
 20
98.5248520689
 30
0.0
 10
81.2301483978
 20
98.5272204108
 30
0.0
 10
81.2283378599
 20
98.5402887652
 30
0.0
 10
81.2292954225
 20
98.5505691242
 30
0.0
 10
81.2289706037
 20
98.5585307866
 30
0.0
  0
SPLINE
  5
3C1
100
AcDbEntity
  8
0
100
AcDbSpline
 62
7
  6
CONTINUOUS
 70
0
 71
3
 72
16
 73
12
 74
0
 42
0.0000001
 43
0.0000001
 44
0.0000000001
 40
0.0
 40
0.0
 40
0.0
 40
0.0
 40
0.0282040247
 40
0.0618929991
 40
0.1458138292
 40
0.2504378343
 40
0.3726096534
 40
0.5107325541
 40
0.663588988
 40
0.8285094041
 40
1.0
 40
1.0
 40
1.0
 40
1.0
 10
81.2267158731
 20
98.5975129464
 30
0.0
 10
81.2178376924
 20
98.725042726
 30
0.0
 10
81.2236230711
 20
99.00654636
 30
0.0
 10
81.3020188217
 20
99.6631945187
 30
0.0
 10
81.509543973
 20
100.6501512003
 30
0.0
 10
81.8385191927
 20
102.0191297789
 30
0.0
 10
82.2192688421
 20
103.6290459044
 30
0.0
 10
82.5568152567
 20
105.4724544355
 30
0.0
 10
82.7388811639
 20
107.5357664652
 30
0.0
 10
82.6332082464
 20
109.7579969488
 30
0.0
 10
82.3706619877
 20
111.2632692706
 30
0.0
 10
82.2062968947
 20
112.0229962088
 30
0.0
  0
SPLINE
  5
3C2
100
AcDbEntity
  8
0
100
AcDbSpline
 62
7
  6
CONTINUOUS
 70
0
 71
3
 72
18
 73
14
 74
0
 42
0.0000001
 43
0.0000001
 44
0.0000000001
 40
0.0
 40
0.0
 40
0.0
 40
0.0
 40
0.2189160565
 40
0.4141977245
 40
0.5839338627
 40
0.7264015534
 40
0.8399303283
 40
0.8855758927
 40
0.9237020626
 40
0.9542308356
 40
0.9771266173
 40
0.9923731846
 40
1.0
 40
1.0
 40
1.0
 40
1.0
 10
82.2062210644
 20
112.0229721136
 30
0.0
 10
81.98979142
 20
111.8235991448
 30
0.0
 10
81.5621969176
 20
111.4655340905
 30
0.0
 10
80.9201870462
 20
111.0129096014
 30
0.0
 10
80.3390774378
 20
110.6549073971
 30
0.0
 10
79.8366622475
 20
110.3805542508
 30
0.0
 10
79.4735970178
 20
110.199799003
 30
0.0
 10
79.2328949277
 20
110.0884722827
 30
0.0
 10
79.0923341683
 20
110.0263060902
 30
0.0
 10
78.9789968566
 20
109.9786552176
 30
0.0
 10
78.8931376861
 20
109.943968555
 30
0.0
 10
78.8353043
 20
109.9245177451
 30
0.0
 10
78.8054756894
 20
109.9145521231
 30
0.0
 10
78.7952238566
 20
109.9145782711
 30
0.0
  0
SPLINE
  5
3C3
100
AcDbEntity
  8
0
100
AcDbSpline
 62
7
  6
CONTINUOUS
 70
0
 71
3
 72
9
 73
5
 74
0
 42
0.0000001
 43
0.0000001
 44
0.0000000001
 40
0.0
 40
0.0
 40
0.0
 40
0.0
 40
0.2479105313
 40
1.0
 40
1.0
 40
1.0
 40
1.0
 10
87.0781744831
 20
140.1520323885
 30
0.0
 10
87.2083073983
 20
140.1978594936
 30
0.0
 10
87.728641509
 20
140.3944684642
 30
0.0
 10
88.2302745773
 20
140.6485002359
 30
0.0
 10
88.5756154787
 20
140.884982626
 30
0.0
  0
SPLINE
  5
3C4
100
AcDbEntity
  8
0
100
AcDbSpline
 62
7
  6
CONTINUOUS
 70
0
 71
3
 72
9
 73
5
 74
0
 42
0.0000001
 43
0.0000001
 44
0.0000000001
 40
0.0
 40
0.0
 40
0.0
 40
0.0
 40
0.7032093513
 40
1.0
 40
1.0
 40
1.0
 40
1.0
 10
81.2148189572
 20
98.5699914099
 30
0.0
 10
81.2171293389
 20
98.5591950251
 30
0.0
 10
81.2218771096
 20
98.5453641876
 30
0.0
 10
81.2240706451
 20
98.5275681758
 30
0.0
 10
81.227856964
 20
98.52485202
 30
0.0
  0
SPLINE
  5
3C5
100
AcDbEntity
  8
0
100
AcDbSpline
 62
7
  6
CONTINUOUS
 70
0
 71
3
 72
23
 73
19
 74
0
 42
0.0000001
 43
0.0000001
 44
0.0000000001
 40
0.0
 40
0.0
 40
0.0
 40
0.0
 40
0.2306424796
 40
0.433586783
 40
0.6070958411
 40
0.7499741125
 40
0.8612209388
 40
0.9047362322
 40
0.9400580502
 40
0.9546272487
 40
0.9671313129
 40
0.9775688379
 40
0.9859406132
 40
0.9922525036
 40
0.9965252459
 40
0.9979205253
 40
0.9988616808
 40
1.0
 40
1.0
 40
1.0
 40
1.0
 10
85.5656540341
 20
152.5286233376
 30
0.0
 10
85.1241523569
 20
152.7751555116
 30
0.0
 10
84.2936180334
 20
153.2376276793
 30
0.0
 10
83.1286915009
 20
153.8814976604
 30
0.0
 10
82.129897843
 20
154.4281624964
 30
0.0
 10
81.3048407993
 20
154.8734811511
 30
0.0
 10
80.7279609362
 20
155.1785563798
 30
0.0
 10
80.3571275896
 20
155.3687234958
 30
0.0
 10
80.1738259311
 20
155.4600667063
 30
0.0
 10
80.0504970539
 20
155.5192521712
 30
0.0
 10
79.9759012429
 20
155.5539103934
 30
0.0
 10
79.9131536043
 20
155.5817011839
 30
0.0
 10
79.8622114767
 20
155.6028716567
 30
0.0
 10
79.8232712788
 20
155.6169037915
 30
0.0
 10
79.7978099213
 20
155.624740777
 30
0.0
 10
79.7836104605
 20
155.6260965923
 30
0.0
 10
79.7755535815
 20
155.6265840973
 30
0.0
 10
79.7723893047
 20
155.6210825181
 30
0.0
 10
79.7730150225
 20
155.6186665346
 30
0.0
  0
SPLINE
  5
3C6
100
AcDbEntity
  8
0
100
AcDbSpline
 62
7
  6
CONTINUOUS
 70
0
 71
3
 72
18
 73
14
 74
0
 42
0.0000001
 43
0.0000001
 44
0.0000000001
 40
0.0
 40
0.0
 40
0.0
 40
0.0
 40
0.0636466403
 40
0.1284379527
 40
0.1939440145
 40
0.2592862578
 40
0.3239520687
 40
0.3878644587
 40
0.5136059693
 40
0.6370975446
 40
0.7588345738
 40
0.879496527
 40
1.0
 40
1.0
 40
1.0
 40
1.0
 10
88.5756154787
 20
140.884982626
 30
0.0
 10
88.8071019554
 20
141.0434998334
 30
0.0
 10
89.2470147028
 20
141.4088466471
 30
0.0
 10
89.7360122549
 20
142.1280208358
 30
0.0
 10
89.9629427958
 20
142.975234747
 30
0.0
 10
89.9556087707
 20
143.8438307901
 30
0.0
 10
89.7985833089
 20
144.686831432
 30
0.0
 10
89.4676755408
 20
145.7595940495
 30
0.0
 10
88.9110866355
 20
147.0265869696
 30
0.0
 10
88.1364969846
 20
148.4674057359
 30
0.0
 10
87.3069045562
 20
149.8510553568
 30
0.0
 10
86.4472569293
 20
151.200251259
 30
0.0
 10
85.8607638269
 20
152.0869535917
 30
0.0
 10
85.5656540342
 20
152.5286233376
 30
0.0
  0
SPLINE
  5
3C7
100
AcDbEntity
  8
0
100
AcDbSpline
 62
7
  6
CONTINUOUS
 70
0
 71
3
 72
9
 73
5
 74
0
 42
0.0000001
 43
0.0000001
 44
0.0000000001
 40
0.0
 40
0.0
 40
0.0
 40
0.0
 40
0.2285301482
 40
1.0
 40
1.0
 40
1.0
 40
1.0
 10
80.6912243587
 20
114.6388204816
 30
0.0
 10
80.7526583475
 20
114.4156638794
 30
0.0
 10
81.0944989364
 20
113.4592253927
 30
0.0
 10
81.6857342467
 20
112.6057229293
 30
0.0
 10
82.2062299851
 20
112.0229708405
 30
0.0
  0
SPLINE
  5
3C8
100
AcDbEntity
  8
0
100
AcDbSpline
 62
7
  6
CONTINUOUS
 70
0
 71
3
 72
10
 73
6
 74
0
 42
0.0000001
 43
0.0000001
 44
0.0000000001
 40
0.0
 40
0.0
 40
0.0
 40
0.0
 40
0.2077264542
 40
0.4462970035
 40
1.0
 40
1.0
 40
1.0
 40
1.0
 10
82.4508509939
 20
113.3132492724
 30
0.0
 10
82.4197797312
 20
113.2276576263
 30
0.0
 10
82.368504753
 20
113.0382942887
 30
0.0
 10
82.2849208258
 20
112.6079702853
 30
0.0
 10
82.2375677075
 20
112.26367839
 30
0.0
 10
82.2062286522
 20
112.0229944707
 30
0.0
  0
SPLINE
  5
3C9
100
AcDbEntity
  8
0
100
AcDbSpline
 62
7
  6
CONTINUOUS
 70
0
 71
3
 72
17
 73
13
 74
0
 42
0.0000001
 43
0.0000001
 44
0.0000000001
 40
0.0
 40
0.0
 40
0.0
 40
0.0
 40
0.0310825075
 40
0.0688607229
 40
0.1129074862
 40
0.1628325998
 40
0.2770623875
 40
0.4056515515
 40
0.5451541099
 40
0.6925576304
 40
0.8449716924
 40
1.0
 40
1.0
 40
1.0
 40
1.0
 10
81.390979121
 20
97.5118668756
 30
0.0
 10
81.3880291507
 20
97.677940009
 30
0.0
 10
81.4180550723
 20
98.0462073377
 30
0.0
 10
81.524971723
 20
98.6402241595
 30
0.0
 10
81.6858205174
 20
99.325873051
 30
0.0
 10
81.961802127
 20
100.4036579645
 30
0.0
 10
82.3551597129
 20
101.9177636506
 30
0.0
 10
82.8038456273
 20
103.91197096
 30
0.0
 10
83.1155004903
 20
106.1140552452
 30
0.0
 10
83.1807498998
 20
108.4665628343
 30
0.0
 10
82.9562180957
 20
110.8920798963
 30
0.0
 10
82.6378210451
 20
112.5061283985
 30
0.0
 10
82.4508873533
 20
113.3132060058
 30
0.0
  0
LINE
  5
3CA
100
AcDbEntity
  8
0
100
AcDbLine
 62
7
  6
CONTINUOUS
 10
81.3842695295
 20
97.4198587492
 11
81.4022743958
 21
97.1656486238
  0
SPLINE
  5
3CB
100
AcDbEntity
  8
0
100
AcDbSpline
 62
7
  6
CONTINUOUS
 70
0
 71
3
 72
9
 73
5
 74
0
 42
0.0000001
 43
0.0000001
 44
0.0000000001
 40
0.0
 40
0.0
 40
0.0
 40
0.0
 40
0.2797244202
 40
1.0
 40
1.0
 40
1.0
 40
1.0
 10
81.3909791122
 20
97.5118668749
 30
0.0
 10
81.390943442
 20
97.5075209386
 30
0.0
 10
81.3907683063
 20
97.4919851625
 30
0.0
 10
81.3904072179
 20
97.4764494184
 30
0.0
 10
81.3899240549
 20
97.4652689206
 30
0.0
  0
SPLINE
  5
3CC
100
AcDbEntity
  8
0
100
AcDbSpline
 62
7
  6
CONTINUOUS
 70
0
 71
3
 72
9
 73
5
 74
0
 42
0.0000001
 43
0.0000001
 44
0.0000000001
 40
0.0
 40
0.0
 40
0.0
 40
0.0
 40
0.6615792981
 40
1.0
 40
1.0
 40
1.0
 40
1.0
 10
81.3899240549
 20
97.4652689206
 30
0.0
 10
81.389487548
 20
97.4551680543
 30
0.0
 10
81.3881115194
 20
97.4402382032
 30
0.0
 10
81.3868169321
 20
97.424408198
 30
0.0
 10
81.3843252479
 20
97.4198762378
 30
0.0
  0
LINE
  5
3CD
100
AcDbEntity
  8
0
100
AcDbLine
 62
7
  6
CONTINUOUS
 10
81.3617917418
 20
97.5118635997
 11
81.3782897891
 21
97.2862131068
  0
LINE
  5
3CE
100
AcDbEntity
  8
0
100
AcDbLine
 62
7
  6
CONTINUOUS
 10
88.5558975671
 20
204.3338844679
 11
88.1051058994
 21
204.3419280587
  0
SPLINE
  5
3CF
100
AcDbEntity
  8
0
100
AcDbSpline
 62
7
  6
CONTINUOUS
 70
0
 71
3
 72
16
 73
12
 74
0
 42
0.0000001
 43
0.0000001
 44
0.0000000001
 40
0.0
 40
0.0
 40
0.0
 40
0.0
 40
0.0182887162
 40
0.0430909085
 40
0.0749997684
 40
0.1144346363
 40
0.2161441047
 40
0.3452757762
 40
0.4967336803
 40
0.6621694078
 40
1.0
 40
1.0
 40
1.0
 40
1.0
 10
102.5171475454
 20
225.0868287925
 30
0.0
 10
102.4774201869
 20
225.0442626754
 30
0.0
 10
102.4003916448
 20
224.9290877783
 30
0.0
 10
102.2985554601
 20
224.7128877594
 30
0.0
 10
102.1949502848
 20
224.4244036136
 30
0.0
 10
102.0438081267
 20
223.8943619798
 30
0.0
 10
101.8707196918
 20
223.0504778537
 30
0.0
 10
101.6888938347
 20
221.8467966125
 30
0.0
 10
101.5343310153
 20
220.4348798553
 30
0.0
 10
101.3683724762
 20
218.3569190822
 30
0.0
 10
101.3014548422
 20
216.7553249692
 30
0.0
 10
101.2785954854
 20
215.6800332849
 30
0.0
  0
SPLINE
  5
3D0
100
AcDbEntity
  8
0
100
AcDbSpline
 62
7
  6
CONTINUOUS
 70
0
 71
3
 72
14
 73
10
 74
0
 42
0.0000001
 43
0.0000001
 44
0.0000000001
 40
0.0
 40
0.0
 40
0.0
 40
0.0
 40
0.3400989312
 40
0.5065014486
 40
0.6587742711
 40
0.7884524318
 40
0.8901700589
 40
0.9604164194
 40
1.0
 40
1.0
 40
1.0
 40
1.0
 10
112.3059748599
 20
215.5178762623
 30
0.0
 10
112.30635843
 20
216.5832466667
 30
0.0
 10
112.3010603721
 20
218.1698977789
 30
0.0
 10
112.2799325334
 20
220.2334170461
 30
0.0
 10
112.258189856
 20
221.6377641024
 30
0.0
 10
112.2303168967
 20
222.8392387641
 30
0.0
 10
112.2002593612
 20
223.7838582319
 30
0.0
 10
112.1659444684
 20
224.4453567039
 30
0.0
 10
112.1410342315
 20
224.7890318292
 30
0.0
 10
112.1222716647
 20
224.9116008778
 30
0.0
  0
SPLINE
  5
3D1
100
AcDbEntity
  8
0
100
AcDbSpline
 62
7
  6
CONTINUOUS
 70
0
 71
3
 72
12
 73
8
 74
0
 42
0.0000001
 43
0.0000001
 44
0.0000000001
 40
0.0
 40
0.0
 40
0.0
 40
0.0
 40
0.2858611651
 40
0.5547675976
 40
0.6785298083
 40
0.7939247574
 40
1.0
 40
1.0
 40
1.0
 40
1.0
 10
95.3953997028
 20
219.9766763008
 30
0.0
 10
95.6523328475
 20
220.6568825312
 30
0.0
 10
96.2600522749
 20
221.9393302308
 30
0.0
 10
97.3004821773
 20
223.3367785962
 30
0.0
 10
98.2627493848
 20
224.2059670788
 30
0.0
 10
99.2037691472
 20
224.8397266402
 30
0.0
 10
99.9906504493
 20
225.1321806909
 30
0.0
 10
100.5084147825
 20
225.2138860057
 30
0.0
  0
SPLINE
  5
3D2
100
AcDbEntity
  8
0
100
AcDbSpline
 62
7
  6
CONTINUOUS
 70
0
 71
3
 72
10
 73
6
 74
0
 42
0.0000001
 43
0.0000001
 44
0.0000000001
 40
0.0
 40
0.0
 40
0.0
 40
0.0
 40
0.3710223812
 40
0.6470727835
 40
1.0
 40
1.0
 40
1.0
 40
1.0
 10
82.6828339427
 20
212.5927978442
 30
0.0
 10
82.5959698218
 20
212.4878346683
 30
0.0
 10
82.5651413411
 20
212.2233793086
 30
0.0
 10
82.6331072038
 20
211.8679332368
 30
0.0
 10
82.7066201658
 20
211.646613315
 30
0.0
 10
82.7532572717
 20
211.5256954214
 30
0.0
  0
SPLINE
  5
3D3
100
AcDbEntity
  8
0
100
AcDbSpline
 62
7
  6
CONTINUOUS
 70
0
 71
3
 72
10
 73
6
 74
0
 42
0.0000001
 43
0.0000001
 44
0.0000000001
 40
0.0
 40
0.0
 40
0.0
 40
0.0
 40
0.1151265016
 40
0.3207594384
 40
1.0
 40
1.0
 40
1.0
 40
1.0
 10
81.384329914
 20
97.4198765692
 30
0.0
 10
81.3820077436
 20
97.4226862253
 30
0.0
 10
81.3786097074
 20
97.4325822523
 30
0.0
 10
81.3702574979
 20
97.4628314994
 30
0.0
 10
81.3655332456
 20
97.4906698523
 30
0.0
 10
81.3619018616
 20
97.5118668615
 30
0.0
  0
SPLINE
  5
3D4
100
AcDbEntity
  8
0
100
AcDbSpline
 62
7
  6
CONTINUOUS
 70
0
 71
3
 72
11
 73
7
 74
0
 42
0.0000001
 43
0.0000001
 44
0.0000000001
 40
0.0
 40
0.0
 40
0.0
 40
0.0
 40
0.2827384146
 40
0.5422008788
 40
0.7787891982
 40
1.0
 40
1.0
 40
1.0
 40
1.0
 10
82.7532628796
 20
211.5256951025
 30
0.0
 10
83.0839387351
 20
211.7931513809
 30
0.0
 10
83.7379388403
 20
212.2826361522
 30
0.0
 10
84.7526404116
 20
212.8754111297
 30
0.0
 10
85.7692453833
 20
213.2570922718
 30
0.0
 10
86.4622106957
 20
213.3404641011
 30
0.0
 10
86.7948841805
 20
213.3334011531
 30
0.0
  0
SPLINE
  5
3D5
100
AcDbEntity
  8
0
100
AcDbSpline
 62
7
  6
CONTINUOUS
 70
0
 71
3
 72
9
 73
5
 74
0
 42
0.0000001
 43
0.0000001
 44
0.0000000001
 40
0.0
 40
0.0
 40
0.0
 40
0.0
 40
0.2401412375
 40
1.0
 40
1.0
 40
1.0
 40
1.0
 10
86.794883548
 20
213.3334117634
 30
0.0
 10
86.895010921
 20
213.3313112304
 30
0.0
 10
87.3119621872
 20
213.3225291526
 30
0.0
 10
87.7289148547
 20
213.3138081898
 30
0.0
 10
88.045745532
 20
213.3074558253
 30
0.0
  0
SPLINE
  5
3D6
100
AcDbEntity
  8
0
100
AcDbSpline
 62
7
  6
CONTINUOUS
 70
0
 71
3
 72
11
 73
7
 74
0
 42
0.0000001
 43
0.0000001
 44
0.0000000001
 40
0.0
 40
0.0
 40
0.0
 40
0.0
 40
0.2215477385
 40
0.453196129
 40
0.7115717977
 40
1.0
 40
1.0
 40
1.0
 40
1.0
 10
87.0496937655
 20
212.734396284
 30
0.0
 10
86.9947135798
 20
212.7344448672
 30
0.0
 10
86.8812670481
 20
212.7831077482
 30
0.0
 10
86.7818464234
 20
212.9360869526
 30
0.0
 10
86.7430771217
 20
213.1290185615
 30
0.0
 10
86.7671067977
 20
213.2674358428
 30
0.0
 10
86.7948851288
 20
213.3334033248
 30
0.0
  0
SPLINE
  5
3D7
100
AcDbEntity
  8
0
100
AcDbSpline
 62
7
  6
CONTINUOUS
 70
0
 71
3
 72
15
 73
11
 74
0
 42
0.0000001
 43
0.0000001
 44
0.0000000001
 40
0.0
 40
0.0
 40
0.0
 40
0.0
 40
0.1577380183
 40
0.309941177
 40
0.4484496946
 40
0.5671669582
 40
0.6717207394
 40
0.7744201316
 40
0.8831100019
 40
1.0
 40
1.0
 40
1.0
 40
1.0
 10
80.7027423307
 20
208.7366459815
 30
0.0
 10
80.5276470215
 20
208.4950696351
 30
0.0
 10
80.2036965046
 20
208.0045050404
 30
0.0
 10
79.8503594243
 20
207.228159022
 30
0.0
 10
79.6890685353
 20
206.4615703601
 30
0.0
 10
79.778754544
 20
205.7630091918
 30
0.0
 10
80.1366169241
 20
205.2335042756
 30
0.0
 10
80.6594818489
 20
204.917391975
 30
0.0
 10
81.266182569
 20
204.7625336162
 30
0.0
 10
81.6939428358
 20
204.7363204626
 30
0.0
 10
81.915037691
 20
204.7362423706
 30
0.0
  0
SPLINE
  5
3D8
100
AcDbEntity
  8
0
100
AcDbSpline
 62
7
  6
CONTINUOUS
 70
0
 71
3
 72
10
 73
6
 74
0
 42
0.0000001
 43
0.0000001
 44
0.0000000001
 40
0.0
 40
0.0
 40
0.0
 40
0.0
 40
0.2243196393
 40
0.589245981
 40
1.0
 40
1.0
 40
1.0
 40
1.0
 10
87.0496753945
 20
212.7343932517
 30
0.0
 10
86.7195416068
 20
212.7345124961
 30
0.0
 10
85.8499708254
 20
212.622377545
 30
0.0
 10
84.4787025667
 20
212.0426731298
 30
0.0
 10
83.5266362955
 20
211.4069817571
 30
0.0
 10
83.0409239242
 20
211.047096251
 30
0.0
  0
SPLINE
  5
3D9
100
AcDbEntity
  8
0
100
AcDbSpline
 62
7
  6
CONTINUOUS
 70
0
 71
3
 72
11
 73
7
 74
0
 42
0.0000001
 43
0.0000001
 44
0.0000000001
 40
0.0
 40
0.0
 40
0.0
 40
0.0
 40
0.2417536807
 40
0.4900496794
 40
0.7435253703
 40
1.0
 40
1.0
 40
1.0
 40
1.0
 10
83.0409239242
 20
211.047096251
 30
0.0
 10
82.8266769278
 20
210.8898422038
 30
0.0
 10
82.4058735014
 20
210.5525791999
 30
0.0
 10
81.8009865433
 20
210.0021408651
 30
0.0
 10
81.2242335702
 20
209.3991727429
 30
0.0
 10
80.8715836542
 20
208.9624486251
 30
0.0
 10
80.7027423265
 20
208.7366459815
 30
0.0
  0
SPLINE
  5
3DA
100
AcDbEntity
  8
0
100
AcDbSpline
 62
7
  6
CONTINUOUS
 70
0
 71
3
 72
26
 73
22
 74
0
 42
0.0000001
 43
0.0000001
 44
0.0000000001
 40
0.0
 40
0.0
 40
0.0
 40
0.0
 40
0.0095663228
 40
0.0167736619
 40
0.0236935903
 40
0.0325066587
 40
0.0442800051
 40
0.059351668
 40
0.0776470822
 40
0.0989457217
 40
0.1229760886
 40
0.1494444688
 40
0.2086074975
 40
0.2744108971
 40
0.3453117807
 40
0.4200660426
 40
0.4978448624
 40
0.5780033068
 40
0.660018897
 40
0.8281481851
 40
1.0
 40
1.0
 40
1.0
 40
1.0
 10
76.1015492025
 20
173.2933254097
 30
0.0
 10
76.1067993475
 20
173.3527109493
 30
0.0
 10
76.1236926914
 20
173.4570736558
 30
0.0
 10
76.2090289506
 20
173.5879645977
 30
0.0
 10
76.3544170458
 20
173.6329412285
 30
0.0
 10
76.5259175719
 20
173.5994404574
 30
0.0
 10
76.7292800183
 20
173.507958977
 30
0.0
 10
76.9671870476
 20
173.3565268996
 30
0.0
 10
77.238363909
 20
173.150012482
 30
0.0
 10
77.5396484902
 20
172.8919776662
 30
0.0
 10
77.8675966156
 20
172.5874745151
 30
0.0
 10
78.3543363697
 20
172.1076405144
 30
0.0
 10
79.0031930304
 20
171.4220166311
 30
0.0
 10
79.8176625531
 20
170.5127361225
 30
0.0
 10
80.6782533196
 20
169.5146616088
 30
0.0
 10
81.5738290653
 20
168.4484070935
 30
0.0
 10
82.4950495426
 20
167.3284565517
 30
0.0
 10
83.4359274881
 20
166.1661540845
 30
0.0
 10
84.7224245349
 20
164.5592475348
 30
0.0
 10
86.3517854621
 20
162.4948771728
 30
0.0
 10
87.652418883
 20
160.8223033518
 30
0.0
 10
88.3101895167
 20
159.9771223507
 30
0.0
  0
SPLINE
  5
3DB
100
AcDbEntity
  8
0
100
AcDbSpline
 62
7
  6
CONTINUOUS
 70
0
 71
3
 72
11
 73
7
 74
0
 42
0.0000001
 43
0.0000001
 44
0.0000000001
 40
0.0
 40
0.0
 40
0.0
 40
0.0
 40
0.2986392247
 40
0.5629250042
 40
0.7921605809
 40
1.0
 40
1.0
 40
1.0
 40
1.0
 10
88.0458253187
 20
213.3073824782
 30
0.0
 10
88.0248425014
 20
213.2413017729
 30
0.0
 10
88.0095183264
 20
213.1080587946
 30
0.0
 10
88.0478181125
 20
212.9255537257
 30
0.0
 10
88.1342409992
 20
212.7821971134
 30
0.0
 10
88.2354839166
 20
212.7340308723
 30
0.0
 10
88.283735871
 20
212.73396275
 30
0.0
  0
SPLINE
  5
3DC
100
AcDbEntity
  8
0
100
AcDbSpline
 62
7
  6
CONTINUOUS
 70
0
 71
3
 72
11
 73
7
 74
0
 42
0.0000001
 43
0.0000001
 44
0.0000000001
 40
0.0
 40
0.0
 40
0.0
 40
0.0
 40
0.2753585288
 40
0.5385416771
 40
0.7823689206
 40
1.0
 40
1.0
 40
1.0
 40
1.0
 10
101.2785954791
 20
215.680033111
 30
0.0
 10
100.721796048
 20
216.0507275715
 30
0.0
 10
99.6429450852
 20
216.790936202
 30
0.0
 10
98.0943676209
 20
217.8929172853
 30
0.0
 10
96.683466194
 20
218.9459215858
 30
0.0
 10
95.8047815592
 20
219.6422966364
 30
0.0
 10
95.3952605313
 20
219.9766483676
 30
0.0
  0
SPLINE
  5
3DD
100
AcDbEntity
  8
0
100
AcDbSpline
 62
7
  6
CONTINUOUS
 70
0
 71
3
 72
15
 73
11
 74
0
 42
0.0000001
 43
0.0000001
 44
0.0000000001
 40
0.0
 40
0.0
 40
0.0
 40
0.0
 40
0.4036758967
 40
0.5691251935
 40
0.7084587317
 40
0.8208038187
 40
0.9057309441
 40
0.9380180315
 40
0.9639043629
 40
1.0
 40
1.0
 40
1.0
 40
1.0
 10
95.3952605313
 20
219.9766483676
 30
0.0
 10
94.9897920893
 20
220.3071781673
 30
0.0
 10
94.413615039
 20
220.7680995167
 30
0.0
 10
93.6707498237
 20
221.3078696186
 30
0.0
 10
93.2211568455
 20
221.6082984553
 30
0.0
 10
92.8450709076
 20
221.8299919451
 30
0.0
 10
92.5774473772
 20
221.9606302987
 30
0.0
 10
92.4007839678
 20
222.0205255373
 30
0.0
 10
92.2828987237
 20
222.0457119832
 30
0.0
 10
92.1939855002
 20
222.0394914364
 30
0.0
 10
92.1559101365
 20
222.0123204444
 30
0.0
  0
SPLINE
  5
3DE
100
AcDbEntity
  8
0
100
AcDbSpline
 62
7
  6
CONTINUOUS
 70
0
 71
3
 72
13
 73
9
 74
0
 42
0.0000001
 43
0.0000001
 44
0.0000000001
 40
0.0
 40
0.0
 40
0.0
 40
0.0
 40
0.1203902404
 40
0.2097623976
 40
0.3220142892
 40
0.4577278485
 40
0.6166189109
 40
1.0
 40
1.0
 40
1.0
 40
1.0
 10
86.6826535306
 20
216.5661686773
 30
0.0
 10
86.5897109828
 20
216.4533688753
 30
0.0
 10
86.5707741132
 20
216.1647206918
 30
0.0
 10
86.6587980843
 20
215.791046666
 30
0.0
 10
86.8015197288
 20
215.4036040439
 30
0.0
 10
87.0144695002
 20
214.9583928429
 30
0.0
 10
87.4156677998
 20
214.2388400382
 30
0.0
 10
87.7791079974
 20
213.6889484522
 30
0.0
 10
88.045745532
 20
213.3074558253
 30
0.0
  0
SPLINE
  5
3DF
100
AcDbEntity
  8
0
100
AcDbSpline
 62
7
  6
CONTINUOUS
 70
0
 71
3
 72
9
 73
5
 74
0
 42
0.0000001
 43
0.0000001
 44
0.0000000001
 40
0.0
 40
0.0
 40
0.0
 40
0.0
 40
0.2265960454
 40
1.0
 40
1.0
 40
1.0
 40
1.0
 10
88.0458214315
 20
213.3073921913
 30
0.0
 10
88.5712178277
 20
213.2993528651
 30
0.0
 10
90.8898457024
 20
213.2625535367
 30
0.0
 10
93.208381397
 20
213.2202717775
 30
0.0
 10
95.0015838383
 20
213.1898069012
 30
0.0
  0
SPLINE
  5
3E0
100
AcDbEntity
  8
0
100
AcDbSpline
 62
7
  6
CONTINUOUS
 70
0
 71
3
 72
23
 73
19
 74
0
 42
0.0000001
 43
0.0000001
 44
0.0000000001
 40
0.0
 40
0.0
 40
0.0
 40
0.0
 40
0.1944297263
 40
0.3815773109
 40
0.4701759418
 40
0.5542758678
 40
0.6330218638
 40
0.7056850899
 40
0.7715680956
 40
0.8300455925
 40
0.8805605947
 40
0.9225860625
 40
0.9557509241
 40
0.9797429342
 40
0.988236274
 40
0.9943915058
 40
0.9982394047
 40
1.0
 40
1.0
 40
1.0
 40
1.0
 10
111.9376991463
 20
27.0088885408
 30
0.0
 10
111.9886275987
 20
26.6877918636
 30
0.0
 10
112.0421325579
 20
26.0498236168
 30
0.0
 10
112.02592837
 20
25.2632523605
 30
0.0
 10
111.9934215581
 20
24.662440176
 30
0.0
 10
111.9683339601
 20
24.2427328458
 30
0.0
 10
111.9513251869
 20
23.8492838075
 30
0.0
 10
111.9394092689
 20
23.4861408166
 30
0.0
 10
111.9263000796
 20
23.1569466568
 30
0.0
 10
111.9099395802
 20
22.8649724636
 30
0.0
 10
111.8930052307
 20
22.613041239
 30
0.0
 10
111.8775450766
 20
22.4033484018
 30
0.0
 10
111.8634385298
 20
22.238268883
 30
0.0
 10
111.851231613
 20
22.1287895226
 30
0.0
 10
111.8412841326
 20
22.0654096852
 30
0.0
 10
111.8343460176
 20
22.0344103232
 30
0.0
 10
111.8292477296
 20
22.0170127568
 30
0.0
 10
111.8231144665
 20
22.0071175316
 30
0.0
 10
111.8201705345
 20
22.007117637
 30
0.0
  0
SPLINE
  5
3E1
100
AcDbEntity
  8
0
100
AcDbSpline
 62
7
  6
CONTINUOUS
 70
0
 71
3
 72
14
 73
10
 74
0
 42
0.0000001
 43
0.0000001
 44
0.0000000001
 40
0.0
 40
0.0
 40
0.0
 40
0.0
 40
0.2944296557
 40
0.4427477731
 40
0.5839648835
 40
0.7122195925
 40
0.8243465778
 40
0.919500377
 40
1.0
 40
1.0
 40
1.0
 40
1.0
 10
89.3114932639
 20
27.7682377517
 30
0.0
 10
89.2958560903
 20
27.2230807052
 30
0.0
 10
89.3353094706
 20
26.3987660449
 30
0.0
 10
89.5352352311
 20
25.3343312894
 30
0.0
 10
89.7567877793
 20
24.5909865037
 30
0.0
 10
90.0461281816
 20
23.9432792683
 30
0.0
 10
90.3908611954
 20
23.422075291
 30
0.0
 10
90.7725693472
 20
23.0429782731
 30
0.0
 10
91.0634449759
 20
22.8842627412
 30
0.0
 10
91.204577338
 20
22.8361375254
 30
0.0
  0
SPLINE
  5
3E2
100
AcDbEntity
  8
0
100
AcDbSpline
 62
7
  6
CONTINUOUS
 70
0
 71
3
 72
9
 73
5
 74
0
 42
0.0000001
 43
0.0000001
 44
0.0000000001
 40
0.0
 40
0.0
 40
0.0
 40
0.0
 40
0.2587748058
 40
1.0
 40
1.0
 40
1.0
 40
1.0
 10
91.204577338
 20
22.8361375254
 30
0.0
 10
91.2332318616
 20
22.8263665196
 30
0.0
 10
91.345219391
 20
22.7924293402
 30
0.0
 10
91.4620885505
 20
22.7743359121
 30
0.0
 10
91.5487386681
 20
22.7709153606
 30
0.0
  0
SPLINE
  5
3E3
100
AcDbEntity
  8
0
100
AcDbSpline
 62
7
  6
CONTINUOUS
 70
0
 71
3
 72
13
 73
9
 74
0
 42
0.0000001
 43
0.0000001
 44
0.0000000001
 40
0.0
 40
0.0
 40
0.0
 40
0.0
 40
0.2393146578
 40
0.367905838
 40
0.4990685913
 40
0.6303713073
 40
0.759344401
 40
1.0
 40
1.0
 40
1.0
 40
1.0
 10
81.4093478863
 20
27.9637887544
 30
0.0
 10
81.4091285234
 20
27.3545391941
 30
0.0
 10
81.5840161534
 20
26.4058643728
 30
0.0
 10
82.1611952359
 20
25.2675341412
 30
0.0
 10
82.7761948017
 20
24.475611408
 30
0.0
 10
83.5427612429
 20
23.8277402424
 30
0.0
 10
84.6606431054
 20
23.2020134153
 30
0.0
 10
85.6064570312
 20
22.9887866027
 30
0.0
 10
86.2186805826
 20
22.9655757986
 30
0.0
  0
SPLINE
  5
3E4
100
AcDbEntity
  8
0
100
AcDbSpline
 62
7
  6
CONTINUOUS
 70
0
 71
3
 72
14
 73
10
 74
0
 42
0.0000001
 43
0.0000001
 44
0.0000000001
 40
0.0
 40
0.0
 40
0.0
 40
0.0
 40
0.0753634316
 40
0.1629804291
 40
0.2690512056
 40
0.3946316054
 40
0.5374718348
 40
0.6911276819
 40
1.0
 40
1.0
 40
1.0
 40
1.0
 10
91.1055829306
 20
22.7874919272
 30
0.0
 10
90.9573663665
 20
22.7933428931
 30
0.0
 10
90.6372555375
 20
22.8703594632
 30
0.0
 10
90.1899233532
 20
23.1697890557
 30
0.0
 10
89.7825303284
 20
23.6561964443
 30
0.0
 10
89.4287435311
 20
24.3070511467
 30
0.0
 10
89.1552291282
 20
25.0946073659
 30
0.0
 10
88.902295362
 20
26.2608727361
 30
0.0
 10
88.8509069649
 20
27.1771347953
 30
0.0
 10
88.8683375264
 20
27.7848143183
 30
0.0
  0
SPLINE
  5
3E5
100
AcDbEntity
  8
0
100
AcDbSpline
 62
7
  6
CONTINUOUS
 70
0
 71
3
 72
17
 73
13
 74
0
 42
0.0000001
 43
0.0000001
 44
0.0000000001
 40
0.0
 40
0.0
 40
0.0
 40
0.0
 40
0.0032075669
 40
0.0136264819
 40
0.0315851244
 40
0.0571281594
 40
0.0902909192
 40
0.1311120793
 40
0.2359985695
 40
0.3726727115
 40
0.5428626842
 40
1.0
 40
1.0
 40
1.0
 40
1.0
 10
78.887933028
 20
113.66468313
 30
0.0
 10
78.8873644746
 20
113.6625383038
 30
0.0
 10
78.9032319007
 20
113.6629525114
 30
0.0
 10
78.9183019924
 20
113.6663952176
 30
0.0
 10
78.9585843365
 20
113.6745336719
 30
0.0
 10
79.0082614558
 20
113.6875076007
 30
0.0
 10
79.0752512124
 20
113.706090826
 30
0.0
 10
79.1933668075
 20
113.741909776
 30
0.0
 10
79.3783830425
 20
113.8054750469
 30
0.0
 10
79.6421928314
 20
113.9133676046
 30
0.0
 10
80.1150049962
 20
114.1497699433
 30
0.0
 10
80.4700697587
 20
114.4128406338
 30
0.0
 10
80.6912440344
 20
114.6388632962
 30
0.0
  0
SPLINE
  5
3E6
100
AcDbEntity
  8
0
100
AcDbSpline
 62
7
  6
CONTINUOUS
 70
0
 71
3
 72
8
 73
4
 74
0
 42
0.0000001
 43
0.0000001
 44
0.0000000001
 40
0.0
 40
0.0
 40
0.0
 40
0.0
 40
1.0
 40
1.0
 40
1.0
 40
1.0
 10
89.3363486149
 20
96.8042738066
 30
0.0
 10
89.2062100001
 20
96.7820085085
 30
0.0
 10
89.0767665261
 20
96.7558247639
 30
0.0
 10
88.9467131264
 20
96.7330670001
 30
0.0
  0
SPLINE
  5
3E7
100
AcDbEntity
  8
0
100
AcDbSpline
 62
7
  6
CONTINUOUS
 70
0
 71
3
 72
9
 73
5
 74
0
 42
0.0000001
 43
0.0000001
 44
0.0000000001
 40
0.0
 40
0.0
 40
0.0
 40
0.0
 40
0.4978234395
 40
1.0
 40
1.0
 40
1.0
 40
1.0
 10
89.915084587
 20
96.914965166
 30
0.0
 10
89.8240504816
 20
96.8988000608
 30
0.0
 10
89.6434864606
 20
96.8545403977
 30
0.0
 10
89.4601478022
 20
96.8241891083
 30
0.0
 10
89.3679865045
 20
96.8098723501
 30
0.0
  0
SPLINE
  5
3E8
100
AcDbEntity
  8
0
100
AcDbSpline
 62
7
  6
CONTINUOUS
 70
0
 71
3
 72
9
 73
5
 74
0
 42
0.0000001
 43
0.0000001
 44
0.0000000001
 40
0.0
 40
0.0
 40
0.0
 40
0.0
 40
0.2439815336
 40
1.0
 40
1.0
 40
1.0
 40
1.0
 10
112.1200589182
 20
116.3862360421
 30
0.0
 10
112.1005759228
 20
114.8021196299
 30
0.0
 10
112.0282109152
 20
108.3092570507
 30
0.0
 10
111.983169999
 20
101.8160970849
 30
0.0
 10
111.9628415355
 20
96.9071125846
 30
0.0
  0
SPLINE
  5
3E9
100
AcDbEntity
  8
0
100
AcDbSpline
 62
7
  6
CONTINUOUS
 70
0
 71
3
 72
9
 73
5
 74
0
 42
0.0000001
 43
0.0000001
 44
0.0000000001
 40
0.0
 40
0.0
 40
0.0
 40
0.0
 40
0.4990265001
 40
1.0
 40
1.0
 40
1.0
 40
1.0
 10
89.3436541607
 20
97.0325695832
 30
0.0
 10
89.4396743033
 20
97.0182894865
 30
0.0
 10
89.6314619606
 20
96.9846341793
 30
0.0
 10
89.8202267001
 20
96.9373586377
 30
0.0
 10
89.9150765528
 20
96.914976201
 30
0.0
  0
SPLINE
  5
3EA
100
AcDbEntity
  8
0
100
AcDbSpline
 62
7
  6
CONTINUOUS
 70
0
 71
3
 72
9
 73
5
 74
0
 42
0.0000001
 43
0.0000001
 44
0.0000000001
 40
0.0
 40
0.0
 40
0.0
 40
0.0
 40
0.4865939019
 40
1.0
 40
1.0
 40
1.0
 40
1.0
 10
90.8217513142
 20
117.8507055934
 30
0.0
 10
90.5349309017
 20
114.4776566284
 30
0.0
 10
90.0032728496
 20
107.5407499576
 30
0.0
 10
89.5554873185
 20
100.5980670511
 30
0.0
 10
89.3428247598
 20
97.0326502708
 30
0.0
  0
SPLINE
  5
3EB
100
AcDbEntity
  8
0
100
AcDbSpline
 62
7
  6
CONTINUOUS
 70
0
 71
3
 72
16
 73
12
 74
0
 42
0.0000001
 43
0.0000001
 44
0.0000000001
 40
0.0
 40
0.0
 40
0.0
 40
0.0
 40
0.1257163823
 40
0.2382699141
 40
0.3421945984
 40
0.444539847
 40
0.5527559851
 40
0.675115524
 40
0.7441102987
 40
0.819914403
 40
1.0
 40
1.0
 40
1.0
 40
1.0
 10
112.1200589964
 20
116.3862416591
 30
0.0
 10
111.2251564055
 20
116.3865643192
 30
0.0
 10
109.52913137
 20
116.4165156298
 30
0.0
 10
107.094327247
 20
116.4923972295
 30
0.0
 10
104.8281349129
 20
116.620838633
 30
0.0
 10
102.5970790931
 20
116.807288407
 30
0.0
 10
100.2389894825
 20
117.0434223589
 30
0.0
 10
98.1167141185
 20
117.2518631485
 30
0.0
 10
96.2224265553
 20
117.4203742218
 30
0.0
 10
93.9177259712
 20
117.6119525825
 30
0.0
 10
92.0993403166
 20
117.7266516963
 30
0.0
 10
90.8234018317
 20
117.8504047461
 30
0.0
  0
SPLINE
  5
3EC
100
AcDbEntity
  8
0
100
AcDbSpline
 62
7
  6
CONTINUOUS
 70
0
 71
3
 72
25
 73
21
 74
0
 42
0.0000001
 43
0.0000001
 44
0.0000000001
 40
0.0
 40
0.0
 40
0.0
 40
0.0
 40
0.0550745838
 40
0.1089169136
 40
0.2129007726
 40
0.312017254
 40
0.4059132584
 40
0.4941140402
 40
0.57626011
 40
0.6519655915
 40
0.7208838499
 40
0.7827417293
 40
0.8373003983
 40
0.8842748841
 40
0.9234573228
 40
0.954719646
 40
0.9779435748
 40
0.9930426812
 40
0.9975360936
 40
1.0
 40
1.0
 40
1.0
 40
1.0
 10
88.8558105093
 20
97.1203747396
 30
0.0
 10
88.7194266194
 20
97.1287629017
 30
0.0
 10
88.4501590093
 20
97.1517379268
 30
0.0
 10
87.9223109819
 20
97.1768615152
 30
0.0
 10
87.2846656852
 20
97.1632069147
 30
0.0
 10
86.5478430094
 20
97.1633800745
 30
0.0
 10
85.850192459
 20
97.1732170744
 30
0.0
 10
85.1946455985
 20
97.1807858144
 30
0.0
 10
84.5843137189
 20
97.1945212903
 30
0.0
 10
84.0216764909
 20
97.1960410732
 30
0.0
 10
83.5094033484
 20
97.1993468589
 30
0.0
 10
83.0496116257
 20
97.2053392639
 30
0.0
 10
82.6442287541
 20
97.2046783313
 30
0.0
 10
82.2951065656
 20
97.2037212959
 30
0.0
 10
82.0038034189
 20
97.2028004433
 30
0.0
 10
81.7713850837
 20
97.1981555398
 30
0.0
 10
81.5989980687
 20
97.1913373359
 30
0.0
 10
81.4926818273
 20
97.185517522
 30
0.0
 10
81.4385672171
 20
97.1785721992
 30
0.0
 10
81.4213638473
 20
97.1756659789
 30
0.0
 10
81.4156919893
 20
97.1733858345
 30
0.0
  0
SPLINE
  5
3ED
100
AcDbEntity
  8
0
100
AcDbSpline
 62
7
  6
CONTINUOUS
 70
0
 71
3
 72
11
 73
7
 74
0
 42
0.0000001
 43
0.0000001
 44
0.0000000001
 40
0.0
 40
0.0
 40
0.0
 40
0.0
 40
0.2495734621
 40
0.4369835543
 40
0.624548134
 40
1.0
 40
1.0
 40
1.0
 40
1.0
 10
95.0060672137
 20
209.9799126656
 30
0.0
 10
95.5369417065
 20
210.4440005922
 30
0.0
 10
96.4631213833
 20
211.2604313339
 30
0.0
 10
97.7735747593
 20
212.4421583262
 30
0.0
 10
99.334992345
 20
213.8764784617
 30
0.0
 10
100.5034387853
 20
214.9558935074
 30
0.0
 10
101.2785954791
 20
215.680033111
 30
0.0
  0
SPLINE
  5
3EE
100
AcDbEntity
  8
0
100
AcDbSpline
 62
7
  6
CONTINUOUS
 70
0
 71
3
 72
21
 73
17
 74
0
 42
0.0000001
 43
0.0000001
 44
0.0000000001
 40
0.0
 40
0.0
 40
0.0
 40
0.0
 40
0.0016557534
 40
0.0054421717
 40
0.0115503166
 40
0.0200023098
 40
0.043918282
 40
0.077021501
 40
0.1189734934
 40
0.1694059564
 40
0.2278282563
 40
0.2936700886
 40
0.4450687002
 40
0.6177260885
 40
0.8051968977
 40
1.0
 40
1.0
 40
1.0
 40
1.0
 10
94.8744272703
 20
212.7315745608
 30
0.0
 10
94.8722170314
 20
212.7315745608
 30
0.0
 10
94.8679959532
 20
212.7233425422
 30
0.0
 10
94.8646156795
 20
212.7098177156
 30
0.0
 10
94.8600353151
 20
212.6849390946
 30
0.0
 10
94.8536805245
 20
212.6344312832
 30
0.0
 10
94.8460942073
 20
212.5469994671
 30
0.0
 10
94.8378754414
 20
212.4153001099
 30
0.0
 10
94.8298180243
 20
212.2479152438
 30
0.0
 10
94.8221211731
 20
212.0467730472
 30
0.0
 10
94.8148566227
 20
211.8136775864
 30
0.0
 10
94.8054315909
 20
211.44582208
 30
0.0
 10
94.7956850327
 20
210.9254373946
 30
0.0
 10
94.7871811475
 20
210.2426588519
 30
0.0
 10
94.7818273931
 20
209.5019060154
 30
0.0
 10
94.7804985134
 20
208.9916143792
 30
0.0
 10
94.7804048902
 20
208.7315748202
 30
0.0
  0
SPLINE
  5
3EF
100
AcDbEntity
  8
0
100
AcDbSpline
 62
7
  6
CONTINUOUS
 70
0
 71
3
 72
21
 73
17
 74
0
 42
0.0000001
 43
0.0000001
 44
0.0000000001
 40
0.0
 40
0.0
 40
0.0
 40
0.0
 40
0.1948059128
 40
0.3822787475
 40
0.5549374092
 40
0.7063364445
 40
0.7721781553
 40
0.8306001252
 40
0.881032029
 40
0.9229832597
 40
0.9560855118
 40
0.9800003084
 40
0.988451649
 40
0.994559104
 40
0.9983448126
 40
1.0
 40
1.0
 40
1.0
 40
1.0
 10
94.7804048902
 20
208.7315748202
 30
0.0
 10
94.7803112672
 20
208.4715357626
 30
0.0
 10
94.7812726935
 20
207.9612451923
 30
0.0
 10
94.7860930467
 20
207.2204926527
 30
0.0
 10
94.7941052704
 20
206.5377143627
 30
0.0
 10
94.8034771094
 20
206.0173292029
 30
0.0
 10
94.812637268
 20
205.649473064
 30
0.0
 10
94.8197339737
 20
205.4163775947
 30
0.0
 10
94.8272859545
 20
205.2152354164
 30
0.0
 10
94.8352229075
 20
205.0478505667
 30
0.0
 10
94.8433466061
 20
204.916151433
 30
0.0
 10
94.8508703877
 20
204.8287192329
 30
0.0
 10
94.857188237
 20
204.7782112392
 30
0.0
 10
94.8617516312
 20
204.7533323073
 30
0.0
 10
94.8651202479
 20
204.7398082236
 30
0.0
 10
94.8693375471
 20
204.7315750796
 30
0.0
 10
94.8715469943
 20
204.7315750796
 30
0.0
  0
LINE
  5
3F0
100
AcDbEntity
  8
0
100
AcDbLine
 62
7
  6
CONTINUOUS
 10
95.0029344765
 20
212.7324812428
 11
95.0015795237
 21
213.1898153293
  0
SPLINE
  5
3F1
100
AcDbEntity
  8
0
100
AcDbSpline
 62
7
  6
CONTINUOUS
 70
0
 71
3
 72
10
 73
6
 74
0
 42
0.0000001
 43
0.0000001
 44
0.0000000001
 40
0.0
 40
0.0
 40
0.0
 40
0.0
 40
0.1088430618
 40
0.3283335433
 40
1.0
 40
1.0
 40
1.0
 40
1.0
 10
92.419781616
 20
204.7324978238
 30
0.0
 10
92.4044304492
 20
204.7325038767
 30
0.0
 10
92.3712012213
 20
204.6868189325
 30
0.0
 10
92.3353481102
 20
204.5581957381
 30
0.0
 10
92.3251145898
 20
204.4272666096
 30
0.0
 10
92.3250804832
 20
204.3325351332
 30
0.0
  0
SPLINE
  5
3F2
100
AcDbEntity
  8
0
100
AcDbSpline
 62
7
  6
CONTINUOUS
 70
0
 71
3
 72
8
 73
4
 74
0
 42
0.0000001
 43
0.0000001
 44
0.0000000001
 40
0.0
 40
0.0
 40
0.0
 40
0.0
 40
1.0
 40
1.0
 40
1.0
 40
1.0
 10
88.8903014961
 20
97.1171487743
 30
0.0
 10
89.0284190566
 20
97.0938549656
 30
0.0
 10
89.165904741
 20
97.0669371301
 30
0.0
 10
89.303473502
 20
97.040595186
 30
0.0
  0
SPLINE
  5
3F3
100
AcDbEntity
  8
0
100
AcDbSpline
 62
7
  6
CONTINUOUS
 70
0
 71
3
 72
9
 73
5
 74
0
 42
0.0000001
 43
0.0000001
 44
0.0000000001
 40
0.0
 40
0.0
 40
0.0
 40
0.0
 40
0.2402246746
 40
1.0
 40
1.0
 40
1.0
 40
1.0
 10
88.6033427334
 20
118.066286315
 30
0.0
 10
88.6238747452
 20
116.3887552118
 30
0.0
 10
88.7113331276
 20
109.4056045393
 30
0.0
 10
88.8082566861
 20
102.4225680883
 30
0.0
 10
88.8899034605
 20
97.1171543416
 30
0.0
  0
SPLINE
  5
3F4
100
AcDbEntity
  8
0
100
AcDbSpline
 62
7
  6
CONTINUOUS
 70
0
 71
3
 72
9
 73
5
 74
0
 42
0.0000001
 43
0.0000001
 44
0.0000000001
 40
0.0
 40
0.0
 40
0.0
 40
0.0
 40
0.2543091053
 40
1.0
 40
1.0
 40
1.0
 40
1.0
 10
112.2772749753
 20
135.8653430029
 30
0.0
 10
112.2704368741
 20
134.2140634963
 30
0.0
 10
112.2372481205
 20
127.7208940025
 30
0.0
 10
112.1796042603
 20
121.2278384003
 30
0.0
 10
112.1200576519
 20
116.3862440357
 30
0.0
  0
SPLINE
  5
3F5
100
AcDbEntity
  8
0
100
AcDbSpline
 62
7
  6
CONTINUOUS
 70
0
 71
3
 72
10
 73
6
 74
0
 42
0.0000001
 43
0.0000001
 44
0.0000000001
 40
0.0
 40
0.0
 40
0.0
 40
0.0
 40
0.4988938616
 40
0.749101276
 40
1.0
 40
1.0
 40
1.0
 40
1.0
 10
102.5171474652
 20
225.0868287943
 30
0.0
 10
104.0608896958
 20
225.0506803375
 30
0.0
 10
106.3789394605
 20
224.9994294315
 30
0.0
 10
109.4735927807
 20
224.9430900302
 30
0.0
 10
111.0244436302
 20
224.9185536375
 30
0.0
 10
111.8009995205
 20
224.9129290874
 30
0.0
  0
SPLINE
  5
3F6
100
AcDbEntity
  8
0
100
AcDbSpline
 62
7
  6
CONTINUOUS
 70
0
 71
3
 72
9
 73
5
 74
0
 42
0.0000001
 43
0.0000001
 44
0.0000000001
 40
0.0
 40
0.0
 40
0.0
 40
0.0
 40
0.4599135404
 40
1.0
 40
1.0
 40
1.0
 40
1.0
 10
100.5084857798
 20
225.2140641172
 30
0.0
 10
100.8149158599
 20
225.177243337
 30
0.0
 10
101.4841843503
 20
225.1226511803
 30
0.0
 10
102.1548147579
 20
225.095317216
 30
0.0
 10
102.517151458
 20
225.0868326799
 30
0.0
  0
SPLINE
  5
3F7
100
AcDbEntity
  8
0
100
AcDbSpline
 62
7
  6
CONTINUOUS
 70
0
 71
3
 72
21
 73
17
 74
0
 42
0.0000001
 43
0.0000001
 44
0.0000000001
 40
0.0
 40
0.0
 40
0.0
 40
0.0
 40
0.223636509
 40
0.4224638374
 40
0.594319985
 40
0.6696041558
 40
0.7375366679
 40
0.7979357666
 40
0.850654133
 40
0.8955532617
 40
0.9324971884
 40
0.9613791496
 40
0.9821624486
 40
0.99486412
 40
0.998265988
 40
1.0
 40
1.0
 40
1.0
 40
1.0
 10
82.4393120788
 20
139.9301064872
 30
0.0
 10
82.0407619932
 20
140.2669279754
 30
0.0
 10
81.2876463879
 20
140.9029353157
 30
0.0
 10
80.2266351329
 20
141.7958506539
 30
0.0
 10
79.4284183046
 20
142.4634373297
 30
0.0
 10
78.8625199115
 20
142.9327234058
 30
0.0
 10
78.495723431
 20
143.2346836067
 30
0.0
 10
78.1682935825
 20
143.5016262456
 30
0.0
 10
77.8810766912
 20
143.7327892317
 30
0.0
 10
77.6347075585
 20
143.9275241518
 30
0.0
 10
77.4301979965
 20
144.0851504021
 30
0.0
 10
77.2672760076
 20
144.2054535756
 30
0.0
 10
77.1484920739
 20
144.2879023564
 30
0.0
 10
77.0728218527
 20
144.3326438036
 30
0.0
 10
77.0358940389
 20
144.348161723
 30
0.0
 10
77.021667147
 20
144.3482918828
 30
0.0
 10
77.0189732051
 20
144.3452731415
 30
0.0
  0
SPLINE
  5
3F8
100
AcDbEntity
  8
0
100
AcDbSpline
 62
7
  6
CONTINUOUS
 70
0
 71
3
 72
11
 73
7
 74
0
 42
0.0000001
 43
0.0000001
 44
0.0000000001
 40
0.0
 40
0.0
 40
0.0
 40
0.0
 40
0.2451266676
 40
0.4955061412
 40
0.7477212543
 40
1.0
 40
1.0
 40
1.0
 40
1.0
 10
81.443023368
 20
139.0650860523
 30
0.0
 10
81.5184712607
 20
139.1424593843
 30
0.0
 10
81.6749463544
 20
139.2949623185
 30
0.0
 10
81.9104504894
 20
139.5255385805
 30
0.0
 10
82.1602896386
 20
139.7462214537
 30
0.0
 10
82.3448581435
 20
139.8713820639
 30
0.0
 10
82.4393284328
 20
139.9300833659
 30
0.0
  0
SPLINE
  5
3F9
100
AcDbEntity
  8
0
100
AcDbSpline
 62
7
  6
CONTINUOUS
 70
0
 71
3
 72
9
 73
5
 74
0
 42
0.0000001
 43
0.0000001
 44
0.0000000001
 40
0.0
 40
0.0
 40
0.0
 40
0.0
 40
0.4817767241
 40
1.0
 40
1.0
 40
1.0
 40
1.0
 10
80.8921370444
 20
138.46526921
 30
0.0
 10
80.9867267383
 20
138.5555912922
 30
0.0
 10
81.1623841975
 20
138.7634127788
 30
0.0
 10
81.3454142428
 20
138.9637762268
 30
0.0
 10
81.443023368
 20
139.0650860523
 30
0.0
  0
SPLINE
  5
3FA
100
AcDbEntity
  8
0
100
AcDbSpline
 62
7
  6
CONTINUOUS
 70
0
 71
3
 72
9
 73
5
 74
0
 42
0.0000001
 43
0.0000001
 44
0.0000000001
 40
0.0
 40
0.0
 40
0.0
 40
0.0
 40
0.2211730607
 40
1.0
 40
1.0
 40
1.0
 40
1.0
 10
80.0064614049
 20
137.2538558486
 30
0.0
 10
80.0481124998
 20
137.3569128018
 30
0.0
 10
80.268966239
 20
137.8095171476
 30
0.0
 10
80.6012731449
 20
138.2033426594
 30
0.0
 10
80.8921370444
 20
138.46526921
 30
0.0
  0
SPLINE
  5
3FB
100
AcDbEntity
  8
0
100
AcDbSpline
 62
7
  6
CONTINUOUS
 70
0
 71
3
 72
10
 73
6
 74
0
 42
0.0000001
 43
0.0000001
 44
0.0000000001
 40
0.0
 40
0.0
 40
0.0
 40
0.0
 40
0.6716663751
 40
0.8911570238
 40
1.0
 40
1.0
 40
1.0
 40
1.0
 10
88.5558975686
 20
204.3338845256
 30
0.0
 10
88.5559316759
 20
204.4286159918
 30
0.0
 10
88.5661652187
 20
204.5595452465
 30
0.0
 10
88.6020182866
 20
204.688168232
 30
0.0
 10
88.6352475465
 20
204.7338533889
 30
0.0
 10
88.6505987014
 20
204.7338472161
 30
0.0
  0
SPLINE
  5
3FC
100
AcDbEntity
  8
0
100
AcDbSpline
 62
7
  6
CONTINUOUS
 70
0
 71
3
 72
10
 73
6
 74
0
 42
0.0000001
 43
0.0000001
 44
0.0000000001
 40
0.0
 40
0.0
 40
0.0
 40
0.0
 40
0.4405826202
 40
0.7169790072
 40
1.0
 40
1.0
 40
1.0
 40
1.0
 10
81.9154004575
 20
204.736241882
 30
0.0
 10
81.8466737643
 20
204.7364016779
 30
0.0
 10
81.7368203083
 20
204.6637599512
 30
0.0
 10
81.6696878561
 20
204.5230677534
 30
0.0
 10
81.6495883792
 20
204.4369102732
 30
0.0
 10
81.6452936398
 20
204.3929709646
 30
0.0
  0
SPLINE
  5
3FD
100
AcDbEntity
  8
0
100
AcDbSpline
 62
7
  6
CONTINUOUS
 70
0
 71
3
 72
11
 73
7
 74
0
 42
0.0000001
 43
0.0000001
 44
0.0000000001
 40
0.0
 40
0.0
 40
0.0
 40
0.0
 40
0.2477605002
 40
0.4962299907
 40
0.7466628769
 40
1.0
 40
1.0
 40
1.0
 40
1.0
 10
92.1560640513
 20
222.0121663309
 30
0.0
 10
92.6958743558
 20
222.5449129729
 30
0.0
 10
93.8910196645
 20
223.5030474451
 30
0.0
 10
95.944066888
 20
224.5427627442
 30
0.0
 10
98.1820221169
 20
225.1472864816
 30
0.0
 10
99.733444223
 20
225.242520195
 30
0.0
 10
100.5083897301
 20
225.2132114893
 30
0.0
  0
SPLINE
  5
3FE
100
AcDbEntity
  8
0
100
AcDbSpline
 62
7
  6
CONTINUOUS
 70
0
 71
3
 72
10
 73
6
 74
0
 42
0.0000001
 43
0.0000001
 44
0.0000000001
 40
0.0
 40
0.0
 40
0.0
 40
0.0
 40
0.6673603358
 40
0.8866748483
 40
1.0
 40
1.0
 40
1.0
 40
1.0
 10
88.1050941976
 20
204.3419211916
 30
0.0
 10
88.1055948825
 20
204.4350105425
 30
0.0
 10
88.116707021
 20
204.563102374
 30
0.0
 10
88.155891336
 20
204.6910047566
 30
0.0
 10
88.1912617426
 20
204.733960069
 30
0.0
 10
88.2070695044
 20
204.7340058284
 30
0.0
  0
SPLINE
  5
3FF
100
AcDbEntity
  8
0
100
AcDbSpline
 62
7
  6
CONTINUOUS
 70
0
 71
3
 72
10
 73
6
 74
0
 42
0.0000001
 43
0.0000001
 44
0.0000000001
 40
0.0
 40
0.0
 40
0.0
 40
0.0
 40
0.560991244
 40
0.8028510312
 40
1.0
 40
1.0
 40
1.0
 40
1.0
 10
83.0409239565
 20
211.0470962673
 30
0.0
 10
82.9582690739
 20
211.1147149836
 30
0.0
 10
82.8565830484
 20
211.2346044212
 30
0.0
 10
82.7710127253
 20
211.4041917666
 30
0.0
 10
82.7505416702
 20
211.4881530381
 30
0.0
 10
82.7531360694
 20
211.5255924566
 30
0.0
  0
SPLINE
  5
400
100
AcDbEntity
  8
0
100
AcDbSpline
 62
7
  6
CONTINUOUS
 70
0
 71
3
 72
23
 73
19
 74
0
 42
0.0000001
 43
0.0000001
 44
0.0000000001
 40
0.0
 40
0.0
 40
0.0
 40
0.0
 40
0.0023145537
 40
0.0068750709
 40
0.0136803417
 40
0.0227097493
 40
0.0339389382
 40
0.0473398462
 40
0.0805407582
 40
0.1220708597
 40
0.1715923604
 40
0.2287089354
 40
0.292971732
 40
0.3638981142
 40
0.4409697572
 40
0.6113256702
 40
0.7993906436
 40
1.0
 40
1.0
 40
1.0
 40
1.0
 10
76.1115768143
 20
201.1451317256
 30
0.0
 10
76.1211134993
 20
201.1433750117
 30
0.0
 10
76.150259182
 20
201.148535558
 30
0.0
 10
76.2061786027
 20
201.1581707516
 30
0.0
 10
76.2898538316
 20
201.1769360886
 30
0.0
 10
76.4003861676
 20
201.2016569775
 30
0.0
 10
76.5379710985
 20
201.2328069817
 30
0.0
 10
76.7742267059
 20
201.286453307
 30
0.0
 10
77.1340488931
 20
201.3693850848
 30
0.0
 10
77.640684944
 20
201.4890170496
 30
0.0
 10
78.2443969922
 20
201.6335523236
 30
0.0
 10
78.9405704469
 20
201.8009294474
 30
0.0
 10
79.7237785209
 20
201.9899356717
 30
0.0
 10
80.5880222423
 20
202.1995280971
 30
0.0
 10
81.8838873458
 20
202.5153155153
 30
0.0
 10
83.6554473224
 20
202.9518754136
 30
0.0
 10
85.9298468583
 20
203.5110338393
 30
0.0
 10
87.5112175367
 20
203.8996477519
 30
0.0
 10
88.3260772866
 20
204.1055845956
 30
0.0
  0
SPLINE
  5
401
100
AcDbEntity
  8
0
100
AcDbSpline
 62
7
  6
CONTINUOUS
 70
0
 71
3
 72
9
 73
5
 74
0
 42
0.0000001
 43
0.0000001
 44
0.0000000001
 40
0.0
 40
0.0
 40
0.0
 40
0.0
 40
0.2737345419
 40
1.0
 40
1.0
 40
1.0
 40
1.0
 10
88.1050993654
 20
204.3418954779
 30
0.0
 10
87.5156716681
 20
204.3461295651
 30
0.0
 10
85.3623929447
 20
204.3620557008
 30
0.0
 10
83.2091216566
 20
204.3790743426
 30
0.0
 10
81.6452881111
 20
204.392913537
 30
0.0
  0
SPLINE
  5
402
100
AcDbEntity
  8
0
100
AcDbSpline
 62
7
  6
CONTINUOUS
 70
0
 71
3
 72
19
 73
15
 74
0
 42
0.0000001
 43
0.0000001
 44
0.0000000001
 40
0.0
 40
0.0
 40
0.0
 40
0.0
 40
0.0531175634
 40
0.1033879251
 40
0.1511321088
 40
0.1977891614
 40
0.2456537723
 40
0.2976709845
 40
0.3560897072
 40
0.4210071298
 40
0.5636855935
 40
0.7125845727
 40
0.8593482692
 40
1.0
 40
1.0
 40
1.0
 40
1.0
 10
81.6452926966
 20
204.3929583495
 30
0.0
 10
81.4732427003
 20
204.3894401774
 30
0.0
 10
81.1374329294
 20
204.4130665518
 30
0.0
 10
80.6571090604
 20
204.5155335726
 30
0.0
 10
80.2195961636
 20
204.6939601427
 30
0.0
 10
79.8470472033
 20
204.9756575176
 30
0.0
 10
79.5646690931
 20
205.3667163009
 30
0.0
 10
79.4041625601
 20
205.8616965436
 30
0.0
 10
79.3776049334
 20
206.4345295361
 30
0.0
 10
79.5181927822
 20
207.2895545129
 30
0.0
 10
79.9787255985
 20
208.3643225788
 30
0.0
 10
80.7740399708
 20
209.5458557239
 30
0.0
 10
81.7115217435
 20
210.6077571985
 30
0.0
 10
82.3980263982
 20
211.2403099933
 30
0.0
 10
82.7532531214
 20
211.525706182
 30
0.0
  0
SPLINE
  5
403
100
AcDbEntity
  8
0
100
AcDbSpline
 62
7
  6
CONTINUOUS
 70
0
 71
3
 72
9
 73
5
 74
0
 42
0.0000001
 43
0.0000001
 44
0.0000000001
 40
0.0
 40
0.0
 40
0.0
 40
0.0
 40
0.2359095522
 40
1.0
 40
1.0
 40
1.0
 40
1.0
 10
86.6831890683
 20
216.5667003845
 30
0.0
 10
87.1139101103
 20
216.9945758874
 30
0.0
 10
88.9386578924
 20
218.8093505476
 30
0.0
 10
90.7625732246
 20
220.6249615955
 30
0.0
 10
92.1560073864
 20
222.012455627
 30
0.0
  0
SPLINE
  5
404
100
AcDbEntity
  8
0
100
AcDbSpline
 62
7
  6
CONTINUOUS
 70
0
 71
3
 72
9
 73
5
 74
0
 42
0.0000001
 43
0.0000001
 44
0.0000000001
 40
0.0
 40
0.0
 40
0.0
 40
0.0
 40
0.6041320497
 40
1.0
 40
1.0
 40
1.0
 40
1.0
 10
92.1559100567
 20
222.0123205242
 30
0.0
 10
92.2462440712
 20
222.1248051955
 30
0.0
 10
92.392984959
 20
222.3130070772
 30
0.0
 10
92.5310394501
 20
222.5086577143
 30
0.0
 10
92.577810121
 20
222.5908106515
 30
0.0
  0
SPLINE
  5
405
100
AcDbEntity
  8
0
100
AcDbSpline
 62
7
  6
CONTINUOUS
 70
0
 71
3
 72
16
 73
12
 74
0
 42
0.0000001
 43
0.0000001
 44
0.0000000001
 40
0.0
 40
0.0
 40
0.0
 40
0.0
 40
0.1651964504
 40
0.2807800058
 40
0.3525798904
 40
0.3788385836
 40
0.4059844037
 40
0.4828728138
 40
0.6047918126
 40
0.7766261828
 40
1.0
 40
1.0
 40
1.0
 40
1.0
 10
92.5803310032
 20
222.5952631355
 30
0.0
 10
92.5915225957
 20
222.6151419581
 30
0.0
 10
92.6096560456
 20
222.6497667607
 30
0.0
 10
92.6266221795
 20
222.6948011355
 30
0.0
 10
92.6302035353
 20
222.7260348796
 30
0.0
 10
92.620559724
 20
222.7413847364
 30
0.0
 10
92.6034404909
 20
222.7490504865
 30
0.0
 10
92.5712030242
 20
222.7437032616
 30
0.0
 10
92.5239761447
 20
222.7250012659
 30
0.0
 10
92.4607694446
 20
222.6910413753
 30
0.0
 10
92.4145194644
 20
222.6621655445
 30
0.0
 10
92.3886642357
 20
222.6453422244
 30
0.0
  0
SPLINE
  5
406
100
AcDbEntity
  8
0
100
AcDbSpline
 62
7
  6
CONTINUOUS
 70
0
 71
3
 72
9
 73
5
 74
0
 42
0.0000001
 43
0.0000001
 44
0.0000000001
 40
0.0
 40
0.0
 40
0.0
 40
0.0
 40
0.4029957532
 40
1.0
 40
1.0
 40
1.0
 40
1.0
 10
92.3843609458
 20
222.642535485
 30
0.0
 10
92.2687659984
 20
222.5669624454
 30
0.0
 10
91.9948347632
 20
222.3602453594
 30
0.0
 10
91.7294739973
 20
222.143522319
 30
0.0
 10
91.5724876818
 20
222.0123209256
 30
0.0
  0
SPLINE
  5
407
100
AcDbEntity
  8
0
100
AcDbSpline
 62
7
  6
CONTINUOUS
 70
0
 71
3
 72
9
 73
5
 74
0
 42
0.0000001
 43
0.0000001
 44
0.0000000001
 40
0.0
 40
0.0
 40
0.0
 40
0.0
 40
0.2563926635
 40
1.0
 40
1.0
 40
1.0
 40
1.0
 10
91.5726606885
 20
222.0124560347
 30
0.0
 10
91.1089745715
 20
221.547199084
 30
0.0
 10
89.3006458515
 20
219.7324020313
 30
0.0
 10
87.4922454433
 20
217.9176749023
 30
0.0
 10
86.1490422251
 20
216.566701984
 30
0.0
  0
SPLINE
  5
408
100
AcDbEntity
  8
0
100
AcDbSpline
 62
7
  6
CONTINUOUS
 70
0
 71
3
 72
13
 73
9
 74
0
 42
0.0000001
 43
0.0000001
 44
0.0000000001
 40
0.0
 40
0.0
 40
0.0
 40
0.0
 40
0.244608317
 40
0.3657889833
 40
0.4911957021
 40
0.6210251116
 40
0.7488180368
 40
1.0
 40
1.0
 40
1.0
 40
1.0
 10
81.4822975413
 20
137.8037020816
 30
0.0
 10
81.5031168266
 20
137.806836453
 30
0.0
 10
81.5345908736
 20
137.8116185793
 30
0.0
 10
81.5769528464
 20
137.8050840168
 30
0.0
 10
81.6062286132
 20
137.7905235805
 30
0.0
 10
81.634126141
 20
137.7730411131
 30
0.0
 10
81.6735561094
 20
137.7536899044
 30
0.0
 10
81.7047478798
 20
137.7438757065
 30
0.0
 10
81.7251734068
 20
137.7367898214
 30
0.0
  0
SPLINE
  5
409
100
AcDbEntity
  8
0
100
AcDbSpline
 62
7
  6
CONTINUOUS
 70
0
 71
3
 72
9
 73
5
 74
0
 42
0.0000001
 43
0.0000001
 44
0.0000000001
 40
0.0
 40
0.0
 40
0.0
 40
0.0
 40
0.2426171781
 40
1.0
 40
1.0
 40
1.0
 40
1.0
 10
81.443022698
 20
139.0650857961
 30
0.0
 10
81.4303334268
 20
138.9636045802
 30
0.0
 10
81.3965309563
 20
138.5431264019
 30
0.0
 10
81.4275227985
 20
138.1182359252
 30
0.0
 10
81.4822662459
 20
137.8037014411
 30
0.0
  0
LINE
  5
40A
100
AcDbEntity
  8
0
100
AcDbLine
 62
7
  6
CONTINUOUS
 10
82.1980027927
 20
212.5928056271
 11
82.1687732617
 21
212.5634041096
  0
SPLINE
  5
40B
100
AcDbEntity
  8
0
100
AcDbSpline
 62
7
  6
CONTINUOUS
 70
0
 71
3
 72
21
 73
17
 74
0
 42
0.0000001
 43
0.0000001
 44
0.0000000001
 40
0.0
 40
0.0
 40
0.0
 40
0.0
 40
0.1961946036
 40
0.382285204
 40
0.5532206356
 40
0.7039502793
 40
0.7701417799
 40
0.8292896459
 40
0.8806691408
 40
0.9235560827
 40
0.9572926698
 40
0.9814653219
 40
0.9898563111
 40
0.995729732
 40
0.9990596823
 40
1.0
 40
1.0
 40
1.0
 40
1.0
 10
82.1687732617
 20
212.5634041096
 30
0.0
 10
81.9802093462
 20
212.3737120994
 30
0.0
 10
81.6131401541
 20
212.0037515997
 30
0.0
 10
81.0830646026
 20
211.4672511906
 30
0.0
 10
80.5977916926
 20
210.9736225707
 30
0.0
 10
80.2283262791
 20
210.5953547566
 30
0.0
 10
79.9663586394
 20
210.3251433583
 30
0.0
 10
79.7991966402
 20
210.1516278387
 30
0.0
 10
79.6546888704
 20
210.0005126488
 30
0.0
 10
79.534821268
 20
209.8734603602
 30
0.0
 10
79.4413308689
 20
209.7733474917
 30
0.0
 10
79.38074984
 20
209.7050169251
 30
0.0
 10
79.3466577852
 20
209.6668699726
 30
0.0
 10
79.3316603521
 20
209.6455154607
 30
0.0
 10
79.32361024
 20
209.6386036377
 30
0.0
 10
79.3211656099
 20
209.629167234
 30
0.0
 10
79.322447524
 20
209.6291641333
 30
0.0
  0
SPLINE
  5
40C
100
AcDbEntity
  8
0
100
AcDbSpline
 62
7
  6
CONTINUOUS
 70
0
 71
3
 72
22
 73
18
 74
0
 42
0.0000001
 43
0.0000001
 44
0.0000000001
 40
0.0
 40
0.0
 40
0.0
 40
0.0
 40
0.0020735037
 40
0.00663308
 40
0.0136748292
 40
0.0231600995
 40
0.035044431
 40
0.0492815729
 40
0.0846258738
 40
0.1287573912
 40
0.1810114774
 40
0.2406657812
 40
0.3069975051
 40
0.4569374795
 40
0.6257291201
 40
0.8084056976
 40
1.0
 40
1.0
 40
1.0
 40
1.0
 10
79.6284316716
 20
209.6291639707
 30
0.0
 10
79.6313738691
 20
209.6291713144
 30
0.0
 10
79.6394357729
 20
209.6355719529
 30
0.0
 10
79.654788895
 20
209.646289383
 30
0.0
 10
79.677782082
 20
209.6660329934
 30
0.0
 10
79.7081450818
 20
209.6923095829
 30
0.0
 10
79.7457595371
 20
209.7261352237
 30
0.0
 10
79.8101403061
 20
209.7849325478
 30
0.0
 10
79.9073676233
 20
209.8756775929
 30
0.0
 10
80.0430659105
 20
210.0042153041
 30
0.0
 10
80.2030218755
 20
210.157315175
 30
0.0
 10
80.385089148
 20
210.3328629598
 30
0.0
 10
80.6661611501
 20
210.6054285826
 30
0.0
 10
81.0570650918
 20
210.9871805388
 30
0.0
 10
81.5645371797
 20
211.4858489944
 30
0.0
 10
82.1128488075
 20
212.0272823825
 30
0.0
 10
82.4899680064
 20
212.4012078945
 30
0.0
 10
82.6828412534
 20
212.5928056214
 30
0.0
  0
SPLINE
  5
40D
100
AcDbEntity
  8
0
100
AcDbSpline
 62
7
  6
CONTINUOUS
 70
0
 71
3
 72
9
 73
5
 74
0
 42
0.0000001
 43
0.0000001
 44
0.0000000001
 40
0.0
 40
0.0
 40
0.0
 40
0.0
 40
0.238261933
 40
1.0
 40
1.0
 40
1.0
 40
1.0
 10
82.4392764193
 20
139.9301165154
 30
0.0
 10
82.3417215017
 20
139.773976017
 30
0.0
 10
81.9775189523
 20
139.0909983872
 30
0.0
 10
81.7800591337
 20
138.3228340691
 30
0.0
 10
81.725232426
 20
137.7367792354
 30
0.0
  0
SPLINE
  5
40E
100
AcDbEntity
  8
0
100
AcDbSpline
 62
7
  6
CONTINUOUS
 70
0
 71
3
 72
11
 73
7
 74
0
 42
0.0000001
 43
0.0000001
 44
0.0000000001
 40
0.0
 40
0.0
 40
0.0
 40
0.0
 40
0.2686606512
 40
0.5271380861
 40
0.7729267635
 40
1.0
 40
1.0
 40
1.0
 40
1.0
 10
87.0781744831
 20
140.1520323885
 30
0.0
 10
86.6818047616
 20
140.0110748742
 30
0.0
 10
85.8736440779
 20
139.8185832886
 30
0.0
 10
84.6662887156
 20
139.7055514302
 30
0.0
 10
83.5190974321
 20
139.7258602614
 30
0.0
 10
82.7830934903
 20
139.839319576
 30
0.0
 10
82.4393120788
 20
139.9301064872
 30
0.0
  0
SPLINE
  5
40F
100
AcDbEntity
  8
0
100
AcDbSpline
 62
7
  6
CONTINUOUS
 70
0
 71
3
 72
9
 73
5
 74
0
 42
0.0000001
 43
0.0000001
 44
0.0000000001
 40
0.0
 40
0.0
 40
0.0
 40
0.0
 40
0.4820262239
 40
1.0
 40
1.0
 40
1.0
 40
1.0
 10
87.0781744831
 20
140.1520323885
 30
0.0
 10
87.2512337354
 20
139.7820141344
 30
0.0
 10
87.6404953795
 20
139.0284657649
 30
0.0
 10
88.0705461909
 20
138.2978262165
 30
0.0
 10
88.3022506674
 20
137.9250099124
 30
0.0
  0
SPLINE
  5
410
100
AcDbEntity
  8
0
100
AcDbSpline
 62
7
  6
CONTINUOUS
 70
0
 71
3
 72
9
 73
5
 74
0
 42
0.0000001
 43
0.0000001
 44
0.0000000001
 40
0.0
 40
0.0
 40
0.0
 40
0.0
 40
0.7511517473
 40
1.0
 40
1.0
 40
1.0
 40
1.0
 10
80.8919074397
 20
138.4650629232
 30
0.0
 10
80.8269898908
 20
138.1786537638
 30
0.0
 10
80.7851363086
 20
137.7851456873
 30
0.0
 10
80.8032387814
 20
137.3944389483
 30
0.0
 10
80.8117171035
 20
137.2975180836
 30
0.0
  0
SPLINE
  5
411
100
AcDbEntity
  8
0
100
AcDbSpline
 62
7
  6
CONTINUOUS
 70
0
 71
3
 72
11
 73
7
 74
0
 42
0.0000001
 43
0.0000001
 44
0.0000000001
 40
0.0
 40
0.0
 40
0.0
 40
0.0
 40
0.1808412213
 40
0.3566219446
 40
0.6184227453
 40
1.0
 40
1.0
 40
1.0
 40
1.0
 10
101.0837838989
 20
226.2591885801
 30
0.0
 10
101.092153368
 20
226.2591828828
 30
0.0
 10
101.1105471231
 20
226.255334698
 30
0.0
 10
101.1222555525
 20
226.225940795
 30
0.0
 10
101.1167077541
 20
226.1880953363
 30
0.0
 10
101.107862498
 20
226.1595925761
 30
0.0
 10
101.1017062663
 20
226.1430406748
 30
0.0
  0
SPLINE
  5
412
100
AcDbEntity
  8
0
100
AcDbSpline
 62
7
  6
CONTINUOUS
 70
0
 71
3
 72
11
 73
7
 74
0
 42
0.0000001
 43
0.0000001
 44
0.0000000001
 40
0.0
 40
0.0
 40
0.0
 40
0.0
 40
0.146272041
 40
0.3613381301
 40
0.6458078092
 40
1.0
 40
1.0
 40
1.0
 40
1.0
 10
101.1017062663
 20
226.1430406748
 30
0.0
 10
101.0829390267
 20
226.0925822917
 30
0.0
 10
101.021730067
 20
225.9738515774
 30
0.0
 10
100.8978970583
 20
225.7710983349
 30
0.0
 10
100.7218211622
 20
225.5106582391
 30
0.0
 10
100.585091973
 20
225.3194692348
 30
0.0
 10
100.50840352
 20
225.2140521949
 30
0.0
  0
SPLINE
  5
413
100
AcDbEntity
  8
0
100
AcDbSpline
 62
7
  6
CONTINUOUS
 70
0
 71
3
 72
26
 73
22
 74
0
 42
0.0000001
 43
0.0000001
 44
0.0000000001
 40
0.0
 40
0.0
 40
0.0
 40
0.0
 40
0.2082462946
 40
0.2939960627
 40
0.3659566745
 40
0.4232926958
 40
0.4462917015
 40
0.4654207171
 40
0.4918575254
 40
0.4992187511
 40
0.5032089924
 40
0.5069171649
 40
0.5138343994
 40
0.5246200672
 40
0.5393577433
 40
0.5580257109
 40
0.5805710046
 40
0.6370247792
 40
0.7081410733
 40
0.7931089102
 40
1.0
 40
1.0
 40
1.0
 40
1.0
 10
75.8152813234
 20
172.8797126855
 30
0.0
 10
75.8247018293
 20
172.694398005
 30
0.0
 10
75.8391288871
 20
172.4328163857
 30
0.0
 10
75.86190984
 20
172.1075413193
 30
0.0
 10
75.8780406334
 20
171.9165691773
 30
0.0
 10
75.8922570454
 20
171.7816729444
 30
0.0
 10
75.9042525613
 20
171.6937269787
 30
0.0
 10
75.914001274
 20
171.6337415248
 30
0.0
 10
75.9246449038
 20
171.5864873215
 30
0.0
 10
75.9357520022
 20
171.5562817189
 30
0.0
 10
75.9470139401
 20
171.5444326686
 30
0.0
 10
75.959383246
 20
171.5542591804
 30
0.0
 10
75.9656680686
 20
171.5717473323
 30
0.0
 10
75.9744907971
 20
171.5995676375
 30
0.0
 10
75.9823743139
 20
171.638089372
 30
0.0
 10
75.9907966734
 20
171.6872602125
 30
0.0
 10
76.0027610732
 20
171.7734569228
 30
0.0
 10
76.0171504482
 20
171.9064680569
 30
0.0
 10
76.0333942812
 20
172.0951517837
 30
0.0
 10
76.0564541079
 20
172.4177605371
 30
0.0
 10
76.0710542532
 20
172.6774185889
 30
0.0
 10
76.0806056073
 20
172.861517428
 30
0.0
  0
SPLINE
  5
414
100
AcDbEntity
  8
0
100
AcDbSpline
 62
7
  6
CONTINUOUS
 70
0
 71
3
 72
9
 73
5
 74
0
 42
0.0000001
 43
0.0000001
 44
0.0000000001
 40
0.0
 40
0.0
 40
0.0
 40
0.0
 40
0.2488881011
 40
1.0
 40
1.0
 40
1.0
 40
1.0
 10
76.1015560674
 20
173.2932369385
 30
0.0
 10
76.1035404282
 20
173.1205965131
 30
0.0
 10
76.1403302475
 20
172.4275418341
 30
0.0
 10
76.2904034003
 20
171.7408120944
 30
0.0
 10
76.4616306106
 20
171.2487097596
 30
0.0
  0
ELLIPSE
  5
415
100
AcDbEntity
  8
0
100
AcDbEllipse
 62
7
  6
CONTINUOUS
 10
133.8794785742
 20
27.0474826466
 30
0.0
 11
19.2824754412
 21
-0.0069910396
 31
0.0
 40
0.2593027895
 41
-3.1415919989
 42
-3.1104379764
  0
ENDSEC
  0
SECTION
  2
OBJECTS
  0
DICTIONARY
  5
C
100
AcDbDictionary
280
0
281
1
  3
ACAD_GROUP
350
D
  3
ACAD_MLINESTYLE
350
17
  3
ACAD_LAYOUT
350
1A
  3
ACAD_PLOTSETTINGS
350
19
  3
ACAD_PLOTSTYLENAME
350
E
  0
DICTIONARY
  5
D
102
{ACAD_REACTORS
330
C
102
}
100
AcDbDictionary
280
0
281
1
  0
ACDBDICTIONARYWDFLT
  5
E
102
{ACAD_REACTORS
330
C
102
}
100
AcDbDictionary
281
1
  3
Normal
350
F
100
AcDbDictionaryWithDefault
340
F
  0
DICTIONARY
  5
17
102
{ACAD_REACTORS
330
C
102
}
100
AcDbDictionary
280
0
281
1
  3
Standard
350
18
  0
DICTIONARY
  5
19
102
{ACAD_REACTORS
330
C
102
}
100
AcDbDictionary
281
1
  0
DICTIONARY
  5
1A
102
{ACAD_REACTORS
330
C
102
}
100
AcDbDictionary
281
1
  3
Model
350
416
  3
Layout1
350
417
  0
ACDBPLACEHOLDER
  5
F
102
{ACAD_REACTORS
330
E
102
}
  0
MLINESTYLE
  5
18
102
{ACAD_REACTORS
330
17
102
}
100
AcDbMlineStyle
  2
STANDARD
 70
0
  3

 62
256
 51
90.0
 52
90.0
 71
2
 49
0.5
 62
256
  6
BYLAYER
 49
-0.5
 62
256
  6
BYLAYER
  0
LAYOUT
  5
416
102
{ACAD_REACTORS
330
1A
102
}
100
AcDbPlotSettings
  1

  2
none_device
  4

  6

 40
0.0
 41
0.0
 42
0.0
 43
0.0
 44
210.0
 45
297.0
 46
0.0
 47
0.0
 48
0.0
 49
0.0
140
0.0
141
0.0
142
1.0
143
1.0
 70
1024
 72
1
 73
0
 74
0
  7

 75
0
147
1.0
148
0.0
149
0.0
100
AcDbLayout
  1
Model
 70
0
 71
0
 10
0.0
 20
0.0
 11
210.0
 21
297.0
 12
0.0
 22
0.0
 32
0.0
 14
0.0
 24
0.0
 34
0.0
 15
0.0
 25
0.0
 35
0.0
146
0.0
 13
0.0
 23
0.0
 33
0.0
 16
1.0
 26
0.0
 36
0.0
 17
0.0
 27
1.0
 37
0.0
 76
0
330
210
345
0
346
0
  0
LAYOUT
  5
417
102
{ACAD_REACTORS
330
1A
102
}
100
AcDbPlotSettings
  1

  2
none_device
  4

  6

 40
0.0
 41
0.0
 42
0.0
 43
0.0
 44
210.0
 45
297.0
 46
0.0
 47
0.0
 48
0.0
 49
0.0
140
0.0
141
0.0
142
1.0
143
1.0
 70
0
 72
1
 73
0
 74
0
  7

 75
0
147
1.0
148
0.0
149
0.0
100
AcDbLayout
  1
Layout1
 70
0
 71
1
 10
0.0
 20
0.0
 11
210.0
 21
297.0
 12
0.0
 22
0.0
 32
0.0
 14
0.0
 24
0.0
 34
0.0
 15
0.0
 25
0.0
 35
0.0
146
0.0
 13
0.0
 23
0.0
 33
0.0
 16
1.0
 26
0.0
 36
0.0
 17
0.0
 27
1.0
 37
0.0
 76
0
330
211
345
0
346
0
  0
ENDSEC
  0
EOF
