999
DXF file: C:\Users\sesa63760\OneDrive - Schneider Electric\Documents\7-Dev\_Creo\CAD\MCADPP0000311_3D-CAD\drw0001_4.dxf
999
Pro/ENGINEER 2019471 by Parametric Technology Corporation
  0
SECTION
  2
HEADER
  9
$ACADVER
  1
AC1024
  9
$DWGCODEPAGE
  3
ANSI_1252
  9
$EXTMAX
 10
173.9255268199
 20
245.980387931
 30
0.0
  9
$EXTMIN
 10
0.0
 20
0.0
 30
0.0
  9
$LIMMIN
 10
0.0
 20
0.0
  9
$LIMMAX
 10
173.9255268199
 20
245.980387931
  9
$VIEWCTR
 10
86.96276341
 20
122.9901939655
  9
$VIEWSIZE
 40
245.980387931
  9
$CLAYER
  8
0
  9
$LTSCALE
 40
16.0342771392
  9
$CELTYPE
  6
BYLAYER
  9
$DIMSCALE
 40
1.0
  9
$DIMASZ
 40
2.070541986
  9
$DIMEXO
 40
1.0
  9
$DIMDLI
 40
11.0782278416
  9
$DIMEXE
 40
1.0
  9
$DIMCEN
 40
2.6237908046
  9
$DIMLFAC
 40
1.0
  9
$DIMBLK
  1
_FILLED
  9
$DIMALT
 70
0
  9
$DIMALTF
 40
0.0393700787
  9
$DIMTXT
 40
2.8987587803
  9
$DIMTOL
 70
1
  9
$DIMLIM
 70
0
  9
$DIMTFAC
 40
1.0
  9
$DIMTP
 40
0.01
  9
$DIMTM
 40
0.01
  9
$DIMGAP
 40
0.625
  9
$DIMDSEP
 70
46
  9
$AUNITS
 70
0
  9
$PDMODE
 70
3
  9
$PDSIZE
 40
0.3125
  9
$HANDSEED
  5
2B4
  9
$TILEMODE
 70
1
  9
$MEASUREMENT
 70
1
  9
$INSUNITS
 70
4
  0
ENDSEC
  0
SECTION
  2
CLASSES
  0
CLASS
  1
ACDBDICTIONARYWDFLT
  2
AcDbDictionaryWithDefault
  3
AutoCAD 2000
 90
0
 91
1
280
0
281
0
  0
CLASS
  1
ACDBPLACEHOLDER
  2
AcDbPlaceHolder
  3
AutoCAD 2000
 90
0
 91
1
280
0
281
0
  0
CLASS
  1
LAYOUT
  2
AcDbLayout
  3
AutoCAD 2000
 90
0
 91
0
280
0
281
0
  0
ENDSEC
  0
SECTION
  2
TABLES
  0
TABLE
  2
VPORT
  5
8
100
AcDbSymbolTable
 70
2
  0
VPORT
  5
1F4
100
AcDbSymbolTableRecord
100
AcDbViewportTableRecord
  2
*ACTIVE
 70
0
 10
0.0
 20
0.0
 11
1.0
 21
1.0
 12
86.96276341
 22
122.9901939655
 13
0.0
 23
0.0
 14
1.0
 24
1.0
 15
0.0
 25
0.0
 16
0.0
 26
0.0
 36
1.0
 17
0.0
 27
0.0
 37
0.0
 40
245.980387931
 41
0.7070707071
 42
50.0
 43
0.0
 44
0.0
 50
0.0
 51
0.0
 71
0
 72
100
 73
1
 74
1
 75
0
 76
0
 77
0
 78
0
  0
ENDTAB
  0
TABLE
  2
LTYPE
  5
5
100
AcDbSymbolTable
 70
6
  0
LTYPE
  5
14
100
AcDbSymbolTableRecord
100
AcDbLinetypeTableRecord
  2
BYBLOCK
 70
0
  3

 72
65
 73
0
 40
0.0
  0
LTYPE
  5
15
100
AcDbSymbolTableRecord
100
AcDbLinetypeTableRecord
  2
BYLAYER
 70
0
  3

 72
65
 73
0
 40
0.0
  0
LTYPE
  5
16
100
AcDbSymbolTableRecord
100
AcDbLinetypeTableRecord
  2
CONTINUOUS
 70
64
  3
Solid line
 72
65
 73
0
 40
0.0
  0
LTYPE
  5
1F5
100
AcDbSymbolTableRecord
100
AcDbLinetypeTableRecord
  2
CENTER
 70
64
  3
____ _ ____ _ ____ _ ____ _ ____ _ ____ _ ____
 72
65
 73
4
 40
0.6
 49
0.375
 74
0
 49
-0.075
 74
0
 49
0.075
 74
0
 49
-0.075
 74
0
  0
LTYPE
  5
1F6
100
AcDbSymbolTableRecord
100
AcDbLinetypeTableRecord
  2
HIDDEN
 70
64
  3
- - - - - - - - - - - - - - - - - - - -
 72
65
 73
2
 40
0.2
 49
0.1
 74
0
 49
-0.1
 74
0
  0
LTYPE
  5
1F7
100
AcDbSymbolTableRecord
100
AcDbLinetypeTableRecord
  2
PHANTOM
 70
64
  3
_____ _ _ _____ _ _ _____ _ _ _____
 72
65
 73
6
 40
0.8
 49
0.45
 74
0
 49
-0.05
 74
0
 49
0.1
 74
0
 49
-0.05
 74
0
 49
0.1
 74
0
 49
-0.05
 74
0
  0
LTYPE
  5
1F8
100
AcDbSymbolTableRecord
100
AcDbLinetypeTableRecord
  2
DOT
 70
64
  3
. . . . . . . . . . . . . . . . . . . .
 72
65
 73
2
 40
0.2
 49
0.1
 74
0
 49
-0.1
 74
0
  0
LTYPE
  5
1F9
100
AcDbSymbolTableRecord
100
AcDbLinetypeTableRecord
  2
DASHED
 70
64
  3
- - - - - - - - - - - - - - - - - - - -
 72
65
 73
2
 40
0.2
 49
0.1
 74
0
 49
-0.1
 74
0
  0
ENDTAB
  0
TABLE
  2
LAYER
  5
2
100
AcDbSymbolTable
 70
36
  0
LAYER
  5
10
100
AcDbSymbolTableRecord
100
AcDbLayerTableRecord
  2
0
 70
0
 62
7
  6
CONTINUOUS
370
-3
390
F
  0
LAYER
  5
1FA
100
AcDbSymbolTableRecord
100
AcDbLayerTableRecord
  2
DEFAULT_1
 70
0
 62
7
  6
CENTER
370
-3
390
F
  0
LAYER
  5
1FB
100
AcDbSymbolTableRecord
100
AcDbLayerTableRecord
  2
DEFAULT_2
 70
0
 62
8
  6
HIDDEN
370
-3
390
F
  0
LAYER
  5
1FC
100
AcDbSymbolTableRecord
100
AcDbLayerTableRecord
  2
DEFAULT_3
 70
0
 62
7
  6
PHANTOM
370
-3
390
F
  0
LAYER
  5
1FD
100
AcDbSymbolTableRecord
100
AcDbLayerTableRecord
  2
00_COMPONENTS
 70
0
 62
7
  6
CONTINUOUS
370
-3
390
F
  0
LAYER
  5
1FE
100
AcDbSymbolTableRecord
100
AcDbLayerTableRecord
  2
01_1_DEFAULT_DATUMS
 70
0
 62
7
  6
CONTINUOUS
370
-3
390
F
  0
LAYER
  5
1FF
100
AcDbSymbolTableRecord
100
AcDbLayerTableRecord
  2
01_PLANES
 70
0
 62
7
  6
CONTINUOUS
370
-3
390
F
  0
LAYER
  5
200
100
AcDbSymbolTableRecord
100
AcDbLayerTableRecord
  2
02_COORD_SYS
 70
0
 62
7
  6
CONTINUOUS
370
-3
390
F
  0
LAYER
  5
201
100
AcDbSymbolTableRecord
100
AcDbLayerTableRecord
  2
03_AXES
 70
0
 62
7
  6
CONTINUOUS
370
-3
390
F
  0
LAYER
  5
202
100
AcDbSymbolTableRecord
100
AcDbLayerTableRecord
  2
04_POINTS
 70
0
 62
7
  6
CONTINUOUS
370
-3
390
F
  0
LAYER
  5
203
100
AcDbSymbolTableRecord
100
AcDbLayerTableRecord
  2
05_CURVES
 70
0
 62
7
  6
CONTINUOUS
370
-3
390
F
  0
LAYER
  5
204
100
AcDbSymbolTableRecord
100
AcDbLayerTableRecord
  2
06_SURFS
 70
0
 62
7
  6
CONTINUOUS
370
-3
390
F
  0
LAYER
  5
205
100
AcDbSymbolTableRecord
100
AcDbLayerTableRecord
  2
07_COSMETICS
 70
0
 62
7
  6
CONTINUOUS
370
-3
390
F
  0
LAYER
  5
206
100
AcDbSymbolTableRecord
100
AcDbLayerTableRecord
  2
10_NOTES
 70
0
 62
7
  6
CONTINUOUS
370
-3
390
F
  0
LAYER
  5
207
100
AcDbSymbolTableRecord
100
AcDbLayerTableRecord
  2
11_NOTES_PUB
 70
0
 62
7
  6
CONTINUOUS
370
-3
390
F
  0
LAYER
  5
208
100
AcDbSymbolTableRecord
100
AcDbLayerTableRecord
  2
13_REF_GTOL
 70
0
 62
7
  6
CONTINUOUS
370
-3
390
F
  0
LAYER
  5
209
100
AcDbSymbolTableRecord
100
AcDbLayerTableRecord
  2
16_MISC
 70
0
 62
7
  6
CONTINUOUS
370
-3
390
F
  0
LAYER
  5
20A
100
AcDbSymbolTableRecord
100
AcDbLayerTableRecord
  2
17_NO_PRINT
 70
0
 62
7
  6
CONTINUOUS
370
-3
390
F
  0
LAYER
  5
20B
100
AcDbSymbolTableRecord
100
AcDbLayerTableRecord
  2
18_DATUM_CAMS_JOINTS
 70
0
 62
7
  6
CONTINUOUS
370
-3
390
F
  0
LAYER
  5
20C
100
AcDbSymbolTableRecord
100
AcDbLayerTableRecord
  2
19_DATUM_FUNCTIONAL
 70
0
 62
7
  6
CONTINUOUS
370
-3
390
F
  0
LAYER
  5
20D
100
AcDbSymbolTableRecord
100
AcDbLayerTableRecord
  2
20_DATUM_KINEMATIC_SCHEME
 70
0
 62
7
  6
CONTINUOUS
370
-3
390
F
  0
ENDTAB
  0
TABLE
  2
STYLE
  5
3
100
AcDbSymbolTable
 70
1
  0
STYLE
  5
11
100
AcDbSymbolTableRecord
100
AcDbTextStyleTableRecord
  2
STANDARD
 70
0
 40
0.0
 41
0.8
 50
0.0
 71
0
 42
0.2
  3
txt
  4

  0
STYLE
  5
20E
100
AcDbSymbolTableRecord
100
AcDbTextStyleTableRecord
  2
TEXTSTYLE_1
 70
0
 40
0.0
 41
0.8
 50
0.0
 71
0
 42
0.2
  3
gdt
  4

  0
ENDTAB
  0
TABLE
  2
VIEW
  5
6
100
AcDbSymbolTable
 70
0
  0
ENDTAB
  0
TABLE
  2
UCS
  5
7
100
AcDbSymbolTable
 70
0
  0
ENDTAB
  0
TABLE
  2
APPID
  5
9
100
AcDbSymbolTable
 70
1
  0
APPID
  5
20F
100
AcDbSymbolTableRecord
100
AcDbRegAppTableRecord
  2
ACAD
 70
0
  0
ENDTAB
  0
TABLE
  2
BLOCK_RECORD
  5
1
100
AcDbSymbolTable
 70
0
  0
BLOCK_RECORD
  5
210
100
AcDbSymbolTableRecord
100
AcDbBlockTableRecord
  2
*Model_Space
  0
BLOCK_RECORD
  5
211
100
AcDbSymbolTableRecord
100
AcDbBlockTableRecord
  2
*Paper_Space
  0
BLOCK_RECORD
  5
212
100
AcDbSymbolTableRecord
100
AcDbBlockTableRecord
  2
_FILLED
  0
ENDTAB
  0
TABLE
  2
DIMSTYLE
  5
A
100
AcDbSymbolTable
 70
1
100
AcDbDimStyleTable
 71
0
  0
DIMSTYLE
105
213
100
AcDbSymbolTableRecord
100
AcDbDimStyleTableRecord
  2
STANDARD
 70
0
  3

  4

 40
1.0
 41
2.070541986
 42
1.0
 43
0.38
 44
1.0
 45
0.0
 46
0.0
 47
0.01
 48
0.01
140
2.8987587803
141
0.09
142
0.0
143
25.4
144
1.0
145
0.0
146
1.0
147
0.625
 71
1
 72
0
 73
0
 74
0
 75
0
 76
0
 77
1
 78
8
 79
2
170
0
171
1
172
0
173
0
174
0
175
0
176
0
177
0
178
0
270
2
179
2
271
2
272
2
273
2
274
2
275
0
280
0
281
0
282
0
283
1
284
8
285
0
286
0
287
3
288
0
340
11
278
46
341
212
342
212
343
212
344
212
  0
ENDTAB
  0
ENDSEC
  0
SECTION
  2
BLOCKS
  0
BLOCK
  5
20
100
AcDbEntity
  8
0
100
AcDbBlockBegin
  2
*Model_Space
 70
0
 10
0.0
 20
0.0
 30
0.0
  3
*Model_Space
  1

  0
ENDBLK
  5
21
100
AcDbEntity
  8
0
100
AcDbBlockEnd
  0
BLOCK
  5
1C
100
AcDbEntity
  8
0
100
AcDbBlockBegin
  2
*Paper_Space
 70
0
 10
0.0
 20
0.0
 30
0.0
  3
*Paper_Space
  1

  0
ENDBLK
  5
1D
100
AcDbEntity
  8
0
100
AcDbBlockEnd
  0
BLOCK
  5
214
100
AcDbEntity
  8
0
100
AcDbBlockBegin
  2
_FILLED
 70
64
 10
0.0
 20
0.0
  3
_FILLED
  1

  0
SOLID
  5
215
100
AcDbEntity
  8
0
  6
BYBLOCK
 62
0
100
AcDbTrace
 10
0.0
 20
0.0
 11
-1.0
 21
0.25
 12
-1.0
 22
-0.25
 13
-1.0
 23
-0.25
  0
ENDBLK
  5
216
100
AcDbEntity
  8
0
  6
BYBLOCK
 62
0
100
AcDbBlockEnd
  0
ENDSEC
  0
SECTION
  2
ENTITIES
  0
LINE
  5
217
100
AcDbEntity
  8
0
100
AcDbLine
 62
7
  6
CONTINUOUS
 10
159.0708453065
 20
48.1270522147
 11
19.3708453065
 21
48.1270522147
  0
LINE
  5
218
100
AcDbEntity
  8
0
100
AcDbLine
 62
7
  6
CONTINUOUS
 10
19.3708453065
 20
48.1270522147
 11
19.3708453065
 21
191.5981286507
  0
LINE
  5
219
100
AcDbEntity
  8
0
100
AcDbLine
 62
7
  6
CONTINUOUS
 10
26.4708453065
 20
191.5152265635
 11
26.4708453065
 21
196.3479477853
  0
LINE
  5
21A
100
AcDbEntity
  8
0
100
AcDbLine
 62
7
  6
CONTINUOUS
 10
27.7208453065
 20
56.1267475993
 11
27.7208453065
 21
179.1220641361
  0
LINE
  5
21B
100
AcDbEntity
  8
0
100
AcDbLine
 62
7
  6
CONTINUOUS
 10
150.7208453065
 20
56.1267475993
 11
27.7208453065
 21
56.1267475993
  0
LINE
  5
21C
100
AcDbEntity
  8
0
100
AcDbLine
 62
7
  6
CONTINUOUS
 10
88.4408060778
 20
78.7355682252
 11
131.7252425025
 21
78.7355682252
  0
LINE
  5
21D
100
AcDbEntity
  8
0
100
AcDbLine
 62
7
  6
CONTINUOUS
 10
88.4408060777
 20
78.7622714238
 11
56.7252425025
 21
78.7622714238
  0
LINE
  5
21E
100
AcDbEntity
  8
0
100
AcDbLine
 62
7
  6
CONTINUOUS
 10
56.7252425025
 20
153.8763102146
 11
56.7252425025
 21
78.7622714238
  0
LINE
  5
21F
100
AcDbEntity
  8
0
100
AcDbLine
 62
7
  6
CONTINUOUS
 10
61.9708453065
 20
191.5152265635
 11
61.9708453065
 21
196.3479477853
  0
LINE
  5
220
100
AcDbEntity
  8
0
100
AcDbLine
 62
7
  6
CONTINUOUS
 10
71.4708453065
 20
191.5152265635
 11
71.4708453065
 21
196.3479477853
  0
LINE
  5
221
100
AcDbEntity
  8
0
100
AcDbLine
 62
7
  6
CONTINUOUS
 10
70.3720049965
 20
129.8980098863
 11
80.8551297128
 21
140.2438603115
  0
LINE
  5
222
100
AcDbEntity
  8
0
100
AcDbLine
 62
7
  6
CONTINUOUS
 10
86.985894319
 20
89.1246036551
 11
86.985894319
 21
89.1513068537
  0
LINE
  5
223
100
AcDbEntity
  8
0
100
AcDbLine
 62
7
  6
CONTINUOUS
 10
86.985894319
 20
143.3436770251
 11
86.985894319
 21
143.3703802237
  0
LINE
  5
224
100
AcDbEntity
  8
0
100
AcDbLine
 62
7
  6
CONTINUOUS
 10
88.4408060778
 20
153.7594156536
 11
88.4408060778
 21
153.732712455
  0
LINE
  5
225
100
AcDbEntity
  8
0
100
AcDbLine
 62
7
  6
CONTINUOUS
 10
62.4772211869
 20
101.4071300463
 11
68.2515244878
 21
107.1058200721
  0
LINE
  5
226
100
AcDbEntity
  8
0
100
AcDbLine
 62
7
  6
CONTINUOUS
 10
103.5999763239
 20
141.9913914407
 11
109.3742796248
 21
147.6900814665
  0
LINE
  5
227
100
AcDbEntity
  8
0
100
AcDbLine
 62
7
  6
CONTINUOUS
 10
112.443850549
 20
145.8544675949
 11
64.1039034831
 21
98.1475218668
  0
LINE
  5
228
100
AcDbEntity
  8
0
100
AcDbLine
 62
7
  6
CONTINUOUS
 10
115.8910312333
 20
148.0808946652
 11
113.2371475945
 21
145.461763069
  0
LINE
  5
229
100
AcDbEntity
  8
0
100
AcDbLine
 62
7
  6
CONTINUOUS
 10
114.9611300305
 20
144.259677739
 11
114.9234864358
 21
144.2225270791
  0
LINE
  5
22A
100
AcDbEntity
  8
0
100
AcDbLine
 62
7
  6
CONTINUOUS
 10
114.1583971009
 20
144.8033248309
 11
114.1582665135
 21
144.8030643863
  0
LINE
  5
22B
100
AcDbEntity
  8
0
100
AcDbLine
 62
7
  6
CONTINUOUS
 10
120.1189548631
 20
139.496805832
 11
122.217413492
 21
141.5677855909
  0
LINE
  5
22C
100
AcDbEntity
  8
0
100
AcDbLine
 62
7
  6
CONTINUOUS
 10
123.0664916595
 20
140.7120880513
 11
120.9277963426
 21
138.6013984953
  0
LINE
  5
22D
100
AcDbEntity
  8
0
100
AcDbLine
 62
7
  6
CONTINUOUS
 10
121.5253418596
 20
137.8651335139
 11
123.7326010028
 21
140.0434890675
  0
LINE
  5
22E
100
AcDbEntity
  8
0
100
AcDbLine
 62
7
  6
CONTINUOUS
 10
124.313463829
 20
139.4638998698
 11
122.044863129
 21
137.2250060141
  0
LINE
  5
22F
100
AcDbEntity
  8
0
100
AcDbLine
 62
7
  6
CONTINUOUS
 10
122.6621861625
 20
136.3984450748
 11
122.6914792605
 21
136.4273545859
  0
LINE
  5
230
100
AcDbEntity
  8
0
100
AcDbLine
 62
7
  6
CONTINUOUS
 10
106.9708453065
 20
191.5152265635
 11
106.9708453065
 21
196.3479477853
  0
LINE
  5
231
100
AcDbEntity
  8
0
100
AcDbLine
 62
7
  6
CONTINUOUS
 10
124.3771959896
 20
133.7428880165
 11
76.0580648409
 21
86.0564856257
  0
LINE
  5
232
100
AcDbEntity
  8
0
100
AcDbLine
 62
7
  6
CONTINUOUS
 10
125.9827575068
 20
130.8516595838
 11
120.2066803924
 21
125.1512189722
  0
LINE
  5
233
100
AcDbEntity
  8
0
100
AcDbLine
 62
7
  6
CONTINUOUS
 10
84.8726310268
 20
90.2798614769
 11
79.0965539124
 21
84.5794208653
  0
LINE
  5
234
100
AcDbEntity
  8
0
100
AcDbLine
 62
7
  6
CONTINUOUS
 10
116.4708453065
 20
191.5152265635
 11
116.4708453065
 21
196.3479477853
  0
LINE
  5
235
100
AcDbEntity
  8
0
100
AcDbLine
 62
7
  6
CONTINUOUS
 10
123.2539691974
 20
135.5870688064
 11
123.2540600722
 21
135.5872848186
  0
LINE
  5
236
100
AcDbEntity
  8
0
100
AcDbLine
 62
7
  6
CONTINUOUS
 10
112.5975146965
 20
145.7993468989
 11
112.5704542192
 21
145.8042086492
  0
LINE
  5
237
100
AcDbEntity
  8
0
100
AcDbLine
 62
7
  6
CONTINUOUS
 10
118.0797692488
 20
102.5361065539
 11
107.5930812919
 21
92.1867395482
  0
LINE
  5
238
100
AcDbEntity
  8
0
100
AcDbLine
 62
7
  6
CONTINUOUS
 10
131.7252425025
 20
153.732712455
 11
88.4408060778
 21
153.732712455
  0
LINE
  5
239
100
AcDbEntity
  8
0
100
AcDbLine
 62
7
  6
CONTINUOUS
 10
88.4408060778
 20
153.7594156536
 11
56.7252425025
 21
153.7594156536
  0
LINE
  5
23A
100
AcDbEntity
  8
0
100
AcDbLine
 62
7
  6
CONTINUOUS
 10
131.7252425025
 20
153.8763102146
 11
56.7252425025
 21
153.8763102146
  0
LINE
  5
23B
100
AcDbEntity
  8
0
100
AcDbLine
 62
7
  6
CONTINUOUS
 10
112.6436144178
 20
145.8827374554
 11
112.6208295041
 21
145.8953333441
  0
LINE
  5
23C
100
AcDbEntity
  8
0
100
AcDbLine
 62
7
  6
CONTINUOUS
 10
112.6514605846
 20
145.8954087716
 11
112.6293369509
 21
145.9090954598
  0
LINE
  5
23D
100
AcDbEntity
  8
0
100
AcDbLine
 62
7
  6
CONTINUOUS
 10
123.7326010028
 20
140.0434890675
 11
123.0664916595
 21
140.7120880513
  0
LINE
  5
23E
100
AcDbEntity
  8
0
100
AcDbLine
 62
7
  6
CONTINUOUS
 10
115.8910312333
 20
148.0808946652
 11
117.9869994143
 21
145.9770935295
  0
LINE
  5
23F
100
AcDbEntity
  8
0
100
AcDbLine
 62
7
  6
CONTINUOUS
 10
122.217413492
 20
141.5677855909
 11
115.8910312333
 21
148.0808946652
  0
LINE
  5
240
100
AcDbEntity
  8
0
100
AcDbLine
 62
7
  6
CONTINUOUS
 10
117.9869994143
 20
145.9770935295
 11
124.313463829
 21
139.4638998698
  0
LINE
  5
241
100
AcDbEntity
  8
0
100
AcDbLine
 62
7
  6
CONTINUOUS
 10
124.4517741994
 20
133.7842152572
 11
124.3760900107
 21
133.913233326
  0
LINE
  5
242
100
AcDbEntity
  8
0
100
AcDbLine
 62
7
  6
CONTINUOUS
 10
124.4951964575
 20
133.7096191021
 11
124.4517741994
 21
133.7842152572
  0
LINE
  5
243
100
AcDbEntity
  8
0
100
AcDbLine
 62
7
  6
CONTINUOUS
 10
124.4632876851
 20
133.6910991021
 11
124.3520119292
 21
133.8990405659
  0
LINE
  5
244
100
AcDbEntity
  8
0
100
AcDbLine
 62
7
  6
CONTINUOUS
 10
124.3170649135
 20
133.8803393626
 11
124.3300205305
 21
133.8441571616
  0
LINE
  5
245
100
AcDbEntity
  8
0
100
AcDbLine
 62
7
  6
CONTINUOUS
 10
131.7252425025
 20
78.7355682252
 11
131.7252425025
 21
153.8763102146
  0
LINE
  5
246
100
AcDbEntity
  8
0
100
AcDbLine
 62
7
  6
CONTINUOUS
 10
150.7208453065
 20
56.1267475993
 11
150.7208453065
 21
179.1220641361
  0
LINE
  5
247
100
AcDbEntity
  8
0
100
AcDbLine
 62
7
  6
CONTINUOUS
 10
150.7208453065
 20
178.5112066513
 11
27.7208453065
 21
178.5112066513
  0
LINE
  5
248
100
AcDbEntity
  8
0
100
AcDbLine
 62
7
  6
CONTINUOUS
 10
150.7208453065
 20
179.1220641361
 11
27.7208453065
 21
179.1220641361
  0
LINE
  5
249
100
AcDbEntity
  8
0
100
AcDbLine
 62
7
  6
CONTINUOUS
 10
151.9708453065
 20
191.5152265635
 11
151.9708453065
 21
196.3479477853
  0
LINE
  5
24A
100
AcDbEntity
  8
0
100
AcDbLine
 62
7
  6
CONTINUOUS
 10
159.0708453065
 20
186.0781649201
 11
19.3708453065
 21
186.0781649201
  0
LINE
  5
24B
100
AcDbEntity
  8
0
100
AcDbLine
 62
7
  6
CONTINUOUS
 10
159.0708453065
 20
186.1654302751
 11
19.3708453065
 21
186.1654302751
  0
LINE
  5
24C
100
AcDbEntity
  8
0
100
AcDbLine
 62
7
  6
CONTINUOUS
 10
159.0708453065
 20
48.1270522147
 11
159.0708453065
 21
191.5981286507
  0
LINE
  5
24D
100
AcDbEntity
  8
0
100
AcDbLine
 62
7
  6
CONTINUOUS
 10
116.4708453065
 20
191.5152265635
 11
106.9708453065
 21
191.5152265635
  0
LINE
  5
24E
100
AcDbEntity
  8
0
100
AcDbLine
 62
7
  6
CONTINUOUS
 10
71.4708453065
 20
191.5152265635
 11
61.9708453065
 21
191.5152265635
  0
LINE
  5
24F
100
AcDbEntity
  8
0
100
AcDbLine
 62
7
  6
CONTINUOUS
 10
26.4708453065
 20
191.5152265635
 11
19.3708453065
 21
191.5152265635
  0
LINE
  5
250
100
AcDbEntity
  8
0
100
AcDbLine
 62
7
  6
CONTINUOUS
 10
151.9708453065
 20
191.5152265635
 11
159.0708453065
 21
191.5152265635
  0
LINE
  5
251
100
AcDbEntity
  8
0
100
AcDbLine
 62
7
  6
CONTINUOUS
 10
116.4708453065
 20
191.5981286507
 11
106.9708453065
 21
191.5981286507
  0
LINE
  5
252
100
AcDbEntity
  8
0
100
AcDbLine
 62
7
  6
CONTINUOUS
 10
71.4708453065
 20
191.5981286507
 11
61.9708453065
 21
191.5981286507
  0
LINE
  5
253
100
AcDbEntity
  8
0
100
AcDbLine
 62
7
  6
CONTINUOUS
 10
26.4708453065
 20
191.5981286507
 11
19.3708453065
 21
191.5981286507
  0
LINE
  5
254
100
AcDbEntity
  8
0
100
AcDbLine
 62
7
  6
CONTINUOUS
 10
151.9708453065
 20
191.5981286507
 11
159.0708453065
 21
191.5981286507
  0
LINE
  5
255
100
AcDbEntity
  8
0
100
AcDbLine
 62
7
  6
CONTINUOUS
 10
151.9708453065
 20
196.265045698
 11
116.4708453065
 21
196.265045698
  0
LINE
  5
256
100
AcDbEntity
  8
0
100
AcDbLine
 62
7
  6
CONTINUOUS
 10
106.9708453065
 20
196.265045698
 11
71.4708453065
 21
196.265045698
  0
LINE
  5
257
100
AcDbEntity
  8
0
100
AcDbLine
 62
7
  6
CONTINUOUS
 10
61.9708453065
 20
196.265045698
 11
26.4708453065
 21
196.265045698
  0
LINE
  5
258
100
AcDbEntity
  8
0
100
AcDbLine
 62
7
  6
CONTINUOUS
 10
151.9708453065
 20
196.3479477853
 11
116.4708453065
 21
196.3479477853
  0
LINE
  5
259
100
AcDbEntity
  8
0
100
AcDbLine
 62
7
  6
CONTINUOUS
 10
106.9708453065
 20
196.3479477853
 11
71.4708453065
 21
196.3479477853
  0
LINE
  5
25A
100
AcDbEntity
  8
0
100
AcDbLine
 62
7
  6
CONTINUOUS
 10
61.9708453065
 20
196.3479477853
 11
26.4708453065
 21
196.3479477853
  0
ARC
  5
25B
100
AcDbEntity
  8
0
100
AcDbCircle
 62
7
  6
CONTINUOUS
 10
23.9500287393
 20
54.97369057
 40
4.0208177629
100
AcDbArc
 50
0.0441859828
 51
16.66478498
  0
ARC
  5
25C
100
AcDbEntity
  8
0
100
AcDbCircle
 62
7
  6
CONTINUOUS
 10
23.9708438597
 20
54.9770231371
 40
4.0000236712
100
AcDbArc
 50
20.3669805879
 51
359.9966804363
  0
ARC
  5
25D
100
AcDbEntity
  8
0
100
AcDbCircle
 62
7
  6
CONTINUOUS
 10
23.9708469403
 20
55.0730060843
 40
4.0000175616
100
AcDbArc
 50
181.3542841671
 51
358.6454945352
  0
CIRCLE
  5
25E
100
AcDbEntity
  8
0
100
AcDbCircle
 62
7
  6
CONTINUOUS
 10
23.9708453065
 20
55.0729624165
 40
1.8000246222
  0
ARC
  5
25F
100
AcDbEntity
  8
0
100
AcDbCircle
 62
7
  6
CONTINUOUS
 10
23.9708453118
 20
55.1035066507
 40
1.8000239819
100
AcDbArc
 50
180.8669163666
 51
359.1314185902
  0
ARC
  5
260
100
AcDbEntity
  8
0
100
AcDbCircle
 62
7
  6
CONTINUOUS
 10
154.4916618738
 20
54.97369057
 40
4.0208177629
100
AcDbArc
 50
163.33521502
 51
179.9558140172
  0
ARC
  5
261
100
AcDbEntity
  8
0
100
AcDbCircle
 62
7
  6
CONTINUOUS
 10
154.4708438597
 20
54.9770231371
 40
4.0000236713
100
AcDbArc
 50
180.0033195667
 51
159.6330045687
  0
ARC
  5
262
100
AcDbEntity
  8
0
100
AcDbCircle
 62
7
  6
CONTINUOUS
 10
154.4708469403
 20
55.0730060842
 40
4.0000175616
100
AcDbArc
 50
181.3542841668
 51
358.6454945356
  0
CIRCLE
  5
263
100
AcDbEntity
  8
0
100
AcDbCircle
 62
7
  6
CONTINUOUS
 10
154.4708453065
 20
55.0729624165
 40
1.8000246222
  0
ARC
  5
264
100
AcDbEntity
  8
0
100
AcDbCircle
 62
7
  6
CONTINUOUS
 10
154.4708453118
 20
55.1035066507
 40
1.8000239819
100
AcDbArc
 50
180.8669163666
 51
359.1314185902
  0
ARC
  5
265
100
AcDbEntity
  8
0
100
AcDbCircle
 62
7
  6
CONTINUOUS
 10
94.2119654427
 20
116.1132367661
 40
35.0284583245
100
AcDbArc
 50
58.9959435083
 51
64.3509888987
  0
ARC
  5
266
100
AcDbEntity
  8
0
100
AcDbCircle
 62
7
  6
CONTINUOUS
 10
94.2023460544
 20
116.1261476599
 40
35.0262080948
100
AcDbArc
 50
24.8607344195
 51
30.1330031308
  0
ARC
  5
267
100
AcDbEntity
  8
0
100
AcDbCircle
 62
7
  6
CONTINUOUS
 10
94.2228875221
 20
116.1314048864
 40
35.0072599189
100
AcDbArc
 50
58.499615666
 51
58.9959488681
  0
ARC
  5
268
100
AcDbEntity
  8
0
100
AcDbCircle
 62
7
  6
CONTINUOUS
 10
94.2236306903
 20
115.971495258
 40
34.9984570301
100
AcDbArc
 50
210.6158051754
 51
238.7317074199
  0
ARC
  5
269
100
AcDbEntity
  8
0
100
AcDbCircle
 62
7
  6
CONTINUOUS
 10
94.2268611511
 20
115.9707548872
 40
34.9984486347
100
AcDbArc
 50
30.5172493494
 51
58.6331543009
  0
ARC
  5
26A
100
AcDbEntity
  8
0
100
AcDbCircle
 62
7
  6
CONTINUOUS
 10
94.2283492308
 20
116.1402712112
 40
34.9966607539
100
AcDbArc
 50
33.8217204417
 51
35.4795914549
  0
ARC
  5
26B
100
AcDbEntity
  8
0
100
AcDbCircle
 62
7
  6
CONTINUOUS
 10
94.2304960948
 20
116.1438418137
 40
34.9926802269
100
AcDbArc
 50
58.2784830249
 51
58.4995976552
  0
ARC
  5
26C
100
AcDbEntity
  8
0
100
AcDbCircle
 62
7
  6
CONTINUOUS
 10
94.234838864
 20
116.1448849838
 40
34.9886982075
100
AcDbArc
 50
35.4796071249
 51
37.1764202346
  0
ARC
  5
26D
100
AcDbEntity
  8
0
100
AcDbCircle
 62
7
  6
CONTINUOUS
 10
94.2413412726
 20
116.1489946326
 40
34.9810128192
100
AcDbArc
 50
30.5190735186
 51
32.8766776602
  0
ARC
  5
26E
100
AcDbEntity
  8
0
100
AcDbCircle
 62
7
  6
CONTINUOUS
 10
94.2412132461
 20
116.16116874
 40
34.97230672
100
AcDbArc
 50
57.033456204
 51
58.2358716759
  0
ARC
  5
26F
100
AcDbEntity
  8
0
100
AcDbCircle
 62
7
  6
CONTINUOUS
 10
94.6295272897
 20
116.5321884122
 40
34.4269090549
100
AcDbArc
 50
33.9352397123
 51
35.2404203138
  0
ARC
  5
270
100
AcDbEntity
  8
0
100
AcDbCircle
 62
7
  6
CONTINUOUS
 10
94.7605809217
 20
116.6260780616
 40
34.2656974457
100
AcDbArc
 50
35.2386409118
 51
36.9685584601
  0
ARC
  5
271
100
AcDbEntity
  8
0
100
AcDbCircle
 62
7
  6
CONTINUOUS
 10
94.7747027437
 20
116.6308040564
 40
34.2514087512
100
AcDbArc
 50
33.6093671994
 51
33.9339460425
  0
ARC
  5
272
100
AcDbEntity
  8
0
100
AcDbCircle
 62
7
  6
CONTINUOUS
 10
94.8531942134
 20
116.6813376868
 40
34.1580669032
100
AcDbArc
 50
30.2093552467
 51
33.6116505087
  0
ARC
  5
273
100
AcDbEntity
  8
0
100
AcDbCircle
 62
7
  6
CONTINUOUS
 10
95.6699950848
 20
117.1657889608
 40
33.2084373835
100
AcDbArc
 50
29.9800099527
 51
30.1407794496
  0
ARC
  5
274
100
AcDbEntity
  8
0
100
AcDbCircle
 62
7
  6
CONTINUOUS
 10
95.7919232185
 20
117.2361396989
 40
33.0676691484
100
AcDbArc
 50
29.851699061
 51
29.9799916339
  0
ARC
  5
275
100
AcDbEntity
  8
0
100
AcDbCircle
 62
7
  6
CONTINUOUS
 10
96.1196089424
 20
118.5963301504
 40
31.8735756311
100
AcDbArc
 50
57.6781763343
 51
58.9161430226
  0
ARC
  5
276
100
AcDbEntity
  8
0
100
AcDbCircle
 62
7
  6
CONTINUOUS
 10
96.4702480462
 20
119.1764578108
 40
31.1957147255
100
AcDbArc
 50
58.9593403759
 51
59.1755255076
  0
ARC
  5
277
100
AcDbEntity
  8
0
100
AcDbCircle
 62
7
  6
CONTINUOUS
 10
96.7555454608
 20
119.6559348006
 40
30.6377789668
100
AcDbArc
 50
59.1742312812
 51
59.6597264421
  0
ARC
  5
278
100
AcDbEntity
  8
0
100
AcDbCircle
 62
7
  6
CONTINUOUS
 10
94.2413752562
 20
116.3086485516
 40
28.1099129542
100
AcDbArc
 50
250.0117936951
 51
250.1790608907
  0
ARC
  5
279
100
AcDbEntity
  8
0
100
AcDbCircle
 62
7
  6
CONTINUOUS
 10
94.2310493257
 20
116.2784760773
 40
28.0780266606
100
AcDbArc
 50
250.1780064257
 51
255.0464146813
  0
ARC
  5
27A
100
AcDbEntity
  8
0
100
AcDbCircle
 62
7
  6
CONTINUOUS
 10
94.2251707881
 20
116.2319442864
 40
28.0615961038
100
AcDbArc
 50
69.5389183414
 51
104.9501218657
  0
ARC
  5
27B
100
AcDbEntity
  8
0
100
AcDbCircle
 62
7
  6
CONTINUOUS
 10
94.2251623749
 20
116.2363098131
 40
28.061578048
100
AcDbArc
 50
255.0498807296
 51
299.0250155491
  0
ARC
  5
27C
100
AcDbEntity
  8
0
100
AcDbCircle
 62
7
  6
CONTINUOUS
 10
94.2252332848
 20
116.2705519187
 40
28.0612572667
100
AcDbArc
 50
255.0834161157
 51
299.0709862069
  0
ARC
  5
27D
100
AcDbEntity
  8
0
100
AcDbCircle
 62
7
  6
CONTINUOUS
 10
94.2245099227
 20
116.2603060355
 40
28.0597961168
100
AcDbArc
 50
104.9496917854
 51
179.9989024615
  0
ARC
  5
27E
100
AcDbEntity
  8
0
100
AcDbCircle
 62
7
  6
CONTINUOUS
 10
94.2264992548
 20
116.2343815041
 40
28.059233482
100
AcDbArc
 50
299.0245389982
 51
359.9995075532
  0
ARC
  5
27F
100
AcDbEntity
  8
0
100
AcDbCircle
 62
7
  6
CONTINUOUS
 10
94.2265088937
 20
116.2689347914
 40
28.0592240604
100
AcDbArc
 50
299.070314086
 51
359.930370073
  0
ARC
  5
280
100
AcDbEntity
  8
0
100
AcDbCircle
 62
7
  6
CONTINUOUS
 10
94.2293174346
 20
116.2343457128
 40
28.0564153019
100
AcDbArc
 50
359.9995805954
 51
19.3539718344
  0
ARC
  5
281
100
AcDbEntity
  8
0
100
AcDbCircle
 62
7
  6
CONTINUOUS
 10
94.2210131725
 20
116.2606235497
 40
28.0562609041
100
AcDbArc
 50
179.9995507439
 51
199.7492122608
  0
ARC
  5
282
100
AcDbEntity
  8
0
100
AcDbCircle
 62
7
  6
CONTINUOUS
 10
94.2259102009
 20
116.2132949689
 40
27.5005708878
100
AcDbArc
 50
119.0900231478
 51
180.0170893434
  0
ARC
  5
283
100
AcDbEntity
  8
0
100
AcDbCircle
 62
7
  6
CONTINUOUS
 10
94.2250879907
 20
116.2677430448
 40
27.4999590545
100
AcDbArc
 50
62.1524746247
 51
179.9980115915
  0
ARC
  5
284
100
AcDbEntity
  8
0
100
AcDbCircle
 62
7
  6
CONTINUOUS
 10
94.2280833751
 20
116.2689025707
 40
27.4971216612
100
AcDbArc
 50
359.9995725599
 51
25.995638423
  0
ARC
  5
285
100
AcDbEntity
  8
0
100
AcDbCircle
 62
7
  6
CONTINUOUS
 10
94.2295012789
 20
116.2177493197
 40
27.4958360739
100
AcDbArc
 50
330.1593768222
 51
359.9821901593
  0
ARC
  5
286
100
AcDbEntity
  8
0
100
AcDbCircle
 62
7
  6
CONTINUOUS
 10
119.4298772786
 20
130.5035929402
 40
5.9465944673
100
AcDbArc
 50
32.7388949662
 51
33.3055578664
  0
ARC
  5
287
100
AcDbEntity
  8
0
100
AcDbCircle
 62
7
  6
CONTINUOUS
 10
120.8502547703
 20
131.4340665278
 40
4.2485821026
100
AcDbArc
 50
33.3364093539
 51
33.5282740413
  0
CIRCLE
  5
288
100
AcDbEntity
  8
0
100
AcDbCircle
 62
7
  6
CONTINUOUS
 10
89.2208453065
 20
191.2654325901
 40
4.4750000043
  0
ARC
  5
289
100
AcDbEntity
  8
0
100
AcDbCircle
 62
7
  6
CONTINUOUS
 10
89.2208453085
 20
191.3177910581
 40
4.4749992588
100
AcDbArc
 50
180.6290406803
 51
359.3703856122
  0
CIRCLE
  5
28A
100
AcDbEntity
  8
0
100
AcDbCircle
 62
7
  6
CONTINUOUS
 10
89.2163453065
 20
191.317774434
 40
1.8000246222
  0
ARC
  5
28B
100
AcDbEntity
  8
0
100
AcDbCircle
 62
7
  6
CONTINUOUS
 10
89.2163453118
 20
191.3483186682
 40
1.8000239819
100
AcDbArc
 50
180.8669163666
 51
359.1314185902
  0
ARC
  5
28C
100
AcDbEntity
  8
0
100
AcDbCircle
 62
7
  6
CONTINUOUS
 10
318.4153171334
 20
116.238283052
 40
233.0122944281
100
AcDbArc
 50
186.6821652888
 51
189.2618889453
  0
ARC
  5
28D
100
AcDbEntity
  8
0
100
AcDbCircle
 62
7
  6
CONTINUOUS
 10
318.4153171336
 20
116.2299976282
 40
233.0122944283
100
AcDbArc
 50
170.7381110547
 51
173.3178347112
  0
ARC
  5
28E
100
AcDbEntity
  8
0
100
AcDbCircle
 62
7
  6
CONTINUOUS
 10
318.4153171336
 20
116.2567008268
 40
233.0122944283
100
AcDbArc
 50
170.7381110547
 51
173.3178347112
  0
ARC
  5
28F
100
AcDbEntity
  8
0
100
AcDbCircle
 62
7
  6
CONTINUOUS
 10
256.8203154575
 20
272.8427952462
 40
188.010625924
100
AcDbArc
 50
224.9378511577
 51
225.1879162299
  0
SPLINE
  5
290
100
AcDbEntity
  8
0
100
AcDbSpline
 62
7
  6
CONTINUOUS
 70
0
 71
3
 72
9
 73
5
 74
0
 42
0.0000001
 43
0.0000001
 44
0.0000000001
 40
0.0
 40
0.0
 40
0.0
 40
0.0
 40
0.4238993424
 40
1.0
 40
1.0
 40
1.0
 40
1.0
 10
68.2515244878
 20
107.1058200721
 30
0.0
 10
67.8276257077
 20
108.3432680597
 30
0.0
 10
67.0251403561
 20
111.3328293764
 30
0.0
 10
66.7252406013
 20
114.4274004122
 30
0.0
 10
66.7252464329
 20
116.2050924747
 30
0.0
  0
SPLINE
  5
291
100
AcDbEntity
  8
0
100
AcDbSpline
 62
7
  6
CONTINUOUS
 70
0
 71
3
 72
19
 73
15
 74
0
 42
0.0000001
 43
0.0000001
 44
0.0000000001
 40
0.0
 40
0.0
 40
0.0
 40
0.0
 40
0.0054121648
 40
0.0185319849
 40
0.0394513392
 40
0.0681607423
 40
0.1046359037
 40
0.1488481832
 40
0.2007588388
 40
0.2602913741
 40
0.4018729162
 40
0.5728924882
 40
0.7725979747
 40
1.0
 40
1.0
 40
1.0
 40
1.0
 10
114.1582665135
 20
144.8030643863
 30
0.0
 10
114.1582665135
 20
144.8014870827
 30
0.0
 10
114.1633559618
 20
144.7976766066
 30
0.0
 10
114.1708542636
 20
144.7899976349
 30
0.0
 10
114.1856501134
 20
144.7785008739
 30
0.0
 10
114.2051393686
 20
144.7630010042
 30
0.0
 10
114.2305506571
 20
144.7436214727
 30
0.0
 10
114.2613576662
 20
144.7203359503
 30
0.0
 10
114.2977061251
 20
144.69317902
 30
0.0
 10
114.3568962178
 20
144.6492056477
 30
0.0
 10
114.4441231441
 20
144.5847530505
 30
0.0
 10
114.5642178597
 20
144.4960460238
 30
0.0
 10
114.7042928089
 20
144.3922900314
 30
0.0
 10
114.8040911821
 20
144.3178969575
 30
0.0
 10
114.8571473798
 20
144.2781830962
 30
0.0
  0
SPLINE
  5
292
100
AcDbEntity
  8
0
100
AcDbSpline
 62
7
  6
CONTINUOUS
 70
0
 71
3
 72
21
 73
17
 74
0
 42
0.0000001
 43
0.0000001
 44
0.0000000001
 40
0.0
 40
0.0
 40
0.0
 40
0.0
 40
0.2295880015
 40
0.4309795939
 40
0.6031071232
 40
0.7451420569
 40
0.8046494524
 40
0.8563634446
 40
0.9001974809
 40
0.9361000187
 40
0.9640415334
 40
0.9839951241
 40
0.9909703085
 40
0.9959440936
 40
0.9989256727
 40
1.0
 40
1.0
 40
1.0
 40
1.0
 10
122.7225529359
 20
136.3250663388
 30
0.0
 10
122.7634505965
 20
136.2687298643
 30
0.0
 10
122.8399620001
 20
136.1627859595
 30
0.0
 10
122.9463976711
 20
136.0140745469
 30
0.0
 10
123.0370311801
 20
135.8867019323
 30
0.0
 10
123.1025911374
 20
135.7942891599
 30
0.0
 10
123.1470629885
 20
135.7316856398
 30
0.0
 10
123.1743464499
 20
135.6933913216
 30
0.0
 10
123.1975625071
 20
135.661003484
 30
0.0
 10
123.2167229002
 20
135.6345330073
 30
0.0
 10
123.2317411587
 20
135.6141216123
 30
0.0
 10
123.241853577
 20
135.6007302108
 30
0.0
 10
123.2477645554
 20
135.5933122946
 30
0.0
 10
123.2508717943
 20
135.5896037178
 30
0.0
 10
123.252421856
 20
135.5880530134
 30
0.0
 10
123.2537549805
 20
135.5868132943
 30
0.0
 10
123.2539887477
 20
135.5870401698
 30
0.0
  0
SPLINE
  5
293
100
AcDbEntity
  8
0
100
AcDbSpline
 62
7
  6
CONTINUOUS
 70
0
 71
3
 72
14
 73
10
 74
0
 42
0.0000001
 43
0.0000001
 44
0.0000000001
 40
0.0
 40
0.0
 40
0.0
 40
0.0
 40
0.1772979245
 40
0.2962399796
 40
0.4300260936
 40
0.5709867657
 40
0.7138621116
 40
0.8569292292
 40
1.0
 40
1.0
 40
1.0
 40
1.0
 10
84.8726310268
 20
90.2798614769
 30
0.0
 10
86.1840845794
 20
89.8275147379
 30
0.0
 10
88.4331900142
 20
89.2257555642
 30
0.0
 10
91.7701275058
 20
88.7602650882
 30
0.0
 10
94.8556114303
 20
88.657704431
 30
0.0
 10
98.1198506629
 20
88.9271422918
 30
0.0
 10
101.4000791562
 20
89.6006772268
 30
0.0
 10
104.5894333439
 20
90.6729266053
 30
0.0
 10
106.6147670017
 20
91.6425920803
 30
0.0
 10
107.5930812917
 20
92.186739548
 30
0.0
  0
SPLINE
  5
294
100
AcDbEntity
  8
0
100
AcDbSpline
 62
7
  6
CONTINUOUS
 70
0
 71
3
 72
12
 73
8
 74
0
 42
0.0000001
 43
0.0000001
 44
0.0000000001
 40
0.0
 40
0.0
 40
0.0
 40
0.0
 40
0.0515687564
 40
0.1231212216
 40
0.3268812278
 40
0.6162591054
 40
1.0
 40
1.0
 40
1.0
 40
1.0
 10
76.0920072722
 20
86.0998081141
 30
0.0
 10
76.1438559053
 20
86.0740576566
 30
0.0
 10
76.2664668671
 20
86.0102279779
 30
0.0
 10
76.5903497208
 20
85.8377426534
 30
0.0
 10
77.1492831391
 20
85.5386402291
 30
0.0
 10
78.0244383637
 20
85.0878284024
 30
0.0
 10
78.7053584717
 20
84.7598187904
 30
0.0
 10
79.0965539124
 20
84.5794208653
 30
0.0
  0
SPLINE
  5
295
100
AcDbEntity
  8
0
100
AcDbSpline
 62
7
  6
CONTINUOUS
 70
0
 71
3
 72
14
 73
10
 74
0
 42
0.0000001
 43
0.0000001
 44
0.0000000001
 40
0.0
 40
0.0
 40
0.0
 40
0.0
 40
0.0382996964
 40
0.100944643
 40
0.1875843659
 40
0.2984618422
 40
0.4341316843
 40
0.5955559842
 40
1.0
 40
1.0
 40
1.0
 40
1.0
 10
64.1789371975
 20
98.0761615357
 30
0.0
 10
64.1577485503
 20
98.1189687218
 30
0.0
 10
64.097958235
 20
98.229795967
 30
0.0
 10
63.9857018907
 20
98.4350172148
 30
0.0
 10
63.8293362276
 20
98.7193158461
 30
0.0
 10
63.6312814149
 20
99.0846005776
 30
0.0
 10
63.3926805666
 20
99.5339879886
 30
0.0
 10
62.9927926161
 20
100.3121666569
 30
0.0
 10
62.6866637809
 20
100.9482820272
 30
0.0
 10
62.4772211869
 20
101.4071300463
 30
0.0
  0
SPLINE
  5
296
100
AcDbEntity
  8
0
100
AcDbSpline
 62
7
  6
CONTINUOUS
 70
0
 71
3
 72
18
 73
14
 74
0
 42
0.0000001
 43
0.0000001
 44
0.0000000001
 40
0.0
 40
0.0
 40
0.0
 40
0.0
 40
0.0056549651
 40
0.0191084081
 40
0.0403682785
 40
0.0694065337
 40
0.1061896813
 40
0.1506799209
 40
0.2624981705
 40
0.4042101923
 40
0.5751150551
 40
0.7741433387
 40
1.0
 40
1.0
 40
1.0
 40
1.0
 10
123.2540600722
 20
135.5872848186
 30
0.0
 10
123.2540600722
 20
135.5891911317
 30
0.0
 10
123.2501379455
 20
135.5948844756
 30
0.0
 10
123.2442047401
 20
135.6067366297
 30
0.0
 10
123.2326017468
 20
135.6250796234
 30
0.0
 10
123.2172381642
 20
135.6499875346
 30
0.0
 10
123.1972017509
 20
135.6813566503
 30
0.0
 10
123.1619721132
 20
135.7360715245
 30
0.0
 10
123.106886029
 20
135.8201013415
 30
0.0
 10
123.0275653217
 20
135.9391759398
 30
0.0
 10
122.9309389141
 20
136.0820500521
 30
0.0
 10
122.8172476581
 20
136.2476180871
 30
0.0
 10
122.7352816123
 20
136.365079105
 30
0.0
 10
122.6914792605
 20
136.4273545859
 30
0.0
  0
SPLINE
  5
297
100
AcDbEntity
  8
0
100
AcDbSpline
 62
7
  6
CONTINUOUS
 70
0
 71
3
 72
10
 73
6
 74
0
 42
0.0000001
 43
0.0000001
 44
0.0000000001
 40
0.0
 40
0.0
 40
0.0
 40
0.0
 40
0.6246444393
 40
0.841878853
 40
1.0
 40
1.0
 40
1.0
 40
1.0
 10
109.3742796248
 20
147.6900814665
 30
0.0
 10
109.9852327962
 20
147.3864812143
 30
0.0
 10
110.7964779006
 20
146.9516514046
 30
0.0
 10
111.7331908891
 20
146.3898814103
 30
0.0
 10
112.0793262966
 20
146.170081742
 30
0.0
 10
112.2234625836
 20
146.0749536522
 30
0.0
  0
LINE
  5
298
100
AcDbEntity
  8
0
100
AcDbLine
 62
7
  6
CONTINUOUS
 10
112.2234625836
 20
146.0749536522
 11
112.2379059638
 21
146.0654081777
  0
SPLINE
  5
299
100
AcDbEntity
  8
0
100
AcDbSpline
 62
7
  6
CONTINUOUS
 70
0
 71
3
 72
9
 73
5
 74
0
 42
0.0000001
 43
0.0000001
 44
0.0000000001
 40
0.0
 40
0.0
 40
0.0
 40
0.0
 40
0.6222614844
 40
1.0
 40
1.0
 40
1.0
 40
1.0
 10
112.2379059638
 20
146.0654081777
 30
0.0
 10
112.3070304024
 20
146.0196616124
 30
0.0
 10
112.4173064414
 20
145.9450051683
 30
0.0
 10
112.5258959806
 20
145.8676146787
 30
0.0
 10
112.5649991358
 20
145.8359464197
 30
0.0
  0
SPLINE
  5
29A
100
AcDbEntity
  8
0
100
AcDbSpline
 62
7
  6
CONTINUOUS
 70
0
 71
3
 72
10
 73
6
 74
0
 42
0.0000001
 43
0.0000001
 44
0.0000000001
 40
0.0
 40
0.0
 40
0.0
 40
0.0
 40
0.6824717081
 40
0.8847936477
 40
1.0
 40
1.0
 40
1.0
 40
1.0
 10
112.5649991358
 20
145.8359464197
 30
0.0
 10
112.5743196312
 20
145.8283980809
 30
0.0
 10
112.5864842156
 20
145.8184407791
 30
0.0
 10
112.5983909834
 20
145.8057799304
 30
0.0
 10
112.6018112203
 20
145.8010658937
 30
0.0
 10
112.6022306226
 20
145.7990851815
 30
0.0
  0
SPLINE
  5
29B
100
AcDbEntity
  8
0
100
AcDbSpline
 62
7
  6
CONTINUOUS
 70
0
 71
3
 72
18
 73
14
 74
0
 42
0.0000001
 43
0.0000001
 44
0.0000000001
 40
0.0
 40
0.0
 40
0.0
 40
0.0
 40
0.0112663588
 40
0.0301129253
 40
0.057288378
 40
0.092773438
 40
0.1363528117
 40
0.1876645949
 40
0.3116482228
 40
0.4604877603
 40
0.6289659091
 40
0.8110764013
 40
1.0
 40
1.0
 40
1.0
 40
1.0
 10
97.2247896225
 20
106.9477834924
 30
0.0
 10
97.2392401356
 20
106.9401354719
 30
0.0
 10
97.286163081
 20
106.9415572213
 30
0.0
 10
97.3648544023
 20
106.9645019441
 30
0.0
 10
97.4746575874
 20
107.0106090533
 30
0.0
 10
97.6119407987
 20
107.0803803183
 30
0.0
 10
97.7765879561
 20
107.1738781357
 30
0.0
 10
98.0469862503
 20
107.3405504611
 30
0.0
 10
98.4360906206
 20
107.605306328
 30
0.0
 10
98.949440143
 20
107.9884412923
 30
0.0
 10
99.5125419618
 20
108.4450517256
 30
0.0
 10
100.101050941
 20
108.961708705
 30
0.0
 10
100.4916936267
 20
109.3325081818
 30
0.0
 10
100.6868300243
 20
109.5250893097
 30
0.0
  0
SPLINE
  5
29C
100
AcDbEntity
  8
0
100
AcDbSpline
 62
7
  6
CONTINUOUS
 70
0
 71
3
 72
18
 73
14
 74
0
 42
0.0000001
 43
0.0000001
 44
0.0000000001
 40
0.0
 40
0.0
 40
0.0
 40
0.0
 40
0.0143815533
 40
0.0363447285
 40
0.0661636922
 40
0.1037351285
 40
0.1488164675
 40
0.2010391337
 40
0.3252115243
 40
0.4723051244
 40
0.6375249245
 40
0.8154858947
 40
1.0
 40
1.0
 40
1.0
 40
1.0
 10
91.324439108
 20
125.0084782488
 30
0.0
 10
91.3040985316
 20
125.011546422
 30
0.0
 10
91.2513246584
 20
125.0038905208
 30
0.0
 10
91.1615573882
 20
124.974953957
 30
0.0
 10
91.0439433809
 20
124.9240626167
 30
0.0
 10
90.9004183612
 20
124.8514437732
 30
0.0
 10
90.7321230066
 20
124.756975728
 30
0.0
 10
90.4612748451
 20
124.5926047251
 30
0.0
 10
90.0764844785
 20
124.3352202823
 30
0.0
 10
89.5735743909
 20
123.9649747255
 30
0.0
 10
89.0266450441
 20
123.5257298274
 30
0.0
 10
88.4578566989
 20
123.0292555851
 30
0.0
 10
88.081362169
 20
122.6725497174
 30
0.0
 10
87.893516681
 20
122.4871640261
 30
0.0
  0
SPLINE
  5
29D
100
AcDbEntity
  8
0
100
AcDbSpline
 62
7
  6
CONTINUOUS
 70
0
 71
3
 72
9
 73
5
 74
0
 42
0.0000001
 43
0.0000001
 44
0.0000000001
 40
0.0
 40
0.0
 40
0.0
 40
0.0
 40
0.4138178951
 40
1.0
 40
1.0
 40
1.0
 40
1.0
 10
120.2066803924
 20
125.1512189722
 30
0.0
 10
120.6243226996
 20
123.9672370256
 30
0.0
 10
121.4274141383
 20
121.0310678652
 30
0.0
 10
121.7252408429
 20
117.9876221224
 30
0.0
 10
121.7252381954
 20
116.2092025347
 30
0.0
  0
SPLINE
  5
29E
100
AcDbEntity
  8
0
100
AcDbSpline
 62
7
  6
CONTINUOUS
 70
0
 71
3
 72
18
 73
14
 74
0
 42
0.0000001
 43
0.0000001
 44
0.0000000001
 40
0.0
 40
0.0
 40
0.0
 40
0.0
 40
0.1906030397
 40
0.3739084881
 40
0.5430640038
 40
0.692036741
 40
0.8156265055
 40
0.8665643366
 40
0.9096602687
 40
0.9445595463
 40
0.9710717461
 40
0.989234291
 40
1.0
 40
1.0
 40
1.0
 40
1.0
 10
108.8718189814
 20
117.6028975752
 30
0.0
 10
109.0665333198
 20
117.7950621707
 30
0.0
 10
109.4412477765
 20
118.1794780779
 30
0.0
 10
109.9632295729
 20
118.7585983455
 30
0.0
 10
110.4236323242
 20
119.3120413015
 30
0.0
 10
110.8090772283
 20
119.8155993649
 30
0.0
 10
111.0747352098
 20
120.196739274
 30
0.0
 10
111.2410410607
 20
120.4611550148
 30
0.0
 10
111.3336433686
 20
120.6215480077
 30
0.0
 10
111.4022530838
 20
120.7547285239
 30
0.0
 10
111.4465908811
 20
120.8609263854
 30
0.0
 10
111.4681286965
 20
120.9362293085
 30
0.0
 10
111.4671118056
 20
120.9815329053
 30
0.0
 10
111.4584997535
 20
120.9943623347
 30
0.0
  0
SPLINE
  5
29F
100
AcDbEntity
  8
0
100
AcDbSpline
 62
7
  6
CONTINUOUS
 70
0
 71
3
 72
18
 73
14
 74
0
 42
0.0000001
 43
0.0000001
 44
0.0000000001
 40
0.0
 40
0.0
 40
0.0
 40
0.0
 40
0.1906030397
 40
0.3739084881
 40
0.5430640038
 40
0.692036741
 40
0.8156265055
 40
0.8665643366
 40
0.9096602687
 40
0.9445595463
 40
0.9710717461
 40
0.989234291
 40
1.0
 40
1.0
 40
1.0
 40
1.0
 10
100.6868300243
 20
109.5250893097
 30
0.0
 10
100.8815443627
 20
109.7172539052
 30
0.0
 10
101.2562588194
 20
110.1016698125
 30
0.0
 10
101.7782406158
 20
110.68079008
 30
0.0
 10
102.2386433672
 20
111.2342330361
 30
0.0
 10
102.6240882712
 20
111.7377910995
 30
0.0
 10
102.8897462527
 20
112.1189310086
 30
0.0
 10
103.0560521036
 20
112.3833467493
 30
0.0
 10
103.1486544116
 20
112.5437397422
 30
0.0
 10
103.2172641267
 20
112.6769202584
 30
0.0
 10
103.261601924
 20
112.7831181199
 30
0.0
 10
103.2831397394
 20
112.8584210431
 30
0.0
 10
103.2821228485
 20
112.9037246399
 30
0.0
 10
103.2735107964
 20
112.9165540693
 30
0.0
  0
SPLINE
  5
2A0
100
AcDbEntity
  8
0
100
AcDbSpline
 62
7
  6
CONTINUOUS
 70
0
 71
3
 72
18
 73
14
 74
0
 42
0.0000001
 43
0.0000001
 44
0.0000000001
 40
0.0
 40
0.0
 40
0.0
 40
0.0
 40
0.182938507
 40
0.3597773775
 40
0.5243617386
 40
0.6713034614
 40
0.7957986486
 40
0.8483533889
 40
0.8938692229
 40
0.9319664414
 40
0.9623914721
 40
0.9850038202
 40
1.0
 40
1.0
 40
1.0
 40
1.0
 10
79.7085277239
 20
114.4093557607
 30
0.0
 10
79.5202829967
 20
114.2235760582
 30
0.0
 10
79.1574949272
 20
113.8505960802
 30
0.0
 10
78.6512975077
 20
113.2860054225
 30
0.0
 10
78.201599415
 20
112.7414258922
 30
0.0
 10
77.8205699957
 20
112.2390340667
 30
0.0
 10
77.5540747709
 20
111.8535565249
 30
0.0
 10
77.3825092478
 20
111.581299977
 30
0.0
 10
77.2829864465
 20
111.4113684415
 30
0.0
 10
77.2055629005
 20
111.2658224995
 30
0.0
 10
77.1501899122
 20
111.1459490309
 30
0.0
 10
77.1171954388
 20
111.0535472793
 30
0.0
 10
77.106634201
 20
110.9990879607
 30
0.0
 10
77.1080931167
 20
110.9774565718
 30
0.0
  0
SPLINE
  5
2A1
100
AcDbEntity
  8
0
100
AcDbSpline
 62
7
  6
CONTINUOUS
 70
0
 71
3
 72
18
 73
14
 74
0
 42
0.0000001
 43
0.0000001
 44
0.0000000001
 40
0.0
 40
0.0
 40
0.0
 40
0.0
 40
0.1906030397
 40
0.3739084881
 40
0.5430640038
 40
0.692036741
 40
0.8156265055
 40
0.8665643366
 40
0.9096602687
 40
0.9445595463
 40
0.9710717461
 40
0.989234291
 40
1.0
 40
1.0
 40
1.0
 40
1.0
 10
92.5018410673
 20
101.4472810443
 30
0.0
 10
92.6965554056
 20
101.6394456398
 30
0.0
 10
93.0712698624
 20
102.023861547
 30
0.0
 10
93.5932516587
 20
102.6029818146
 30
0.0
 10
94.0536544101
 20
103.1564247706
 30
0.0
 10
94.4390993142
 20
103.659982834
 30
0.0
 10
94.7047572956
 20
104.0411227431
 30
0.0
 10
94.8710631466
 20
104.3055384839
 30
0.0
 10
94.9636654545
 20
104.4659314768
 30
0.0
 10
95.0322751696
 20
104.599111993
 30
0.0
 10
95.0766129669
 20
104.7053098545
 30
0.0
 10
95.0981507824
 20
104.7806127776
 30
0.0
 10
95.0971338914
 20
104.8259163744
 30
0.0
 10
95.0885218393
 20
104.8387458038
 30
0.0
  0
SPLINE
  5
2A2
100
AcDbEntity
  8
0
100
AcDbSpline
 62
7
  6
CONTINUOUS
 70
0
 71
3
 72
18
 73
14
 74
0
 42
0.0000001
 43
0.0000001
 44
0.0000000001
 40
0.0
 40
0.0
 40
0.0
 40
0.0
 40
0.0143815533
 40
0.0363447285
 40
0.0661636922
 40
0.1037351285
 40
0.1488164675
 40
0.2010391337
 40
0.3252115243
 40
0.4723051244
 40
0.6375249245
 40
0.8154858947
 40
1.0
 40
1.0
 40
1.0
 40
1.0
 10
99.509428065
 20
133.0862865143
 30
0.0
 10
99.4890874887
 20
133.0893546874
 30
0.0
 10
99.4363136155
 20
133.0816987862
 30
0.0
 10
99.3465463453
 20
133.0527622224
 30
0.0
 10
99.228932338
 20
133.0018708821
 30
0.0
 10
99.0854073182
 20
132.9292520387
 30
0.0
 10
98.9171119637
 20
132.8347839935
 30
0.0
 10
98.6462638022
 20
132.6704129905
 30
0.0
 10
98.2614734356
 20
132.4130285478
 30
0.0
 10
97.7585633479
 20
132.0427829909
 30
0.0
 10
97.2116340012
 20
131.6035380928
 30
0.0
 10
96.642845656
 20
131.1070638505
 30
0.0
 10
96.2663511261
 20
130.7503579828
 30
0.0
 10
96.0785056381
 20
130.5649722916
 30
0.0
  0
SPLINE
  5
2A3
100
AcDbEntity
  8
0
100
AcDbSpline
 62
7
  6
CONTINUOUS
 70
0
 71
3
 72
18
 73
14
 74
0
 42
0.0000001
 43
0.0000001
 44
0.0000000001
 40
0.0
 40
0.0
 40
0.0
 40
0.0
 40
0.0112663588
 40
0.0301129253
 40
0.057288378
 40
0.092773438
 40
0.1363528117
 40
0.1876645949
 40
0.3116482228
 40
0.4604877603
 40
0.6289659091
 40
0.8110764013
 40
1.0
 40
1.0
 40
1.0
 40
1.0
 10
89.0398006654
 20
98.8699752269
 30
0.0
 10
89.0542511785
 20
98.8623272064
 30
0.0
 10
89.101174124
 20
98.8637489558
 30
0.0
 10
89.1798654452
 20
98.8866936787
 30
0.0
 10
89.2896686303
 20
98.9328007879
 30
0.0
 10
89.4269518416
 20
99.0025720528
 30
0.0
 10
89.591598999
 20
99.0960698703
 30
0.0
 10
89.8619972932
 20
99.2627421957
 30
0.0
 10
90.2511016635
 20
99.5274980625
 30
0.0
 10
90.7644511859
 20
99.9106330268
 30
0.0
 10
91.3275530047
 20
100.3672434602
 30
0.0
 10
91.9160619839
 20
100.8839004396
 30
0.0
 10
92.3067046696
 20
101.2546999163
 30
0.0
 10
92.5018410673
 20
101.4472810443
 30
0.0
  0
SPLINE
  5
2A4
100
AcDbEntity
  8
0
100
AcDbSpline
 62
7
  6
CONTINUOUS
 70
0
 71
3
 72
18
 73
14
 74
0
 42
0.0000001
 43
0.0000001
 44
0.0000000001
 40
0.0
 40
0.0
 40
0.0
 40
0.0
 40
0.182938507
 40
0.3597773775
 40
0.5243617386
 40
0.6713034614
 40
0.7957986486
 40
0.8483533889
 40
0.8938692229
 40
0.9319664414
 40
0.9623914721
 40
0.9850038202
 40
1.0
 40
1.0
 40
1.0
 40
1.0
 10
96.0785056381
 20
130.5649722916
 30
0.0
 10
95.8902609109
 20
130.3791925891
 30
0.0
 10
95.5274728414
 20
130.0062126111
 30
0.0
 10
95.0212754219
 20
129.4416219534
 30
0.0
 10
94.5715773291
 20
128.8970424231
 30
0.0
 10
94.1905479099
 20
128.3946505976
 30
0.0
 10
93.9240526851
 20
128.0091730558
 30
0.0
 10
93.752487162
 20
127.7369165079
 30
0.0
 10
93.6529643607
 20
127.5669849724
 30
0.0
 10
93.5755408147
 20
127.4214390304
 30
0.0
 10
93.5201678264
 20
127.3015655618
 30
0.0
 10
93.487173353
 20
127.2091638102
 30
0.0
 10
93.4766121151
 20
127.1547044916
 30
0.0
 10
93.4780710309
 20
127.1330731027
 30
0.0
  0
SPLINE
  5
2A5
100
AcDbEntity
  8
0
100
AcDbSpline
 62
7
  6
CONTINUOUS
 70
0
 71
3
 72
11
 73
7
 74
0
 42
0.0000001
 43
0.0000001
 44
0.0000000001
 40
0.0
 40
0.0
 40
0.0
 40
0.0
 40
0.3743912247
 40
0.6610990182
 40
0.868014037
 40
1.0
 40
1.0
 40
1.0
 40
1.0
 10
125.9827575068
 20
130.8516595838
 30
0.0
 10
125.8090391295
 20
131.2198469399
 30
0.0
 10
125.4899802741
 20
131.8642788864
 30
0.0
 10
125.0418959098
 20
132.695195794
 30
0.0
 10
124.7015257854
 20
133.2842740866
 30
0.0
 10
124.5094569195
 20
133.5988705727
 30
0.0
 10
124.4318186344
 20
133.7195793258
 30
0.0
  0
SPLINE
  5
2A6
100
AcDbEntity
  8
0
100
AcDbSpline
 62
7
  6
CONTINUOUS
 70
0
 71
3
 72
13
 73
9
 74
0
 42
0.0000001
 43
0.0000001
 44
0.0000000001
 40
0.0
 40
0.0
 40
0.0
 40
0.0
 40
0.4424232272
 40
0.7532806876
 40
0.8605574266
 40
0.9364744229
 40
0.9818705627
 40
1.0
 40
1.0
 40
1.0
 40
1.0
 10
124.3919295439
 20
133.7807641393
 30
0.0
 10
124.3816880372
 20
133.7962194719
 30
0.0
 10
124.3641480785
 20
133.822389306
 30
0.0
 10
124.3431222891
 20
133.8519213575
 30
0.0
 10
124.3307376017
 20
133.868222779
 30
0.0
 10
124.324070739
 20
133.8756538194
 30
0.0
 10
124.3206972914
 20
133.8795134428
 30
0.0
 10
124.3174302087
 20
133.8811607989
 30
0.0
 10
124.3169094829
 20
133.8806075661
 30
0.0
  0
SPLINE
  5
2A7
100
AcDbEntity
  8
0
100
AcDbSpline
 62
7
  6
CONTINUOUS
 70
0
 71
3
 72
14
 73
10
 74
0
 42
0.0000001
 43
0.0000001
 44
0.0000000001
 40
0.0
 40
0.0
 40
0.0
 40
0.0
 40
0.1842293064
 40
0.3045320766
 40
0.4377150006
 40
0.5769662296
 40
0.7178506309
 40
0.8589198055
 40
1.0
 40
1.0
 40
1.0
 40
1.0
 10
103.5999763239
 20
141.9913914407
 30
0.0
 10
102.2485586015
 20
142.5023253731
 30
0.0
 10
99.9388561574
 20
143.1616622308
 30
0.0
 10
96.5369004254
 20
143.6555503138
 30
0.0
 10
93.4513732227
 20
143.7591624098
 30
0.0
 10
90.2139155128
 20
143.4841958795
 30
0.0
 10
86.9722179534
 20
142.808205818
 30
0.0
 10
83.8226471096
 20
141.7417041725
 30
0.0
 10
81.8219617807
 20
140.7817554297
 30
0.0
 10
80.8551328455
 20
140.2438504603
 30
0.0
  0
SPLINE
  5
2A8
100
AcDbEntity
  8
0
100
AcDbSpline
 62
7
  6
CONTINUOUS
 70
0
 71
3
 72
18
 73
14
 74
0
 42
0.0000001
 43
0.0000001
 44
0.0000000001
 40
0.0
 40
0.0
 40
0.0
 40
0.0
 40
0.0143815533
 40
0.0363447285
 40
0.0661636922
 40
0.1037351285
 40
0.1488164675
 40
0.2010391337
 40
0.3252115243
 40
0.4723051244
 40
0.6375249245
 40
0.8154858947
 40
1.0
 40
1.0
 40
1.0
 40
1.0
 10
83.1394501509
 20
116.9306699834
 30
0.0
 10
83.1191095745
 20
116.9337381565
 30
0.0
 10
83.0663357013
 20
116.9260822553
 30
0.0
 10
82.9765684311
 20
116.8971456915
 30
0.0
 10
82.8589544239
 20
116.8462543512
 30
0.0
 10
82.7154294041
 20
116.7736355078
 30
0.0
 10
82.5471340496
 20
116.6791674626
 30
0.0
 10
82.2762858881
 20
116.5147964596
 30
0.0
 10
81.8914955214
 20
116.2574120169
 30
0.0
 10
81.3885854338
 20
115.88716646
 30
0.0
 10
80.841656087
 20
115.4479215619
 30
0.0
 10
80.2728677418
 20
114.9514473196
 30
0.0
 10
79.8963732119
 20
114.5947414519
 30
0.0
 10
79.7085277239
 20
114.4093557607
 30
0.0
  0
SPLINE
  5
2A9
100
AcDbEntity
  8
0
100
AcDbSpline
 62
7
  6
CONTINUOUS
 70
0
 71
3
 72
9
 73
5
 74
0
 42
0.0000001
 43
0.0000001
 44
0.0000000001
 40
0.0
 40
0.0
 40
0.0
 40
0.0
 40
0.2389995675
 40
1.0
 40
1.0
 40
1.0
 40
1.0
 10
123.0664916595
 20
140.7120880513
 30
0.0
 10
122.9987812495
 20
140.7801916595
 30
0.0
 10
122.7155504967
 20
141.0652209774
 30
0.0
 10
122.4326048002
 20
141.3505334967
 30
0.0
 10
122.217413492
 20
141.5677855909
 30
0.0
  0
SPLINE
  5
2AA
100
AcDbEntity
  8
0
100
AcDbSpline
 62
7
  6
CONTINUOUS
 70
0
 71
3
 72
21
 73
17
 74
0
 42
0.0000001
 43
0.0000001
 44
0.0000000001
 40
0.0
 40
0.0
 40
0.0
 40
0.0
 40
0.2281091803
 40
0.4287095483
 40
0.6005233336
 40
0.7424859438
 40
0.8020566224
 40
0.8539121189
 40
0.8979716084
 40
0.9341682438
 40
0.9624684502
 40
0.982847577
 40
0.9900632689
 40
0.9952996542
 40
0.9985745809
 40
1.0
 40
1.0
 40
1.0
 40
1.0
 10
114.9611300305
 20
144.259677739
 30
0.0
 10
114.9012121249
 20
144.302706877
 30
0.0
 10
114.7882790539
 20
144.3831275653
 30
0.0
 10
114.629161153
 20
144.4944676869
 30
0.0
 10
114.4920976107
 20
144.5887229965
 30
0.0
 10
114.3920477341
 20
144.6563077981
 30
0.0
 10
114.323782831
 20
144.7016339629
 30
0.0
 10
114.2817313631
 20
144.7292049884
 30
0.0
 10
114.2458460049
 20
144.7523812285
 30
0.0
 10
114.2161819411
 20
144.7711811586
 30
0.0
 10
114.1928362838
 20
144.7855524325
 30
0.0
 10
114.1772013428
 20
144.7947692924
 30
0.0
 10
114.16794439
 20
144.7997754313
 30
0.0
 10
114.1632454146
 20
144.8021113567
 30
0.0
 10
114.1605174094
 20
144.8031531258
 30
0.0
 10
114.1587016236
 20
144.8036646175
 30
0.0
 10
114.158371791
 20
144.8033425975
 30
0.0
  0
SPLINE
  5
2AB
100
AcDbEntity
  8
0
100
AcDbSpline
 62
7
  6
CONTINUOUS
 70
0
 71
3
 72
18
 73
14
 74
0
 42
0.0000001
 43
0.0000001
 44
0.0000000001
 40
0.0
 40
0.0
 40
0.0
 40
0.0
 40
0.182938507
 40
0.3597773775
 40
0.5243617386
 40
0.6713034614
 40
0.7957986486
 40
0.8483533889
 40
0.8938692229
 40
0.9319664414
 40
0.9623914721
 40
0.9850038202
 40
1.0
 40
1.0
 40
1.0
 40
1.0
 10
87.893516681
 20
122.4871640261
 30
0.0
 10
87.7052719538
 20
122.3013843237
 30
0.0
 10
87.3424838843
 20
121.9284043457
 30
0.0
 10
86.8362864648
 20
121.3638136879
 30
0.0
 10
86.3865883721
 20
120.8192341576
 30
0.0
 10
86.0055589528
 20
120.3168423321
 30
0.0
 10
85.739063728
 20
119.9313647904
 30
0.0
 10
85.5674982049
 20
119.6591082424
 30
0.0
 10
85.4679754036
 20
119.489176707
 30
0.0
 10
85.3905518576
 20
119.3436307649
 30
0.0
 10
85.3351788693
 20
119.2237572963
 30
0.0
 10
85.3021843959
 20
119.1313555447
 30
0.0
 10
85.291623158
 20
119.0768962262
 30
0.0
 10
85.2930820738
 20
119.0552648373
 30
0.0
  0
LINE
  5
2AC
100
AcDbEntity
  8
0
100
AcDbLine
 62
7
  6
CONTINUOUS
 10
112.5562007076
 20
145.9049958219
 11
112.5756828391
 21
145.8932613958
  0
LINE
  5
2AD
100
AcDbEntity
  8
0
100
AcDbLine
 62
7
  6
CONTINUOUS
 10
124.3723448225
 20
133.8683467893
 11
124.3884610643
 21
133.8406210511
  0
SPLINE
  5
2AE
100
AcDbEntity
  8
0
100
AcDbSpline
 62
7
  6
CONTINUOUS
 70
0
 71
3
 72
18
 73
14
 74
0
 42
0.0000001
 43
0.0000001
 44
0.0000000001
 40
0.0
 40
0.0
 40
0.0
 40
0.0
 40
0.0112663588
 40
0.0301129253
 40
0.057288378
 40
0.092773438
 40
0.1363528117
 40
0.1876645949
 40
0.3116482228
 40
0.4604877603
 40
0.6289659091
 40
0.8110764013
 40
1.0
 40
1.0
 40
1.0
 40
1.0
 10
105.4097785795
 20
115.0255917578
 30
0.0
 10
105.4242290927
 20
115.0179437373
 30
0.0
 10
105.4711520381
 20
115.0193654867
 30
0.0
 10
105.5498433594
 20
115.0423102096
 30
0.0
 10
105.6596465445
 20
115.0884173188
 30
0.0
 10
105.7969297558
 20
115.1581885837
 30
0.0
 10
105.9615769132
 20
115.2516864012
 30
0.0
 10
106.2319752074
 20
115.4183587266
 30
0.0
 10
106.6210795777
 20
115.6831145934
 30
0.0
 10
107.1344291
 20
116.0662495577
 30
0.0
 10
107.6975309188
 20
116.5228599911
 30
0.0
 10
108.2860398981
 20
117.0395169705
 30
0.0
 10
108.6766825838
 20
117.4103164472
 30
0.0
 10
108.8718189814
 20
117.6028975752
 30
0.0
  0
ELLIPSE
  5
2AF
100
AcDbEntity
  8
0
100
AcDbEllipse
 62
7
  6
CONTINUOUS
 10
94.2252425025
 20
116.027980489
 30
0.0
 11
-13.3906211948
 21
32.5516874185
 31
0.0
 40
0.9934093274
 41
-1.0266985766
 42
-0.9329881467
  0
ELLIPSE
  5
2B0
100
AcDbEntity
  8
0
100
AcDbEllipse
 62
7
  6
CONTINUOUS
 10
94.2252425025
 20
116.027980489
 30
0.0
 11
32.421614098
 21
13.273410605
 31
0.0
 40
0.9933241686
 41
0.1410077408
 42
0.2056764051
  0
ELLIPSE
  5
2B1
100
AcDbEntity
  8
0
100
AcDbEllipse
 62
7
  6
CONTINUOUS
 10
94.2252425025
 20
116.2193659583
 30
0.0
 11
-20.6868412516
 21
18.1197849225
 31
0.0
 40
0.9999664862
 41
-3.4854359998
 42
-2.9430327829
  0
ENDSEC
  0
SECTION
  2
OBJECTS
  0
DICTIONARY
  5
C
100
AcDbDictionary
280
0
281
1
  3
ACAD_GROUP
350
D
  3
ACAD_MLINESTYLE
350
17
  3
ACAD_LAYOUT
350
1A
  3
ACAD_PLOTSETTINGS
350
19
  3
ACAD_PLOTSTYLENAME
350
E
  0
DICTIONARY
  5
D
102
{ACAD_REACTORS
330
C
102
}
100
AcDbDictionary
280
0
281
1
  0
ACDBDICTIONARYWDFLT
  5
E
102
{ACAD_REACTORS
330
C
102
}
100
AcDbDictionary
281
1
  3
Normal
350
F
100
AcDbDictionaryWithDefault
340
F
  0
DICTIONARY
  5
17
102
{ACAD_REACTORS
330
C
102
}
100
AcDbDictionary
280
0
281
1
  3
Standard
350
18
  0
DICTIONARY
  5
19
102
{ACAD_REACTORS
330
C
102
}
100
AcDbDictionary
281
1
  0
DICTIONARY
  5
1A
102
{ACAD_REACTORS
330
C
102
}
100
AcDbDictionary
281
1
  3
Model
350
2B2
  3
Layout1
350
2B3
  0
ACDBPLACEHOLDER
  5
F
102
{ACAD_REACTORS
330
E
102
}
  0
MLINESTYLE
  5
18
102
{ACAD_REACTORS
330
17
102
}
100
AcDbMlineStyle
  2
STANDARD
 70
0
  3

 62
256
 51
90.0
 52
90.0
 71
2
 49
0.5
 62
256
  6
BYLAYER
 49
-0.5
 62
256
  6
BYLAYER
  0
LAYOUT
  5
2B2
102
{ACAD_REACTORS
330
1A
102
}
100
AcDbPlotSettings
  1

  2
none_device
  4

  6

 40
0.0
 41
0.0
 42
0.0
 43
0.0
 44
210.0
 45
297.0
 46
0.0
 47
0.0
 48
0.0
 49
0.0
140
0.0
141
0.0
142
1.0
143
1.0
 70
1024
 72
1
 73
0
 74
0
  7

 75
0
147
1.0
148
0.0
149
0.0
100
AcDbLayout
  1
Model
 70
0
 71
0
 10
0.0
 20
0.0
 11
210.0
 21
297.0
 12
0.0
 22
0.0
 32
0.0
 14
0.0
 24
0.0
 34
0.0
 15
0.0
 25
0.0
 35
0.0
146
0.0
 13
0.0
 23
0.0
 33
0.0
 16
1.0
 26
0.0
 36
0.0
 17
0.0
 27
1.0
 37
0.0
 76
0
330
210
345
0
346
0
  0
LAYOUT
  5
2B3
102
{ACAD_REACTORS
330
1A
102
}
100
AcDbPlotSettings
  1

  2
none_device
  4

  6

 40
0.0
 41
0.0
 42
0.0
 43
0.0
 44
210.0
 45
297.0
 46
0.0
 47
0.0
 48
0.0
 49
0.0
140
0.0
141
0.0
142
1.0
143
1.0
 70
0
 72
1
 73
0
 74
0
  7

 75
0
147
1.0
148
0.0
149
0.0
100
AcDbLayout
  1
Layout1
 70
0
 71
1
 10
0.0
 20
0.0
 11
210.0
 21
297.0
 12
0.0
 22
0.0
 32
0.0
 14
0.0
 24
0.0
 34
0.0
 15
0.0
 25
0.0
 35
0.0
146
0.0
 13
0.0
 23
0.0
 33
0.0
 16
1.0
 26
0.0
 36
0.0
 17
0.0
 27
1.0
 37
0.0
 76
0
330
211
345
0
346
0
  0
ENDSEC
  0
EOF
