999
DXF file: C:\Users\sesa63760\Dev\_Creo\CAD\MCADPD0005444_3D-CAD\drw0001_3.dxf
999
Pro/ENGINEER 2019471 by Parametric Technology Corporation
  0
SECTION
  2
HEADER
  9
$ACADVER
  1
AC1024
  9
$DWGCODEPAGE
  3
ANSI_1252
  9
$EXTMAX
 10
198.4194228596
 20
280.6217551871
 30
0.0
  9
$EXTMIN
 10
0.0
 20
0.0
 30
0.0
  9
$LIMMIN
 10
0.0
 20
0.0
  9
$LIMMAX
 10
198.4194228596
 20
280.6217551871
  9
$VIEWCTR
 10
99.2097114298
 20
140.3108775936
  9
$VIEWSIZE
 40
280.6217551871
  9
$CLAYER
  8
0
  9
$LTSCALE
 40
18.2923810789
  9
$CELTYPE
  6
BYLAYER
  9
$DIMSCALE
 40
1.0
  9
$DIMASZ
 40
2.3621359864
  9
$DIMEXO
 40
1.0
  9
$DIMDLI
 40
12.6383723818
  9
$DIMEXE
 40
1.0
  9
$DIMCEN
 40
2.993298722
  9
$DIMLFAC
 40
1.0
  9
$DIMBLK
  1
_FILLED
  9
$DIMALT
 70
0
  9
$DIMALTF
 40
0.0393700787
  9
$DIMTXT
 40
3.306990381
  9
$DIMTOL
 70
1
  9
$DIMLIM
 70
0
  9
$DIMTFAC
 40
1.0
  9
$DIMTP
 40
0.01
  9
$DIMTM
 40
0.01
  9
$DIMGAP
 40
0.625
  9
$DIMDSEP
 70
46
  9
$AUNITS
 70
0
  9
$PDMODE
 70
3
  9
$PDSIZE
 40
0.3125
  9
$HANDSEED
  5
276
  9
$TILEMODE
 70
1
  9
$MEASUREMENT
 70
1
  9
$INSUNITS
 70
4
  0
ENDSEC
  0
SECTION
  2
CLASSES
  0
CLASS
  1
ACDBDICTIONARYWDFLT
  2
AcDbDictionaryWithDefault
  3
AutoCAD 2000
 90
0
 91
1
280
0
281
0
  0
CLASS
  1
ACDBPLACEHOLDER
  2
AcDbPlaceHolder
  3
AutoCAD 2000
 90
0
 91
1
280
0
281
0
  0
CLASS
  1
LAYOUT
  2
AcDbLayout
  3
AutoCAD 2000
 90
0
 91
0
280
0
281
0
  0
ENDSEC
  0
SECTION
  2
TABLES
  0
TABLE
  2
VPORT
  5
8
100
AcDbSymbolTable
 70
2
  0
VPORT
  5
1F4
100
AcDbSymbolTableRecord
100
AcDbViewportTableRecord
  2
*ACTIVE
 70
0
 10
0.0
 20
0.0
 11
1.0
 21
1.0
 12
99.2097114298
 22
140.3108775936
 13
0.0
 23
0.0
 14
1.0
 24
1.0
 15
0.0
 25
0.0
 16
0.0
 26
0.0
 36
1.0
 17
0.0
 27
0.0
 37
0.0
 40
280.6217551871
 41
0.7070707071
 42
50.0
 43
0.0
 44
0.0
 50
0.0
 51
0.0
 71
0
 72
100
 73
1
 74
1
 75
0
 76
0
 77
0
 78
0
  0
ENDTAB
  0
TABLE
  2
LTYPE
  5
5
100
AcDbSymbolTable
 70
6
  0
LTYPE
  5
14
100
AcDbSymbolTableRecord
100
AcDbLinetypeTableRecord
  2
BYBLOCK
 70
0
  3

 72
65
 73
0
 40
0.0
  0
LTYPE
  5
15
100
AcDbSymbolTableRecord
100
AcDbLinetypeTableRecord
  2
BYLAYER
 70
0
  3

 72
65
 73
0
 40
0.0
  0
LTYPE
  5
16
100
AcDbSymbolTableRecord
100
AcDbLinetypeTableRecord
  2
CONTINUOUS
 70
64
  3
Solid line
 72
65
 73
0
 40
0.0
  0
LTYPE
  5
1F5
100
AcDbSymbolTableRecord
100
AcDbLinetypeTableRecord
  2
CENTER
 70
64
  3
____ _ ____ _ ____ _ ____ _ ____ _ ____ _ ____
 72
65
 73
4
 40
0.6
 49
0.375
 74
0
 49
-0.075
 74
0
 49
0.075
 74
0
 49
-0.075
 74
0
  0
LTYPE
  5
1F6
100
AcDbSymbolTableRecord
100
AcDbLinetypeTableRecord
  2
HIDDEN
 70
64
  3
- - - - - - - - - - - - - - - - - - - -
 72
65
 73
2
 40
0.2
 49
0.1
 74
0
 49
-0.1
 74
0
  0
LTYPE
  5
1F7
100
AcDbSymbolTableRecord
100
AcDbLinetypeTableRecord
  2
PHANTOM
 70
64
  3
_____ _ _ _____ _ _ _____ _ _ _____
 72
65
 73
6
 40
0.8
 49
0.45
 74
0
 49
-0.05
 74
0
 49
0.1
 74
0
 49
-0.05
 74
0
 49
0.1
 74
0
 49
-0.05
 74
0
  0
LTYPE
  5
1F8
100
AcDbSymbolTableRecord
100
AcDbLinetypeTableRecord
  2
DOT
 70
64
  3
. . . . . . . . . . . . . . . . . . . .
 72
65
 73
2
 40
0.2
 49
0.1
 74
0
 49
-0.1
 74
0
  0
LTYPE
  5
1F9
100
AcDbSymbolTableRecord
100
AcDbLinetypeTableRecord
  2
DASHED
 70
64
  3
- - - - - - - - - - - - - - - - - - - -
 72
65
 73
2
 40
0.2
 49
0.1
 74
0
 49
-0.1
 74
0
  0
ENDTAB
  0
TABLE
  2
LAYER
  5
2
100
AcDbSymbolTable
 70
36
  0
LAYER
  5
10
100
AcDbSymbolTableRecord
100
AcDbLayerTableRecord
  2
0
 70
0
 62
7
  6
CONTINUOUS
370
-3
390
F
  0
LAYER
  5
1FA
100
AcDbSymbolTableRecord
100
AcDbLayerTableRecord
  2
DEFAULT_1
 70
0
 62
7
  6
CENTER
370
-3
390
F
  0
LAYER
  5
1FB
100
AcDbSymbolTableRecord
100
AcDbLayerTableRecord
  2
DEFAULT_2
 70
0
 62
7
  6
HIDDEN
370
-3
390
F
  0
LAYER
  5
1FC
100
AcDbSymbolTableRecord
100
AcDbLayerTableRecord
  2
DEFAULT_3
 70
0
 62
7
  6
PHANTOM
370
-3
390
F
  0
LAYER
  5
1FD
100
AcDbSymbolTableRecord
100
AcDbLayerTableRecord
  2
00_COMPONENTS
 70
0
 62
7
  6
CONTINUOUS
370
-3
390
F
  0
LAYER
  5
1FE
100
AcDbSymbolTableRecord
100
AcDbLayerTableRecord
  2
01_1_DEFAULT_DATUMS
 70
0
 62
7
  6
CONTINUOUS
370
-3
390
F
  0
LAYER
  5
1FF
100
AcDbSymbolTableRecord
100
AcDbLayerTableRecord
  2
01_PLANES
 70
0
 62
7
  6
CONTINUOUS
370
-3
390
F
  0
LAYER
  5
200
100
AcDbSymbolTableRecord
100
AcDbLayerTableRecord
  2
02_COORD_SYS
 70
0
 62
7
  6
CONTINUOUS
370
-3
390
F
  0
LAYER
  5
201
100
AcDbSymbolTableRecord
100
AcDbLayerTableRecord
  2
03_AXES
 70
0
 62
7
  6
CONTINUOUS
370
-3
390
F
  0
LAYER
  5
202
100
AcDbSymbolTableRecord
100
AcDbLayerTableRecord
  2
04_POINTS
 70
0
 62
7
  6
CONTINUOUS
370
-3
390
F
  0
LAYER
  5
203
100
AcDbSymbolTableRecord
100
AcDbLayerTableRecord
  2
05_CURVES
 70
0
 62
7
  6
CONTINUOUS
370
-3
390
F
  0
LAYER
  5
204
100
AcDbSymbolTableRecord
100
AcDbLayerTableRecord
  2
06_SURFS
 70
0
 62
7
  6
CONTINUOUS
370
-3
390
F
  0
LAYER
  5
205
100
AcDbSymbolTableRecord
100
AcDbLayerTableRecord
  2
07_COSMETICS
 70
0
 62
7
  6
CONTINUOUS
370
-3
390
F
  0
LAYER
  5
206
100
AcDbSymbolTableRecord
100
AcDbLayerTableRecord
  2
10_NOTES
 70
0
 62
7
  6
CONTINUOUS
370
-3
390
F
  0
LAYER
  5
207
100
AcDbSymbolTableRecord
100
AcDbLayerTableRecord
  2
11_NOTES_PUB
 70
0
 62
7
  6
CONTINUOUS
370
-3
390
F
  0
LAYER
  5
208
100
AcDbSymbolTableRecord
100
AcDbLayerTableRecord
  2
13_REF_GTOL
 70
0
 62
7
  6
CONTINUOUS
370
-3
390
F
  0
LAYER
  5
209
100
AcDbSymbolTableRecord
100
AcDbLayerTableRecord
  2
16_MISC
 70
0
 62
7
  6
CONTINUOUS
370
-3
390
F
  0
LAYER
  5
20A
100
AcDbSymbolTableRecord
100
AcDbLayerTableRecord
  2
17_NO_PRINT
 70
0
 62
7
  6
CONTINUOUS
370
-3
390
F
  0
LAYER
  5
20B
100
AcDbSymbolTableRecord
100
AcDbLayerTableRecord
  2
18_DATUM_CAMS_JOINTS
 70
0
 62
7
  6
CONTINUOUS
370
-3
390
F
  0
LAYER
  5
20C
100
AcDbSymbolTableRecord
100
AcDbLayerTableRecord
  2
19_DATUM_FUNCTIONAL
 70
0
 62
7
  6
CONTINUOUS
370
-3
390
F
  0
LAYER
  5
20D
100
AcDbSymbolTableRecord
100
AcDbLayerTableRecord
  2
20_DATUM_KINEMATIC_SCHEME
 70
0
 62
7
  6
CONTINUOUS
370
-3
390
F
  0
ENDTAB
  0
TABLE
  2
STYLE
  5
3
100
AcDbSymbolTable
 70
1
  0
STYLE
  5
11
100
AcDbSymbolTableRecord
100
AcDbTextStyleTableRecord
  2
STANDARD
 70
0
 40
0.0
 41
1.0
 50
0.0
 71
0
 42
0.2
  3
ARIAL.TTF
  4

  0
STYLE
  5
20E
100
AcDbSymbolTableRecord
100
AcDbTextStyleTableRecord
  2
TEXTSTYLE_1
 70
0
 40
0.0
 41
0.8
 50
0.0
 71
0
 42
0.2
  3
gdt
  4

  0
ENDTAB
  0
TABLE
  2
VIEW
  5
6
100
AcDbSymbolTable
 70
0
  0
ENDTAB
  0
TABLE
  2
UCS
  5
7
100
AcDbSymbolTable
 70
0
  0
ENDTAB
  0
TABLE
  2
APPID
  5
9
100
AcDbSymbolTable
 70
1
  0
APPID
  5
20F
100
AcDbSymbolTableRecord
100
AcDbRegAppTableRecord
  2
ACAD
 70
0
  0
ENDTAB
  0
TABLE
  2
BLOCK_RECORD
  5
1
100
AcDbSymbolTable
 70
0
  0
BLOCK_RECORD
  5
210
100
AcDbSymbolTableRecord
100
AcDbBlockTableRecord
  2
*Model_Space
  0
BLOCK_RECORD
  5
211
100
AcDbSymbolTableRecord
100
AcDbBlockTableRecord
  2
*Paper_Space
  0
BLOCK_RECORD
  5
212
100
AcDbSymbolTableRecord
100
AcDbBlockTableRecord
  2
_FILLED
  0
ENDTAB
  0
TABLE
  2
DIMSTYLE
  5
A
100
AcDbSymbolTable
 70
1
100
AcDbDimStyleTable
 71
0
  0
DIMSTYLE
105
213
100
AcDbSymbolTableRecord
100
AcDbDimStyleTableRecord
  2
STANDARD
 70
0
  3

  4

 40
1.0
 41
2.3621359864
 42
1.0
 43
0.38
 44
1.0
 45
0.0
 46
0.0
 47
0.01
 48
0.01
140
3.306990381
141
0.09
142
0.0
143
25.4
144
1.0
145
0.0
146
1.0
147
0.625
 71
1
 72
0
 73
0
 74
0
 75
0
 76
0
 77
1
 78
8
 79
2
170
0
171
1
172
0
173
0
174
0
175
0
176
0
177
0
178
0
270
2
179
2
271
2
272
2
273
2
274
2
275
0
280
0
281
0
282
0
283
1
284
8
285
0
286
0
287
3
288
0
340
11
278
46
341
212
342
212
343
212
344
212
  0
ENDTAB
  0
ENDSEC
  0
SECTION
  2
BLOCKS
  0
BLOCK
  5
20
100
AcDbEntity
  8
0
100
AcDbBlockBegin
  2
*Model_Space
 70
0
 10
0.0
 20
0.0
 30
0.0
  3
*Model_Space
  1

  0
ENDBLK
  5
21
100
AcDbEntity
  8
0
100
AcDbBlockEnd
  0
BLOCK
  5
1C
100
AcDbEntity
  8
0
100
AcDbBlockBegin
  2
*Paper_Space
 70
0
 10
0.0
 20
0.0
 30
0.0
  3
*Paper_Space
  1

  0
ENDBLK
  5
1D
100
AcDbEntity
  8
0
100
AcDbBlockEnd
  0
BLOCK
  5
214
100
AcDbEntity
  8
0
100
AcDbBlockBegin
  2
_FILLED
 70
64
 10
0.0
 20
0.0
  3
_FILLED
  1

  0
SOLID
  5
215
100
AcDbEntity
  8
0
  6
BYBLOCK
 62
0
100
AcDbTrace
 10
0.0
 20
0.0
 11
-1.0
 21
0.25
 12
-1.0
 22
-0.25
 13
-1.0
 23
-0.25
  0
ENDBLK
  5
216
100
AcDbEntity
  8
0
  6
BYBLOCK
 62
0
100
AcDbBlockEnd
  0
ENDSEC
  0
SECTION
  2
ENTITIES
  0
LINE
  5
217
100
AcDbEntity
  8
0
100
AcDbLine
 62
7
  6
BYLAYER
 10
89.9577510308
 20
22.497840935
 11
102.4433894224
 21
22.497840935
  0
LINE
  5
218
100
AcDbEntity
  8
0
100
AcDbLine
 62
7
  6
BYLAYER
 10
106.0076029847
 20
22.497840935
 11
113.9574531445
 21
22.497840935
  0
LINE
  5
219
100
AcDbEntity
  8
0
100
AcDbLine
 62
7
  6
BYLAYER
 10
103.4063495193
 20
22.8967120672
 11
105.6087318526
 21
22.8967120672
  0
LINE
  5
21A
100
AcDbEntity
  8
0
100
AcDbLine
 62
7
  6
BYLAYER
 10
89.4576029847
 20
22.997840935
 11
94.971024191
 21
22.997840935
  0
LINE
  5
21B
100
AcDbEntity
  8
0
100
AcDbLine
 62
7
  6
BYLAYER
 10
108.9441334586
 20
22.997840935
 11
114.4576029847
 21
22.997840935
  0
LINE
  5
21C
100
AcDbEntity
  8
0
100
AcDbLine
 62
7
  6
BYLAYER
 10
106.9576029847
 20
23.997840935
 11
96.9576029847
 21
23.997840935
  0
LINE
  5
21D
100
AcDbEntity
  8
0
100
AcDbLine
 62
7
  6
BYLAYER
 10
114.4575816385
 20
26.497840935
 11
89.4576351816
 21
26.497840935
  0
LINE
  5
21E
100
AcDbEntity
  8
0
100
AcDbLine
 62
7
  6
BYLAYER
 10
109.9573842714
 20
30.497840935
 11
104.9576029847
 21
30.497840935
  0
LINE
  5
21F
100
AcDbEntity
  8
0
100
AcDbLine
 62
7
  6
BYLAYER
 10
98.9576029847
 20
30.497840935
 11
93.9578216981
 21
30.497840935
  0
LINE
  5
220
100
AcDbEntity
  8
0
100
AcDbLine
 62
7
  6
BYLAYER
 10
100.7576029819
 20
48.997841807
 11
100.1442696477
 21
48.9978423748
  0
LINE
  5
221
100
AcDbEntity
  8
0
100
AcDbLine
 62
7
  6
BYLAYER
 10
103.1576029872
 20
48.9978400962
 11
103.770936321
 21
48.9978395538
  0
LINE
  5
222
100
AcDbEntity
  8
0
100
AcDbLine
 62
7
  6
BYLAYER
 10
99.9576029847
 20
259.497840935
 11
98.9576029847
 21
258.497840935
  0
LINE
  5
223
100
AcDbEntity
  8
0
100
AcDbLine
 62
7
  6
BYLAYER
 10
94.4076029847
 20
245.247840935
 11
92.9076029847
 21
243.747840935
  0
LINE
  5
224
100
AcDbEntity
  8
0
100
AcDbLine
 62
7
  6
BYLAYER
 10
100.7576029819
 20
58.997841807
 11
100.1442696477
 21
58.9978423748
  0
LINE
  5
225
100
AcDbEntity
  8
0
100
AcDbLine
 62
7
  6
BYLAYER
 10
103.1576029872
 20
58.9978400962
 11
103.770936321
 21
58.9978395538
  0
LINE
  5
226
100
AcDbEntity
  8
0
100
AcDbLine
 62
7
  6
BYLAYER
 10
106.0076029847
 20
22.497840935
 11
105.6087318526
 21
22.8967120672
  0
LINE
  5
227
100
AcDbEntity
  8
0
100
AcDbLine
 62
7
  6
BYLAYER
 10
106.962767786
 20
23.9926761337
 11
108.4576029847
 21
22.497840935
  0
LINE
  5
228
100
AcDbEntity
  8
0
100
AcDbLine
 62
7
  6
BYLAYER
 10
100.7576029819
 20
68.997841807
 11
100.1442696477
 21
68.9978423748
  0
LINE
  5
229
100
AcDbEntity
  8
0
100
AcDbLine
 62
7
  6
BYLAYER
 10
103.1576029872
 20
68.9978400962
 11
103.770936321
 21
68.9978395538
  0
LINE
  5
22A
100
AcDbEntity
  8
0
100
AcDbLine
 62
7
  6
BYLAYER
 10
100.7576029819
 20
78.997841807
 11
100.1442696477
 21
78.9978423748
  0
LINE
  5
22B
100
AcDbEntity
  8
0
100
AcDbLine
 62
7
  6
BYLAYER
 10
103.1576029872
 20
78.9978400962
 11
103.770936321
 21
78.9978395538
  0
LINE
  5
22C
100
AcDbEntity
  8
0
100
AcDbLine
 62
7
  6
BYLAYER
 10
107.4576029847
 20
82.997840935
 11
96.4576029847
 21
82.997840935
  0
LINE
  5
22D
100
AcDbEntity
  8
0
100
AcDbLine
 62
7
  6
BYLAYER
 10
101.3718165471
 20
259.497840935
 11
100.9576029847
 21
258.497840935
  0
LINE
  5
22E
100
AcDbEntity
  8
0
100
AcDbLine
 62
7
  6
BYLAYER
 10
89.4576029847
 20
22.997840935
 11
89.4576029847
 21
26.497840935
  0
LINE
  5
22F
100
AcDbEntity
  8
0
100
AcDbLine
 62
7
  6
BYLAYER
 10
92.9076029847
 20
241.497840935
 11
92.9076029847
 21
243.747840935
  0
LINE
  5
230
100
AcDbEntity
  8
0
100
AcDbLine
 62
7
  6
BYLAYER
 10
93.9576029847
 20
26.497840935
 11
93.9576029847
 21
30.497840935
  0
LINE
  5
231
100
AcDbEntity
  8
0
100
AcDbLine
 62
7
  6
BYLAYER
 10
95.4576029847
 20
221.497840935
 11
95.4576029847
 21
241.497840935
  0
LINE
  5
232
100
AcDbEntity
  8
0
100
AcDbLine
 62
7
  6
BYLAYER
 10
96.0076029847
 20
39.497840935
 11
96.0076029847
 21
30.497840935
  0
LINE
  5
233
100
AcDbEntity
  8
0
100
AcDbLine
 62
7
  6
BYLAYER
 10
96.2284363181
 20
24.204947637
 11
96.2284363181
 21
26.497840935
  0
LINE
  5
234
100
AcDbEntity
  8
0
100
AcDbLine
 62
7
  6
BYLAYER
 10
96.4576029847
 20
30.497840935
 11
96.4576029847
 21
82.997840935
  0
LINE
  5
235
100
AcDbEntity
  8
0
100
AcDbLine
 62
7
  6
BYLAYER
 10
96.7576029847
 20
82.997840935
 11
96.7576029847
 21
30.497840935
  0
LINE
  5
236
100
AcDbEntity
  8
0
100
AcDbLine
 62
7
  6
BYLAYER
 10
96.9576029847
 20
26.497840935
 11
96.9576029847
 21
23.997840935
  0
LINE
  5
237
100
AcDbEntity
  8
0
100
AcDbLine
 62
7
  6
BYLAYER
 10
98.3013529847
 20
82.997840935
 11
98.3013529847
 21
30.497840935
  0
LINE
  5
238
100
AcDbEntity
  8
0
100
AcDbLine
 62
7
  6
BYLAYER
 10
98.9576029847
 20
30.497840935
 11
98.9576029847
 21
221.497840935
  0
LINE
  5
239
100
AcDbEntity
  8
0
100
AcDbLine
 62
7
  6
BYLAYER
 10
98.9576029847
 20
245.247840935
 11
98.9576029847
 21
258.497840935
  0
LINE
  5
23A
100
AcDbEntity
  8
0
100
AcDbLine
 62
7
  6
BYLAYER
 10
100.9576029847
 20
245.247840935
 11
100.9576029847
 21
258.497840935
  0
LINE
  5
23B
100
AcDbEntity
  8
0
100
AcDbLine
 62
7
  6
BYLAYER
 10
104.9576029847
 20
221.497840935
 11
104.9576029847
 21
30.497840935
  0
LINE
  5
23C
100
AcDbEntity
  8
0
100
AcDbLine
 62
7
  6
BYLAYER
 10
104.9576029847
 20
245.247840935
 11
104.9576029847
 21
258.497840935
  0
LINE
  5
23D
100
AcDbEntity
  8
0
100
AcDbLine
 62
7
  6
BYLAYER
 10
105.6138529847
 20
82.997840935
 11
105.6138529847
 21
30.497840935
  0
LINE
  5
23E
100
AcDbEntity
  8
0
100
AcDbLine
 62
7
  6
BYLAYER
 10
106.9576029847
 20
23.997840935
 11
106.9576029847
 21
26.497840935
  0
LINE
  5
23F
100
AcDbEntity
  8
0
100
AcDbLine
 62
7
  6
BYLAYER
 10
107.1575889734
 20
82.997840935
 11
107.1575889734
 21
30.497840935
  0
LINE
  5
240
100
AcDbEntity
  8
0
100
AcDbLine
 62
7
  6
BYLAYER
 10
107.4576029847
 20
82.997840935
 11
107.4576029847
 21
30.497840935
  0
LINE
  5
241
100
AcDbEntity
  8
0
100
AcDbLine
 62
7
  6
BYLAYER
 10
107.6867696514
 20
26.497840935
 11
107.6867696514
 21
24.2049476366
  0
LINE
  5
242
100
AcDbEntity
  8
0
100
AcDbLine
 62
7
  6
BYLAYER
 10
108.4576029847
 20
221.497840935
 11
108.4576029847
 21
241.497840935
  0
LINE
  5
243
100
AcDbEntity
  8
0
100
AcDbLine
 62
7
  6
BYLAYER
 10
109.9576029847
 20
26.497840935
 11
109.9576029847
 21
30.497840935
  0
LINE
  5
244
100
AcDbEntity
  8
0
100
AcDbLine
 62
7
  6
BYLAYER
 10
110.3560338846
 20
243.747840935
 11
110.3560338846
 21
241.497840935
  0
LINE
  5
245
100
AcDbEntity
  8
0
100
AcDbLine
 62
7
  6
BYLAYER
 10
97.3613835003
 20
221.4976734016
 11
95.9471953447
 21
231.497840935
  0
LINE
  5
246
100
AcDbEntity
  8
0
100
AcDbLine
 62
7
  6
BYLAYER
 10
114.4576029847
 20
22.997840935
 11
114.4576029847
 21
26.497840935
  0
LINE
  5
247
100
AcDbEntity
  8
0
100
AcDbLine
 62
7
  6
BYLAYER
 10
96.0076029847
 20
39.497840935
 11
96.4576029847
 21
39.947840935
  0
LINE
  5
248
100
AcDbEntity
  8
0
100
AcDbLine
 62
7
  6
BYLAYER
 10
95.4576029847
 20
22.497840935
 11
96.9524381835
 21
23.9926761337
  0
LINE
  5
249
100
AcDbEntity
  8
0
100
AcDbLine
 62
7
  6
BYLAYER
 10
94.971024191
 20
22.997840935
 11
96.2284363181
 21
24.2049790537
  0
LINE
  5
24A
100
AcDbEntity
  8
0
100
AcDbLine
 62
7
  6
BYLAYER
 10
95.4576029847
 20
221.497840935
 11
108.4576029847
 21
221.497840935
  0
LINE
  5
24B
100
AcDbEntity
  8
0
100
AcDbLine
 62
7
  6
BYLAYER
 10
104.9576029847
 20
258.497840935
 11
103.9576029847
 21
259.497840935
  0
LINE
  5
24C
100
AcDbEntity
  8
0
100
AcDbLine
 62
7
  6
BYLAYER
 10
97.361408907
 20
236.497840935
 11
97.4715232346
 21
236.5030323656
  0
LINE
  5
24D
100
AcDbEntity
  8
0
100
AcDbLine
 62
7
  6
BYLAYER
 10
95.9471953447
 20
231.497840935
 11
99.4827292506
 21
231.497840935
  0
LINE
  5
24E
100
AcDbEntity
  8
0
100
AcDbLine
 62
7
  6
BYLAYER
 10
92.9076029847
 20
241.497840935
 11
110.3560338846
 21
241.497840935
  0
LINE
  5
24F
100
AcDbEntity
  8
0
100
AcDbLine
 62
7
  6
BYLAYER
 10
110.3560338846
 20
243.747840935
 11
92.9076029847
 21
243.747840935
  0
LINE
  5
250
100
AcDbEntity
  8
0
100
AcDbLine
 62
7
  6
BYLAYER
 10
108.5703630874
 20
245.247840935
 11
94.4076029847
 21
245.247840935
  0
LINE
  5
251
100
AcDbEntity
  8
0
100
AcDbLine
 62
7
  6
BYLAYER
 10
97.4715389249
 20
240.4929345938
 11
97.361408907
 21
240.497840935
  0
LINE
  5
252
100
AcDbEntity
  8
0
100
AcDbLine
 62
7
  6
BYLAYER
 10
102.4433894224
 20
22.497840935
 11
103.4063495193
 21
22.8967120672
  0
LINE
  5
253
100
AcDbEntity
  8
0
100
AcDbLine
 62
7
  6
BYLAYER
 10
98.9576029847
 20
258.497840935
 11
104.9576029847
 21
258.497840935
  0
LINE
  5
254
100
AcDbEntity
  8
0
100
AcDbLine
 62
7
  6
BYLAYER
 10
99.9576029847
 20
259.497840935
 11
103.9576029847
 21
259.497840935
  0
ARC
  5
255
100
AcDbEntity
  8
0
100
AcDbCircle
 62
7
  6
BYLAYER
 10
48.6197217055
 20
172.0674014437
 40
94.6015641402
100
AcDbArc
 50
49.2626203467
 51
50.6750917217
  0
CIRCLE
  5
256
100
AcDbEntity
  8
0
100
AcDbCircle
 62
7
  6
BYLAYER
 10
101.9576029847
 20
78.997840935
 40
1.2
  0
CIRCLE
  5
257
100
AcDbEntity
  8
0
100
AcDbCircle
 62
7
  6
BYLAYER
 10
101.9576029847
 20
48.997840935
 40
1.2
  0
CIRCLE
  5
258
100
AcDbEntity
  8
0
100
AcDbCircle
 62
7
  6
BYLAYER
 10
101.9576029847
 20
68.997840935
 40
1.2
  0
CIRCLE
  5
259
100
AcDbEntity
  8
0
100
AcDbCircle
 62
7
  6
BYLAYER
 10
101.9576029847
 20
58.997840935
 40
1.2
  0
ARC
  5
25A
100
AcDbEntity
  8
0
100
AcDbCircle
 62
7
  6
BYLAYER
 10
89.9576029847
 20
22.997840935
 40
0.5
100
AcDbArc
 50
180.0
 51
270.0
  0
ARC
  5
25B
100
AcDbEntity
  8
0
100
AcDbCircle
 62
7
  6
BYLAYER
 10
113.9576029847
 20
22.997840935
 40
0.5
100
AcDbArc
 50
270.0
 51
360.0
  0
SPLINE
  5
25C
100
AcDbEntity
  8
0
100
AcDbSpline
 62
7
  6
BYLAYER
 70
0
 71
3
 72
19
 73
15
 74
0
 42
0.0000001
 43
0.0000001
 44
0.0000000001
 40
0.0
 40
0.0
 40
0.0
 40
0.0
 40
0.0519486671
 40
0.1078801022
 40
0.1676556608
 40
0.2306734101
 40
0.3630513873
 40
0.4999953888
 40
0.6369387764
 40
0.769319445
 40
0.8323406281
 40
0.8921196989
 40
0.9480530105
 40
1.0
 40
1.0
 40
1.0
 40
1.0
 10
97.4714824969
 20
236.5039370493
 30
0.0
 10
97.5644146315
 20
236.5141045513
 30
0.0
 10
97.7550855799
 20
236.5609791204
 30
0.0
 10
98.0269842177
 20
236.6960473287
 30
0.0
 10
98.2846461273
 20
236.8915726442
 30
0.0
 10
98.5984946238
 20
237.2292484074
 30
0.0
 10
98.8919422253
 20
237.763638584
 30
0.0
 10
99.0197323535
 20
238.4978158188
 30
0.0
 10
98.8919656332
 20
239.2320048798
 30
0.0
 10
98.5985093519
 20
239.7664027617
 30
0.0
 10
98.2846569858
 20
240.1040966353
 30
0.0
 10
98.026992308
 20
240.2996464003
 30
0.0
 10
97.7550820335
 20
240.4347078295
 30
0.0
 10
97.5644109046
 20
240.4815817652
 30
0.0
 10
97.4714815193
 20
240.4917466371
 30
0.0
  0
SPLINE
  5
25D
100
AcDbEntity
  8
0
100
AcDbSpline
 62
7
  6
BYLAYER
 70
0
 71
3
 72
13
 73
9
 74
0
 42
0.0000001
 43
0.0000001
 44
0.0000000001
 40
0.0
 40
0.0
 40
0.0
 40
0.0
 40
0.2499440415
 40
0.4999072108
 40
0.6249061702
 40
0.7499167702
 40
0.8749453892
 40
1.0
 40
1.0
 40
1.0
 40
1.0
 10
97.3613835003
 20
221.4976734016
 30
0.0
 10
97.4807990606
 20
222.3420689259
 30
0.0
 10
97.7377594403
 20
224.0284294255
 30
0.0
 10
98.1166678578
 20
226.1270712286
 30
0.0
 10
98.4677191058
 20
227.7965615103
 30
0.0
 10
98.7605817464
 20
229.0423754191
 30
0.0
 10
99.0908075099
 20
230.2790498581
 30
0.0
 10
99.3441316107
 20
231.0942978073
 30
0.0
 10
99.4827292506
 20
231.497840935
 30
0.0
  0
SPLINE
  5
25E
100
AcDbEntity
  8
0
100
AcDbSpline
 62
7
  6
BYLAYER
 70
0
 71
3
 72
23
 73
19
 74
0
 42
0.0000001
 43
0.0000001
 44
0.0000000001
 40
0.0
 40
0.0
 40
0.0
 40
0.0
 40
0.0525873764
 40
0.1044977958
 40
0.1585933475
 40
0.2171067708
 40
0.2810780272
 40
0.3504096985
 40
0.424014777
 40
0.4999878509
 40
0.5759608242
 40
0.649565014
 40
0.7188951016
 40
0.7828729493
 40
0.8413955804
 40
0.8954977204
 40
0.9474130651
 40
1.0
 40
1.0
 40
1.0
 40
1.0
 10
97.361408907
 20
240.497840935
 30
0.0
 10
97.2713279822
 20
240.497840935
 30
0.0
 10
97.0909181128
 20
240.472315687
 30
0.0
 10
96.8428608998
 20
240.3517535767
 30
0.0
 10
96.6333187889
 20
240.1581843713
 30
0.0
 10
96.4652357248
 20
239.9040387992
 30
0.0
 10
96.3369944946
 20
239.5999777406
 30
0.0
 10
96.2468487289
 20
239.2562356549
 30
0.0
 10
96.1933878033
 20
238.8844112197
 30
0.0
 10
96.1753753726
 20
238.497903621
 30
0.0
 10
96.1934014565
 20
238.1114009862
 30
0.0
 10
96.2468035758
 20
237.7395714449
 30
0.0
 10
96.3369748095
 20
237.3958280319
 30
0.0
 10
96.4651899057
 20
237.0917330105
 30
0.0
 10
96.633267775
 20
236.8375332133
 30
0.0
 10
96.842843452
 20
236.6439484716
 30
0.0
 10
97.0909084291
 20
236.5233577977
 30
0.0
 10
97.2713287386
 20
236.497840935
 30
0.0
 10
97.361408907
 20
236.497840935
 30
0.0
  0
SPLINE
  5
25F
100
AcDbEntity
  8
0
100
AcDbSpline
 62
7
  6
BYLAYER
 70
0
 71
3
 72
12
 73
8
 74
0
 42
0.0000001
 43
0.0000001
 44
0.0000000001
 40
0.0
 40
0.0
 40
0.0
 40
0.0
 40
0.2916222642
 40
0.5722357919
 40
0.6997828302
 40
0.8145357498
 40
1.0
 40
1.0
 40
1.0
 40
1.0
 10
94.9710335369
 20
22.997840935
 30
0.0
 10
94.9903640372
 20
22.9335056476
 30
0.0
 10
95.0406449207
 20
22.8107239979
 30
0.0
 10
95.128822568
 20
22.6743696882
 30
0.0
 10
95.2120948161
 20
22.5865113673
 30
0.0
 10
95.2893902703
 20
22.5259911149
 30
0.0
 10
95.3576173105
 20
22.497840935
 30
0.0
 10
95.4003399069
 20
22.497840935
 30
0.0
  0
SPLINE
  5
260
100
AcDbEntity
  8
0
100
AcDbSpline
 62
7
  6
BYLAYER
 70
0
 71
3
 72
12
 73
8
 74
0
 42
0.0000001
 43
0.0000001
 44
0.0000000001
 40
0.0
 40
0.0
 40
0.0
 40
0.0
 40
0.2498786732
 40
0.3750980885
 40
0.5001100576
 40
0.749439513
 40
1.0
 40
1.0
 40
1.0
 40
1.0
 10
103.7709363139
 20
78.9978395537
 30
0.0
 10
103.7732092055
 20
79.226527675
 30
0.0
 10
103.692484298
 20
79.575011419
 30
0.0
 10
103.4590426845
 20
79.9709723214
 30
0.0
 10
103.1500037712
 20
80.3120284342
 30
0.0
 10
102.6485825325
 20
80.6154110833
 30
0.0
 10
102.1869264241
 20
80.6978636112
 30
0.0
 10
101.9576029847
 20
80.6978406295
 30
0.0
  0
SPLINE
  5
261
100
AcDbEntity
  8
0
100
AcDbSpline
 62
7
  6
BYLAYER
 70
0
 71
3
 72
12
 73
8
 74
0
 42
0.0000001
 43
0.0000001
 44
0.0000000001
 40
0.0
 40
0.0
 40
0.0
 40
0.0
 40
0.2505415693
 40
0.4998411799
 40
0.6248757298
 40
0.7500547168
 40
1.0
 40
1.0
 40
1.0
 40
1.0
 10
101.9576029847
 20
80.6978406295
 30
0.0
 10
101.7282925773
 20
80.6978176491
 30
0.0
 10
101.2666821084
 20
80.6154634929
 30
0.0
 10
100.7652216699
 20
80.3120584721
 30
0.0
 10
100.4563278393
 20
79.971004154
 30
0.0
 10
100.2222122924
 20
79.5752464075
 30
0.0
 10
100.1427075094
 20
79.2266016935
 30
0.0
 10
100.1442696542
 20
78.9978423748
 30
0.0
  0
SPLINE
  5
262
100
AcDbEntity
  8
0
100
AcDbSpline
 62
7
  6
BYLAYER
 70
0
 71
3
 72
12
 73
8
 74
0
 42
0.0000001
 43
0.0000001
 44
0.0000000001
 40
0.0
 40
0.0
 40
0.0
 40
0.0
 40
0.2498787995
 40
0.3750980887
 40
0.5001102305
 40
0.7494395562
 40
1.0
 40
1.0
 40
1.0
 40
1.0
 10
100.1442696542
 20
78.9978423748
 30
0.0
 10
100.1420004681
 20
78.7691541103
 30
0.0
 10
100.2227166861
 20
78.4206683923
 30
0.0
 10
100.4561666018
 20
78.0247119259
 30
0.0
 10
100.7651991289
 20
77.6836506391
 30
0.0
 10
101.2666252739
 20
77.3802739661
 30
0.0
 10
101.7282795941
 20
77.297818275
 30
0.0
 10
101.9576029847
 20
77.297841242
 30
0.0
  0
SPLINE
  5
263
100
AcDbEntity
  8
0
100
AcDbSpline
 62
7
  6
BYLAYER
 70
0
 71
3
 72
12
 73
8
 74
0
 42
0.0000001
 43
0.0000001
 44
0.0000000001
 40
0.0
 40
0.0
 40
0.0
 40
0.0
 40
0.2505410874
 40
0.4998404111
 40
0.6248746577
 40
0.750054408
 40
1.0
 40
1.0
 40
1.0
 40
1.0
 10
101.9576029847
 20
77.297841242
 30
0.0
 10
102.186912998
 20
77.2978642077
 30
0.0
 10
102.6485219599
 20
77.3802184756
 30
0.0
 10
103.1499850961
 20
77.6836215204
 30
0.0
 10
103.4588728128
 20
78.0246781589
 30
0.0
 10
103.6930100685
 20
78.4204318153
 30
0.0
 10
103.7724506187
 20
78.7690795839
 30
0.0
 10
103.7709363139
 20
78.9978395537
 30
0.0
  0
SPLINE
  5
264
100
AcDbEntity
  8
0
100
AcDbSpline
 62
7
  6
BYLAYER
 70
0
 71
3
 72
12
 73
8
 74
0
 42
0.0000001
 43
0.0000001
 44
0.0000000001
 40
0.0
 40
0.0
 40
0.0
 40
0.0
 40
0.2498786732
 40
0.3750980885
 40
0.5001100576
 40
0.749439513
 40
1.0
 40
1.0
 40
1.0
 40
1.0
 10
103.7709363139
 20
68.9978395537
 30
0.0
 10
103.7732092055
 20
69.226527675
 30
0.0
 10
103.692484298
 20
69.575011419
 30
0.0
 10
103.4590426845
 20
69.9709723214
 30
0.0
 10
103.1500037712
 20
70.3120284342
 30
0.0
 10
102.6485825325
 20
70.6154110833
 30
0.0
 10
102.1869264241
 20
70.6978636112
 30
0.0
 10
101.9576029847
 20
70.6978406295
 30
0.0
  0
SPLINE
  5
265
100
AcDbEntity
  8
0
100
AcDbSpline
 62
7
  6
BYLAYER
 70
0
 71
3
 72
12
 73
8
 74
0
 42
0.0000001
 43
0.0000001
 44
0.0000000001
 40
0.0
 40
0.0
 40
0.0
 40
0.0
 40
0.2505415693
 40
0.4998411799
 40
0.6248757298
 40
0.7500547168
 40
1.0
 40
1.0
 40
1.0
 40
1.0
 10
101.9576029847
 20
70.6978406295
 30
0.0
 10
101.7282925773
 20
70.6978176491
 30
0.0
 10
101.2666821084
 20
70.6154634929
 30
0.0
 10
100.7652216699
 20
70.3120584721
 30
0.0
 10
100.4563278393
 20
69.971004154
 30
0.0
 10
100.2222122924
 20
69.5752464075
 30
0.0
 10
100.1427075094
 20
69.2266016935
 30
0.0
 10
100.1442696542
 20
68.9978423748
 30
0.0
  0
SPLINE
  5
266
100
AcDbEntity
  8
0
100
AcDbSpline
 62
7
  6
BYLAYER
 70
0
 71
3
 72
12
 73
8
 74
0
 42
0.0000001
 43
0.0000001
 44
0.0000000001
 40
0.0
 40
0.0
 40
0.0
 40
0.0
 40
0.2498787995
 40
0.3750980887
 40
0.5001102305
 40
0.7494395562
 40
1.0
 40
1.0
 40
1.0
 40
1.0
 10
100.1442696542
 20
68.9978423748
 30
0.0
 10
100.1420004681
 20
68.7691541103
 30
0.0
 10
100.2227166861
 20
68.4206683923
 30
0.0
 10
100.4561666018
 20
68.0247119259
 30
0.0
 10
100.7651991289
 20
67.6836506391
 30
0.0
 10
101.2666252739
 20
67.3802739661
 30
0.0
 10
101.7282795941
 20
67.297818275
 30
0.0
 10
101.9576029847
 20
67.297841242
 30
0.0
  0
SPLINE
  5
267
100
AcDbEntity
  8
0
100
AcDbSpline
 62
7
  6
BYLAYER
 70
0
 71
3
 72
12
 73
8
 74
0
 42
0.0000001
 43
0.0000001
 44
0.0000000001
 40
0.0
 40
0.0
 40
0.0
 40
0.0
 40
0.2505410874
 40
0.4998404111
 40
0.6248746577
 40
0.750054408
 40
1.0
 40
1.0
 40
1.0
 40
1.0
 10
101.9576029847
 20
67.297841242
 30
0.0
 10
102.186912998
 20
67.2978642077
 30
0.0
 10
102.6485219599
 20
67.3802184756
 30
0.0
 10
103.1499850961
 20
67.6836215204
 30
0.0
 10
103.4588728128
 20
68.0246781589
 30
0.0
 10
103.6930100685
 20
68.4204318153
 30
0.0
 10
103.7724506187
 20
68.7690795839
 30
0.0
 10
103.7709363139
 20
68.9978395537
 30
0.0
  0
SPLINE
  5
268
100
AcDbEntity
  8
0
100
AcDbSpline
 62
7
  6
BYLAYER
 70
0
 71
3
 72
12
 73
8
 74
0
 42
0.0000001
 43
0.0000001
 44
0.0000000001
 40
0.0
 40
0.0
 40
0.0
 40
0.0
 40
0.2916216033
 40
0.5722260338
 40
0.6997714356
 40
0.8145266752
 40
1.0
 40
1.0
 40
1.0
 40
1.0
 10
108.9441724324
 20
22.997840935
 30
0.0
 10
108.924841533
 20
22.9335058297
 30
0.0
 10
108.8745406968
 20
22.8107363712
 30
0.0
 10
108.786393856
 20
22.67436581
 30
0.0
 10
108.703119341
 20
22.5865108718
 30
0.0
 10
108.6258208089
 20
22.5259909364
 30
0.0
 10
108.5575908086
 20
22.497840935
 30
0.0
 10
108.5148660629
 20
22.497840935
 30
0.0
  0
LINE
  5
269
100
AcDbEntity
  8
0
100
AcDbLine
 62
7
  6
BYLAYER
 10
107.6867696514
 20
24.2049394176
 11
108.9441334586
 21
22.997840935
  0
SPLINE
  5
26A
100
AcDbEntity
  8
0
100
AcDbSpline
 62
7
  6
BYLAYER
 70
0
 71
3
 72
12
 73
8
 74
0
 42
0.0000001
 43
0.0000001
 44
0.0000000001
 40
0.0
 40
0.0
 40
0.0
 40
0.0
 40
0.2498786732
 40
0.3750980885
 40
0.5001100576
 40
0.749439513
 40
1.0
 40
1.0
 40
1.0
 40
1.0
 10
103.7709363139
 20
58.9978395537
 30
0.0
 10
103.7732092055
 20
59.226527675
 30
0.0
 10
103.692484298
 20
59.575011419
 30
0.0
 10
103.4590426845
 20
59.9709723214
 30
0.0
 10
103.1500037712
 20
60.3120284342
 30
0.0
 10
102.6485825325
 20
60.6154110833
 30
0.0
 10
102.1869264241
 20
60.6978636112
 30
0.0
 10
101.9576029847
 20
60.6978406295
 30
0.0
  0
SPLINE
  5
26B
100
AcDbEntity
  8
0
100
AcDbSpline
 62
7
  6
BYLAYER
 70
0
 71
3
 72
12
 73
8
 74
0
 42
0.0000001
 43
0.0000001
 44
0.0000000001
 40
0.0
 40
0.0
 40
0.0
 40
0.0
 40
0.2505415693
 40
0.4998411799
 40
0.6248757298
 40
0.7500547168
 40
1.0
 40
1.0
 40
1.0
 40
1.0
 10
101.9576029847
 20
60.6978406295
 30
0.0
 10
101.7282925773
 20
60.6978176491
 30
0.0
 10
101.2666821084
 20
60.6154634929
 30
0.0
 10
100.7652216699
 20
60.3120584721
 30
0.0
 10
100.4563278393
 20
59.971004154
 30
0.0
 10
100.2222122924
 20
59.5752464075
 30
0.0
 10
100.1427075094
 20
59.2266016935
 30
0.0
 10
100.1442696542
 20
58.9978423748
 30
0.0
  0
SPLINE
  5
26C
100
AcDbEntity
  8
0
100
AcDbSpline
 62
7
  6
BYLAYER
 70
0
 71
3
 72
15
 73
11
 74
0
 42
0.0000001
 43
0.0000001
 44
0.0000000001
 40
0.0
 40
0.0
 40
0.0
 40
0.0
 40
0.3123543306
 40
0.4728314676
 40
0.6261556494
 40
0.7634108584
 40
0.8754068111
 40
0.9546828404
 40
0.9811691938
 40
1.0
 40
1.0
 40
1.0
 40
1.0
 10
107.6867696514
 20
24.2049476366
 30
0.0
 10
107.615479582
 20
24.1691736826
 30
0.0
 10
107.504969706
 20
24.1200843087
 30
0.0
 10
107.3554063617
 20
24.0634555405
 30
0.0
 10
107.2460153209
 20
24.0273329089
 30
0.0
 10
107.1467521956
 20
24.000074838
 30
0.0
 10
107.0645306993
 20
23.9839111487
 30
0.0
 10
107.008527939
 20
23.9791634281
 30
0.0
 10
106.9770219656
 20
23.9840342182
 30
0.0
 10
106.9661680092
 20
23.9892759497
 30
0.0
 10
106.962767786
 20
23.9926761337
 30
0.0
  0
SPLINE
  5
26D
100
AcDbEntity
  8
0
100
AcDbSpline
 62
7
  6
BYLAYER
 70
0
 71
3
 72
12
 73
8
 74
0
 42
0.0000001
 43
0.0000001
 44
0.0000000001
 40
0.0
 40
0.0
 40
0.0
 40
0.0
 40
0.2498787995
 40
0.3750980887
 40
0.5001102305
 40
0.7494395562
 40
1.0
 40
1.0
 40
1.0
 40
1.0
 10
100.1442696542
 20
58.9978423748
 30
0.0
 10
100.1420004684
 20
58.7691541103
 30
0.0
 10
100.222716686
 20
58.4206683923
 30
0.0
 10
100.4561666019
 20
58.0247119259
 30
0.0
 10
100.7651991289
 20
57.6836506391
 30
0.0
 10
101.2666252739
 20
57.3802739661
 30
0.0
 10
101.7282795941
 20
57.297818275
 30
0.0
 10
101.9576029847
 20
57.297841242
 30
0.0
  0
SPLINE
  5
26E
100
AcDbEntity
  8
0
100
AcDbSpline
 62
7
  6
BYLAYER
 70
0
 71
3
 72
12
 73
8
 74
0
 42
0.0000001
 43
0.0000001
 44
0.0000000001
 40
0.0
 40
0.0
 40
0.0
 40
0.0
 40
0.2505410874
 40
0.4998404111
 40
0.6248746577
 40
0.750054408
 40
1.0
 40
1.0
 40
1.0
 40
1.0
 10
101.9576029847
 20
57.297841242
 30
0.0
 10
102.186912998
 20
57.2978642077
 30
0.0
 10
102.6485219599
 20
57.3802184756
 30
0.0
 10
103.1499850961
 20
57.6836215204
 30
0.0
 10
103.4588728128
 20
58.0246781589
 30
0.0
 10
103.6930100685
 20
58.4204318153
 30
0.0
 10
103.7724506187
 20
58.7690795839
 30
0.0
 10
103.7709363139
 20
58.9978395537
 30
0.0
  0
SPLINE
  5
26F
100
AcDbEntity
  8
0
100
AcDbSpline
 62
7
  6
BYLAYER
 70
0
 71
3
 72
12
 73
8
 74
0
 42
0.0000001
 43
0.0000001
 44
0.0000000001
 40
0.0
 40
0.0
 40
0.0
 40
0.0
 40
0.2498786732
 40
0.3750980885
 40
0.5001100576
 40
0.749439513
 40
1.0
 40
1.0
 40
1.0
 40
1.0
 10
103.7709363139
 20
48.9978395537
 30
0.0
 10
103.7732092055
 20
49.226527675
 30
0.0
 10
103.6924842981
 20
49.575011419
 30
0.0
 10
103.4590426845
 20
49.9709723214
 30
0.0
 10
103.1500037712
 20
50.3120284342
 30
0.0
 10
102.6485825325
 20
50.6154110833
 30
0.0
 10
102.1869264241
 20
50.6978636112
 30
0.0
 10
101.9576029847
 20
50.6978406295
 30
0.0
  0
SPLINE
  5
270
100
AcDbEntity
  8
0
100
AcDbSpline
 62
7
  6
BYLAYER
 70
0
 71
3
 72
12
 73
8
 74
0
 42
0.0000001
 43
0.0000001
 44
0.0000000001
 40
0.0
 40
0.0
 40
0.0
 40
0.0
 40
0.2505415693
 40
0.4998411799
 40
0.6248757298
 40
0.7500547168
 40
1.0
 40
1.0
 40
1.0
 40
1.0
 10
101.9576029847
 20
50.6978406295
 30
0.0
 10
101.7282925773
 20
50.6978176491
 30
0.0
 10
101.2666821084
 20
50.6154634929
 30
0.0
 10
100.7652216699
 20
50.3120584721
 30
0.0
 10
100.4563278393
 20
49.971004154
 30
0.0
 10
100.2222122924
 20
49.5752464075
 30
0.0
 10
100.1427075094
 20
49.2266016935
 30
0.0
 10
100.1442696542
 20
48.9978423748
 30
0.0
  0
SPLINE
  5
271
100
AcDbEntity
  8
0
100
AcDbSpline
 62
7
  6
BYLAYER
 70
0
 71
3
 72
12
 73
8
 74
0
 42
0.0000001
 43
0.0000001
 44
0.0000000001
 40
0.0
 40
0.0
 40
0.0
 40
0.0
 40
0.2498787995
 40
0.3750980887
 40
0.5001102305
 40
0.7494395562
 40
1.0
 40
1.0
 40
1.0
 40
1.0
 10
100.1442696542
 20
48.9978423748
 30
0.0
 10
100.1420004684
 20
48.7691541103
 30
0.0
 10
100.222716686
 20
48.4206683923
 30
0.0
 10
100.4561666019
 20
48.0247119259
 30
0.0
 10
100.7651991289
 20
47.6836506391
 30
0.0
 10
101.2666252739
 20
47.3802739661
 30
0.0
 10
101.7282795941
 20
47.297818275
 30
0.0
 10
101.9576029847
 20
47.297841242
 30
0.0
  0
SPLINE
  5
272
100
AcDbEntity
  8
0
100
AcDbSpline
 62
7
  6
BYLAYER
 70
0
 71
3
 72
12
 73
8
 74
0
 42
0.0000001
 43
0.0000001
 44
0.0000000001
 40
0.0
 40
0.0
 40
0.0
 40
0.0
 40
0.2505410874
 40
0.4998404111
 40
0.6248746577
 40
0.750054408
 40
1.0
 40
1.0
 40
1.0
 40
1.0
 10
101.9576029847
 20
47.297841242
 30
0.0
 10
102.186912998
 20
47.2978642077
 30
0.0
 10
102.6485219599
 20
47.3802184756
 30
0.0
 10
103.1499850961
 20
47.6836215204
 30
0.0
 10
103.4588728128
 20
48.0246781589
 30
0.0
 10
103.6930100685
 20
48.4204318153
 30
0.0
 10
103.7724506187
 20
48.7690795839
 30
0.0
 10
103.7709363139
 20
48.9978395537
 30
0.0
  0
SPLINE
  5
273
100
AcDbEntity
  8
0
100
AcDbSpline
 62
7
  6
BYLAYER
 70
0
 71
3
 72
15
 73
11
 74
0
 42
0.0000001
 43
0.0000001
 44
0.0000000001
 40
0.0
 40
0.0
 40
0.0
 40
0.0
 40
0.3123581093
 40
0.4728355879
 40
0.6261590126
 40
0.7634133278
 40
0.8754081024
 40
0.9546828916
 40
0.9811692055
 40
1.0
 40
1.0
 40
1.0
 40
1.0
 10
96.2284363181
 20
24.204947637
 30
0.0
 10
96.2997267127
 20
24.1691721298
 30
0.0
 10
96.410233212
 20
24.1200701133
 30
0.0
 10
96.5598112685
 20
24.0634781345
 30
0.0
 10
96.6691958569
 20
24.0273385378
 30
0.0
 10
96.7684551235
 20
24.0000681878
 30
0.0
 10
96.850676158
 20
23.983904007
 30
0.0
 10
96.9066787232
 20
23.9791622249
 30
0.0
 10
96.93818409
 20
23.9840341562
 30
0.0
 10
96.9490379616
 20
23.9892759508
 30
0.0
 10
96.9524381835
 20
23.9926761337
 30
0.0
  0
ENDSEC
  0
SECTION
  2
OBJECTS
  0
DICTIONARY
  5
C
100
AcDbDictionary
280
0
281
1
  3
ACAD_GROUP
350
D
  3
ACAD_MLINESTYLE
350
17
  3
ACAD_LAYOUT
350
1A
  3
ACAD_PLOTSETTINGS
350
19
  3
ACAD_PLOTSTYLENAME
350
E
  0
DICTIONARY
  5
D
102
{ACAD_REACTORS
330
C
102
}
100
AcDbDictionary
280
0
281
1
  0
ACDBDICTIONARYWDFLT
  5
E
102
{ACAD_REACTORS
330
C
102
}
100
AcDbDictionary
281
1
  3
Normal
350
F
100
AcDbDictionaryWithDefault
340
F
  0
DICTIONARY
  5
17
102
{ACAD_REACTORS
330
C
102
}
100
AcDbDictionary
280
0
281
1
  3
Standard
350
18
  0
DICTIONARY
  5
19
102
{ACAD_REACTORS
330
C
102
}
100
AcDbDictionary
281
1
  0
DICTIONARY
  5
1A
102
{ACAD_REACTORS
330
C
102
}
100
AcDbDictionary
281
1
  3
Model
350
274
  3
Layout1
350
275
  0
ACDBPLACEHOLDER
  5
F
102
{ACAD_REACTORS
330
E
102
}
  0
MLINESTYLE
  5
18
102
{ACAD_REACTORS
330
17
102
}
100
AcDbMlineStyle
  2
STANDARD
 70
0
  3

 62
256
 51
90.0
 52
90.0
 71
2
 49
0.5
 62
256
  6
BYLAYER
 49
-0.5
 62
256
  6
BYLAYER
  0
LAYOUT
  5
274
102
{ACAD_REACTORS
330
1A
102
}
100
AcDbPlotSettings
  1

  2
none_device
  4

  6

 40
0.0
 41
0.0
 42
0.0
 43
0.0
 44
210.0
 45
297.0
 46
0.0
 47
0.0
 48
0.0
 49
0.0
140
0.0
141
0.0
142
1.0
143
1.0
 70
1024
 72
1
 73
0
 74
0
  7

 75
0
147
1.0
148
0.0
149
0.0
100
AcDbLayout
  1
Model
 70
0
 71
0
 10
0.0
 20
0.0
 11
210.0
 21
297.0
 12
0.0
 22
0.0
 32
0.0
 14
0.0
 24
0.0
 34
0.0
 15
0.0
 25
0.0
 35
0.0
146
0.0
 13
0.0
 23
0.0
 33
0.0
 16
1.0
 26
0.0
 36
0.0
 17
0.0
 27
1.0
 37
0.0
 76
0
330
210
345
0
346
0
  0
LAYOUT
  5
275
102
{ACAD_REACTORS
330
1A
102
}
100
AcDbPlotSettings
  1

  2
none_device
  4

  6

 40
0.0
 41
0.0
 42
0.0
 43
0.0
 44
210.0
 45
297.0
 46
0.0
 47
0.0
 48
0.0
 49
0.0
140
0.0
141
0.0
142
1.0
143
1.0
 70
0
 72
1
 73
0
 74
0
  7

 75
0
147
1.0
148
0.0
149
0.0
100
AcDbLayout
  1
Layout1
 70
0
 71
1
 10
0.0
 20
0.0
 11
210.0
 21
297.0
 12
0.0
 22
0.0
 32
0.0
 14
0.0
 24
0.0
 34
0.0
 15
0.0
 25
0.0
 35
0.0
146
0.0
 13
0.0
 23
0.0
 33
0.0
 16
1.0
 26
0.0
 36
0.0
 17
0.0
 27
1.0
 37
0.0
 76
0
330
211
345
0
346
0
  0
ENDSEC
  0
EOF
