999
DXF file: C:\Users\sesa63760\Dev\_Creo\CAD\MCADID0000571_3D-CAD\drw0001_2.dxf
999
Pro/ENGINEER 2019471 by Parametric Technology Corporation
  0
SECTION
  2
HEADER
  9
$ACADVER
  1
AC1024
  9
$DWGCODEPAGE
  3
ANSI_1252
  9
$EXTMAX
 10
250.4476426876
 20
354.2045232296
 30
0.0
  9
$EXTMIN
 10
0.0
 20
0.0
 30
0.0
  9
$LIMMIN
 10
0.0
 20
0.0
  9
$LIMMAX
 10
250.4476426876
 20
354.2045232296
  9
$VIEWCTR
 10
125.2238213438
 20
177.1022616148
  9
$VIEWSIZE
 40
354.2045232296
  9
$CLAYER
  8
0
  9
$LTSCALE
 40
23.0888874402
  9
$CELTYPE
  6
BYLAYER
  9
$DIMSCALE
 40
1.0
  9
$DIMASZ
 40
2.9815195558
  9
$DIMEXO
 40
1.0
  9
$DIMDLI
 40
15.9523222314
  9
$DIMEXE
 40
1.0
  9
$DIMCEN
 40
3.7781815811
  9
$DIMLFAC
 40
1.0
  9
$DIMBLK
  1
_FILLED
  9
$DIMALT
 70
0
  9
$DIMALTF
 40
0.0393700787
  9
$DIMTXT
 40
4.1741273781
  9
$DIMTOL
 70
1
  9
$DIMLIM
 70
0
  9
$DIMTFAC
 40
1.0
  9
$DIMTP
 40
0.01
  9
$DIMTM
 40
0.01
  9
$DIMGAP
 40
0.625
  9
$DIMDSEP
 70
46
  9
$AUNITS
 70
0
  9
$PDMODE
 70
3
  9
$PDSIZE
 40
0.3125
  9
$HANDSEED
  5
2C2
  9
$TILEMODE
 70
1
  9
$MEASUREMENT
 70
1
  9
$INSUNITS
 70
4
  0
ENDSEC
  0
SECTION
  2
CLASSES
  0
CLASS
  1
ACDBDICTIONARYWDFLT
  2
AcDbDictionaryWithDefault
  3
AutoCAD 2000
 90
0
 91
1
280
0
281
0
  0
CLASS
  1
ACDBPLACEHOLDER
  2
AcDbPlaceHolder
  3
AutoCAD 2000
 90
0
 91
1
280
0
281
0
  0
CLASS
  1
LAYOUT
  2
AcDbLayout
  3
AutoCAD 2000
 90
0
 91
0
280
0
281
0
  0
ENDSEC
  0
SECTION
  2
TABLES
  0
TABLE
  2
VPORT
  5
8
100
AcDbSymbolTable
 70
2
  0
VPORT
  5
1F4
100
AcDbSymbolTableRecord
100
AcDbViewportTableRecord
  2
*ACTIVE
 70
0
 10
0.0
 20
0.0
 11
1.0
 21
1.0
 12
125.2238213438
 22
177.1022616148
 13
0.0
 23
0.0
 14
1.0
 24
1.0
 15
0.0
 25
0.0
 16
0.0
 26
0.0
 36
1.0
 17
0.0
 27
0.0
 37
0.0
 40
354.2045232296
 41
0.7070707071
 42
50.0
 43
0.0
 44
0.0
 50
0.0
 51
0.0
 71
0
 72
100
 73
1
 74
1
 75
0
 76
0
 77
0
 78
0
  0
ENDTAB
  0
TABLE
  2
LTYPE
  5
5
100
AcDbSymbolTable
 70
6
  0
LTYPE
  5
14
100
AcDbSymbolTableRecord
100
AcDbLinetypeTableRecord
  2
BYBLOCK
 70
0
  3

 72
65
 73
0
 40
0.0
  0
LTYPE
  5
15
100
AcDbSymbolTableRecord
100
AcDbLinetypeTableRecord
  2
BYLAYER
 70
0
  3

 72
65
 73
0
 40
0.0
  0
LTYPE
  5
16
100
AcDbSymbolTableRecord
100
AcDbLinetypeTableRecord
  2
CONTINUOUS
 70
64
  3
Solid line
 72
65
 73
0
 40
0.0
  0
LTYPE
  5
1F5
100
AcDbSymbolTableRecord
100
AcDbLinetypeTableRecord
  2
CENTER
 70
64
  3
____ _ ____ _ ____ _ ____ _ ____ _ ____ _ ____
 72
65
 73
4
 40
0.6
 49
0.375
 74
0
 49
-0.075
 74
0
 49
0.075
 74
0
 49
-0.075
 74
0
  0
LTYPE
  5
1F6
100
AcDbSymbolTableRecord
100
AcDbLinetypeTableRecord
  2
HIDDEN
 70
64
  3
- - - - - - - - - - - - - - - - - - - -
 72
65
 73
2
 40
0.2
 49
0.1
 74
0
 49
-0.1
 74
0
  0
LTYPE
  5
1F7
100
AcDbSymbolTableRecord
100
AcDbLinetypeTableRecord
  2
PHANTOM
 70
64
  3
_____ _ _ _____ _ _ _____ _ _ _____
 72
65
 73
6
 40
0.8
 49
0.45
 74
0
 49
-0.05
 74
0
 49
0.1
 74
0
 49
-0.05
 74
0
 49
0.1
 74
0
 49
-0.05
 74
0
  0
LTYPE
  5
1F8
100
AcDbSymbolTableRecord
100
AcDbLinetypeTableRecord
  2
DOT
 70
64
  3
. . . . . . . . . . . . . . . . . . . .
 72
65
 73
2
 40
0.2
 49
0.1
 74
0
 49
-0.1
 74
0
  0
LTYPE
  5
1F9
100
AcDbSymbolTableRecord
100
AcDbLinetypeTableRecord
  2
DASHED
 70
64
  3
- - - - - - - - - - - - - - - - - - - -
 72
65
 73
2
 40
0.2
 49
0.1
 74
0
 49
-0.1
 74
0
  0
ENDTAB
  0
TABLE
  2
LAYER
  5
2
100
AcDbSymbolTable
 70
36
  0
LAYER
  5
10
100
AcDbSymbolTableRecord
100
AcDbLayerTableRecord
  2
0
 70
0
 62
7
  6
CONTINUOUS
370
-3
390
F
  0
LAYER
  5
1FA
100
AcDbSymbolTableRecord
100
AcDbLayerTableRecord
  2
DEFAULT_1
 70
0
 62
7
  6
CENTER
370
-3
390
F
  0
LAYER
  5
1FB
100
AcDbSymbolTableRecord
100
AcDbLayerTableRecord
  2
DEFAULT_2
 70
0
 62
8
  6
HIDDEN
370
-3
390
F
  0
LAYER
  5
1FC
100
AcDbSymbolTableRecord
100
AcDbLayerTableRecord
  2
DEFAULT_3
 70
0
 62
7
  6
PHANTOM
370
-3
390
F
  0
LAYER
  5
1FD
100
AcDbSymbolTableRecord
100
AcDbLayerTableRecord
  2
00_COMPONENTS
 70
0
 62
7
  6
CONTINUOUS
370
-3
390
F
  0
LAYER
  5
1FE
100
AcDbSymbolTableRecord
100
AcDbLayerTableRecord
  2
01_1_DEFAULT_DATUMS
 70
0
 62
7
  6
CONTINUOUS
370
-3
390
F
  0
LAYER
  5
1FF
100
AcDbSymbolTableRecord
100
AcDbLayerTableRecord
  2
01_PLANES
 70
0
 62
7
  6
CONTINUOUS
370
-3
390
F
  0
LAYER
  5
200
100
AcDbSymbolTableRecord
100
AcDbLayerTableRecord
  2
02_COORD_SYS
 70
0
 62
7
  6
CONTINUOUS
370
-3
390
F
  0
LAYER
  5
201
100
AcDbSymbolTableRecord
100
AcDbLayerTableRecord
  2
03_AXES
 70
0
 62
7
  6
CONTINUOUS
370
-3
390
F
  0
LAYER
  5
202
100
AcDbSymbolTableRecord
100
AcDbLayerTableRecord
  2
04_POINTS
 70
0
 62
7
  6
CONTINUOUS
370
-3
390
F
  0
LAYER
  5
203
100
AcDbSymbolTableRecord
100
AcDbLayerTableRecord
  2
05_CURVES
 70
0
 62
7
  6
CONTINUOUS
370
-3
390
F
  0
LAYER
  5
204
100
AcDbSymbolTableRecord
100
AcDbLayerTableRecord
  2
06_SURFS
 70
0
 62
7
  6
CONTINUOUS
370
-3
390
F
  0
LAYER
  5
205
100
AcDbSymbolTableRecord
100
AcDbLayerTableRecord
  2
07_COSMETICS
 70
0
 62
7
  6
CONTINUOUS
370
-3
390
F
  0
LAYER
  5
206
100
AcDbSymbolTableRecord
100
AcDbLayerTableRecord
  2
10_NOTES
 70
0
 62
7
  6
CONTINUOUS
370
-3
390
F
  0
LAYER
  5
207
100
AcDbSymbolTableRecord
100
AcDbLayerTableRecord
  2
11_NOTES_PUB
 70
0
 62
7
  6
CONTINUOUS
370
-3
390
F
  0
LAYER
  5
208
100
AcDbSymbolTableRecord
100
AcDbLayerTableRecord
  2
13_REF_GTOL
 70
0
 62
7
  6
CONTINUOUS
370
-3
390
F
  0
LAYER
  5
209
100
AcDbSymbolTableRecord
100
AcDbLayerTableRecord
  2
16_MISC
 70
0
 62
7
  6
CONTINUOUS
370
-3
390
F
  0
LAYER
  5
20A
100
AcDbSymbolTableRecord
100
AcDbLayerTableRecord
  2
17_NO_PRINT
 70
0
 62
7
  6
CONTINUOUS
370
-3
390
F
  0
LAYER
  5
20B
100
AcDbSymbolTableRecord
100
AcDbLayerTableRecord
  2
18_DATUM_CAMS_JOINTS
 70
0
 62
7
  6
CONTINUOUS
370
-3
390
F
  0
LAYER
  5
20C
100
AcDbSymbolTableRecord
100
AcDbLayerTableRecord
  2
19_DATUM_FUNCTIONAL
 70
0
 62
7
  6
CONTINUOUS
370
-3
390
F
  0
LAYER
  5
20D
100
AcDbSymbolTableRecord
100
AcDbLayerTableRecord
  2
20_DATUM_KINEMATIC_SCHEME
 70
0
 62
7
  6
CONTINUOUS
370
-3
390
F
  0
ENDTAB
  0
TABLE
  2
STYLE
  5
3
100
AcDbSymbolTable
 70
1
  0
STYLE
  5
11
100
AcDbSymbolTableRecord
100
AcDbTextStyleTableRecord
  2
STANDARD
 70
0
 40
0.0
 41
0.8
 50
0.0
 71
0
 42
0.2
  3
txt
  4

  0
STYLE
  5
20E
100
AcDbSymbolTableRecord
100
AcDbTextStyleTableRecord
  2
TEXTSTYLE_1
 70
0
 40
0.0
 41
0.8
 50
0.0
 71
0
 42
0.2
  3
gdt
  4

  0
ENDTAB
  0
TABLE
  2
VIEW
  5
6
100
AcDbSymbolTable
 70
0
  0
ENDTAB
  0
TABLE
  2
UCS
  5
7
100
AcDbSymbolTable
 70
0
  0
ENDTAB
  0
TABLE
  2
APPID
  5
9
100
AcDbSymbolTable
 70
1
  0
APPID
  5
20F
100
AcDbSymbolTableRecord
100
AcDbRegAppTableRecord
  2
ACAD
 70
0
  0
ENDTAB
  0
TABLE
  2
BLOCK_RECORD
  5
1
100
AcDbSymbolTable
 70
0
  0
BLOCK_RECORD
  5
210
100
AcDbSymbolTableRecord
100
AcDbBlockTableRecord
  2
*Model_Space
  0
BLOCK_RECORD
  5
211
100
AcDbSymbolTableRecord
100
AcDbBlockTableRecord
  2
*Paper_Space
  0
BLOCK_RECORD
  5
212
100
AcDbSymbolTableRecord
100
AcDbBlockTableRecord
  2
_FILLED
  0
ENDTAB
  0
TABLE
  2
DIMSTYLE
  5
A
100
AcDbSymbolTable
 70
1
100
AcDbDimStyleTable
 71
0
  0
DIMSTYLE
105
213
100
AcDbSymbolTableRecord
100
AcDbDimStyleTableRecord
  2
STANDARD
 70
0
  3

  4

 40
1.0
 41
2.9815195558
 42
1.0
 43
0.38
 44
1.0
 45
0.0
 46
0.0
 47
0.01
 48
0.01
140
4.1741273781
141
0.09
142
0.0
143
25.4
144
1.0
145
0.0
146
1.0
147
0.625
 71
1
 72
0
 73
0
 74
0
 75
0
 76
0
 77
1
 78
8
 79
2
170
0
171
1
172
0
173
0
174
0
175
0
176
0
177
0
178
0
270
2
179
2
271
2
272
2
273
2
274
2
275
0
280
0
281
0
282
0
283
1
284
8
285
0
286
0
287
3
288
0
340
11
278
46
341
212
342
212
343
212
344
212
  0
ENDTAB
  0
ENDSEC
  0
SECTION
  2
BLOCKS
  0
BLOCK
  5
20
100
AcDbEntity
  8
0
100
AcDbBlockBegin
  2
*Model_Space
 70
0
 10
0.0
 20
0.0
 30
0.0
  3
*Model_Space
  1

  0
ENDBLK
  5
21
100
AcDbEntity
  8
0
100
AcDbBlockEnd
  0
BLOCK
  5
1C
100
AcDbEntity
  8
0
100
AcDbBlockBegin
  2
*Paper_Space
 70
0
 10
0.0
 20
0.0
 30
0.0
  3
*Paper_Space
  1

  0
ENDBLK
  5
1D
100
AcDbEntity
  8
0
100
AcDbBlockEnd
  0
BLOCK
  5
214
100
AcDbEntity
  8
0
100
AcDbBlockBegin
  2
_FILLED
 70
64
 10
0.0
 20
0.0
  3
_FILLED
  1

  0
SOLID
  5
215
100
AcDbEntity
  8
0
  6
BYBLOCK
 62
0
100
AcDbTrace
 10
0.0
 20
0.0
 11
-1.0
 21
0.25
 12
-1.0
 22
-0.25
 13
-1.0
 23
-0.25
  0
ENDBLK
  5
216
100
AcDbEntity
  8
0
  6
BYBLOCK
 62
0
100
AcDbBlockEnd
  0
ENDSEC
  0
SECTION
  2
ENTITIES
  0
LINE
  5
217
100
AcDbEntity
  8
0
100
AcDbLine
 62
7
  6
CONTINUOUS
 10
27.4599045895
 20
130.9519473127
 11
27.4599045895
 21
140.9519473127
  0
LINE
  5
218
100
AcDbEntity
  8
0
100
AcDbLine
 62
7
  6
CONTINUOUS
 10
48.4599045895
 20
127.9519473127
 11
48.4599045895
 21
143.9519473127
  0
LINE
  5
219
100
AcDbEntity
  8
0
100
AcDbLine
 62
7
  6
CONTINUOUS
 10
52.4599045895
 20
115.9519473127
 11
52.4599045895
 21
181.9519473127
  0
LINE
  5
21A
100
AcDbEntity
  8
0
100
AcDbLine
 62
7
  6
CONTINUOUS
 10
58.4599045895
 20
181.9519473127
 11
58.4599045895
 21
164.9519473127
  0
LINE
  5
21B
100
AcDbEntity
  8
0
100
AcDbLine
 62
7
  6
CONTINUOUS
 10
58.4599045895
 20
132.9519473127
 11
58.4599045895
 21
115.9519473127
  0
LINE
  5
21C
100
AcDbEntity
  8
0
100
AcDbLine
 62
7
  6
CONTINUOUS
 10
52.4599045895
 20
115.9519473127
 11
122.8599045895
 21
115.9519473127
  0
LINE
  5
21D
100
AcDbEntity
  8
0
100
AcDbLine
 62
7
  6
CONTINUOUS
 10
166.4599045895
 20
115.9519473127
 11
195.2759941377
 21
115.9519473127
  0
LINE
  5
21E
100
AcDbEntity
  8
0
100
AcDbLine
 62
7
  6
CONTINUOUS
 10
140.8599045895
 20
116.4319473127
 11
166.4599045895
 21
116.4319473127
  0
LINE
  5
21F
100
AcDbEntity
  8
0
100
AcDbLine
 62
7
  6
CONTINUOUS
 10
122.8599045895
 20
116.4519473127
 11
140.8599045895
 21
116.4519473127
  0
LINE
  5
220
100
AcDbEntity
  8
0
100
AcDbLine
 62
7
  6
CONTINUOUS
 10
196.3600525684
 20
119.6300231569
 11
166.4599045895
 21
119.6300231569
  0
LINE
  5
221
100
AcDbEntity
  8
0
100
AcDbLine
 62
7
  6
CONTINUOUS
 10
140.8599045895
 20
119.7830348698
 11
122.8599045895
 21
119.7830348698
  0
LINE
  5
222
100
AcDbEntity
  8
0
100
AcDbLine
 62
7
  6
CONTINUOUS
 10
166.4599045895
 20
119.7876905415
 11
140.8599045895
 21
119.7876905415
  0
LINE
  5
223
100
AcDbEntity
  8
0
100
AcDbLine
 62
7
  6
CONTINUOUS
 10
122.8599045895
 20
119.8137825511
 11
58.4599045895
 21
119.8137825511
  0
LINE
  5
224
100
AcDbEntity
  8
0
100
AcDbLine
 62
7
  6
CONTINUOUS
 10
58.4599045895
 20
122.7519473127
 11
52.4599045895
 21
122.7519473127
  0
LINE
  5
225
100
AcDbEntity
  8
0
100
AcDbLine
 62
7
  6
CONTINUOUS
 10
58.4599045895
 20
123.9813048216
 11
122.8599045895
 21
123.9813048216
  0
LINE
  5
226
100
AcDbEntity
  8
0
100
AcDbLine
 62
7
  6
CONTINUOUS
 10
166.4599045895
 20
124.0842339874
 11
197.1015915058
 21
124.0842339874
  0
LINE
  5
227
100
AcDbEntity
  8
0
100
AcDbLine
 62
7
  6
CONTINUOUS
 10
140.8599045895
 20
124.2156719874
 11
166.4599045895
 21
124.2156719874
  0
LINE
  5
228
100
AcDbEntity
  8
0
100
AcDbLine
 62
7
  6
CONTINUOUS
 10
122.8599045895
 20
124.2372457003
 11
140.8599045895
 21
124.2372457003
  0
LINE
  5
229
100
AcDbEntity
  8
0
100
AcDbLine
 62
7
  6
CONTINUOUS
 10
197.4684959367
 20
126.4744360474
 11
166.4599045895
 21
126.4744360474
  0
LINE
  5
22A
100
AcDbEntity
  8
0
100
AcDbLine
 62
7
  6
CONTINUOUS
 10
122.8599045895
 20
126.8172316643
 11
58.4599045895
 21
126.8172316643
  0
LINE
  5
22B
100
AcDbEntity
  8
0
100
AcDbLine
 62
7
  6
CONTINUOUS
 10
140.8599045895
 20
126.9504480386
 11
122.8599045895
 21
126.9504480386
  0
LINE
  5
22C
100
AcDbEntity
  8
0
100
AcDbLine
 62
7
  6
CONTINUOUS
 10
166.4599045895
 20
126.9573186995
 11
140.8599045895
 21
126.9573186995
  0
LINE
  5
22D
100
AcDbEntity
  8
0
100
AcDbLine
 62
7
  6
CONTINUOUS
 10
197.6556625025
 20
127.7519473127
 11
223.3477453644
 21
127.7519473127
  0
LINE
  5
22E
100
AcDbEntity
  8
0
100
AcDbLine
 62
7
  6
CONTINUOUS
 10
166.4599045895
 20
127.9062202062
 11
197.677954026
 21
127.9062202062
  0
LINE
  5
22F
100
AcDbEntity
  8
0
100
AcDbLine
 62
7
  6
CONTINUOUS
 10
58.4599045895
 20
127.9270776556
 11
122.8599045895
 21
127.9270776556
  0
LINE
  5
230
100
AcDbEntity
  8
0
100
AcDbLine
 62
7
  6
CONTINUOUS
 10
48.4599045895
 20
127.9519473127
 11
52.4599045895
 21
127.9519473127
  0
LINE
  5
231
100
AcDbEntity
  8
0
100
AcDbLine
 62
7
  6
CONTINUOUS
 10
140.8599045895
 20
128.3543800135
 11
166.4599045895
 21
128.3543800135
  0
LINE
  5
232
100
AcDbEntity
  8
0
100
AcDbLine
 62
7
  6
CONTINUOUS
 10
122.8599045895
 20
128.3822321974
 11
140.8599045895
 21
128.3822321974
  0
LINE
  5
233
100
AcDbEntity
  8
0
100
AcDbLine
 62
7
  6
CONTINUOUS
 10
223.767808958
 20
130.7519473127
 11
198.0385768203
 21
130.7519473127
  0
LINE
  5
234
100
AcDbEntity
  8
0
100
AcDbLine
 62
7
  6
CONTINUOUS
 10
27.4599045895
 20
130.9519473127
 11
48.4599045895
 21
130.9519473127
  0
LINE
  5
235
100
AcDbEntity
  8
0
100
AcDbLine
 62
7
  6
CONTINUOUS
 10
166.4599045895
 20
132.9319473127
 11
140.8599045895
 21
132.9319473127
  0
LINE
  5
236
100
AcDbEntity
  8
0
100
AcDbLine
 62
7
  6
CONTINUOUS
 10
172.4599045895
 20
132.9519473127
 11
166.4599045895
 21
132.9519473127
  0
LINE
  5
237
100
AcDbEntity
  8
0
100
AcDbLine
 62
7
  6
CONTINUOUS
 10
140.8599045895
 20
132.9519473127
 11
58.4599045895
 21
132.9519473127
  0
LINE
  5
238
100
AcDbEntity
  8
0
100
AcDbLine
 62
7
  6
CONTINUOUS
 10
48.4599045895
 20
140.9519473127
 11
27.4599045895
 21
140.9519473127
  0
LINE
  5
239
100
AcDbEntity
  8
0
100
AcDbLine
 62
7
  6
CONTINUOUS
 10
52.4599045895
 20
143.9519473127
 11
48.4599045895
 21
143.9519473127
  0
LINE
  5
23A
100
AcDbEntity
  8
0
100
AcDbLine
 62
7
  6
CONTINUOUS
 10
58.4599045895
 20
164.9519473127
 11
140.8599045895
 21
164.9519473127
  0
LINE
  5
23B
100
AcDbEntity
  8
0
100
AcDbLine
 62
7
  6
CONTINUOUS
 10
166.4599045895
 20
164.9519473127
 11
172.4599045895
 21
164.9519473127
  0
LINE
  5
23C
100
AcDbEntity
  8
0
100
AcDbLine
 62
7
  6
CONTINUOUS
 10
140.8599045895
 20
164.9719473127
 11
166.4599045895
 21
164.9719473127
  0
LINE
  5
23D
100
AcDbEntity
  8
0
100
AcDbLine
 62
7
  6
CONTINUOUS
 10
140.8599045895
 20
169.521662428
 11
122.8599045895
 21
169.521662428
  0
LINE
  5
23E
100
AcDbEntity
  8
0
100
AcDbLine
 62
7
  6
CONTINUOUS
 10
166.4599045895
 20
169.5495146119
 11
140.8599045895
 21
169.5495146119
  0
LINE
  5
23F
100
AcDbEntity
  8
0
100
AcDbLine
 62
7
  6
CONTINUOUS
 10
122.8599045895
 20
181.9519473127
 11
122.8599045895
 21
115.9519473127
  0
LINE
  5
240
100
AcDbEntity
  8
0
100
AcDbLine
 62
7
  6
CONTINUOUS
 10
122.8599045895
 20
169.9768169698
 11
58.4599045895
 21
169.9768169698
  0
LINE
  5
241
100
AcDbEntity
  8
0
100
AcDbLine
 62
7
  6
CONTINUOUS
 10
200.3799810929
 20
169.9976744192
 11
166.4599045895
 21
169.9976744192
  0
LINE
  5
242
100
AcDbEntity
  8
0
100
AcDbLine
 62
7
  6
CONTINUOUS
 10
172.4599045895
 20
170.2297333875
 11
200.0919080367
 21
170.2297333875
  0
LINE
  5
243
100
AcDbEntity
  8
0
100
AcDbLine
 62
7
  6
CONTINUOUS
 10
166.4599045895
 20
170.2618778955
 11
172.4599045895
 21
170.2618778955
  0
LINE
  5
244
100
AcDbEntity
  8
0
100
AcDbLine
 62
7
  6
CONTINUOUS
 10
166.4599045895
 20
170.5618778955
 11
153.4599045895
 21
170.5618778955
  0
LINE
  5
245
100
AcDbEntity
  8
0
100
AcDbLine
 62
7
  6
CONTINUOUS
 10
140.8599045895
 20
170.9465759259
 11
153.4599045895
 21
170.9465759259
  0
LINE
  5
246
100
AcDbEntity
  8
0
100
AcDbLine
 62
7
  6
CONTINUOUS
 10
122.8599045895
 20
170.9534465868
 11
140.8599045895
 21
170.9534465868
  0
LINE
  5
247
100
AcDbEntity
  8
0
100
AcDbLine
 62
7
  6
CONTINUOUS
 10
58.4599045895
 20
171.0866629611
 11
122.8599045895
 21
171.0866629611
  0
LINE
  5
248
100
AcDbEntity
  8
0
100
AcDbLine
 62
7
  6
CONTINUOUS
 10
140.8599045895
 20
173.6666489251
 11
122.8599045895
 21
173.6666489251
  0
LINE
  5
249
100
AcDbEntity
  8
0
100
AcDbLine
 62
7
  6
CONTINUOUS
 10
153.4599045895
 20
173.6882226379
 11
140.8599045895
 21
173.6882226379
  0
LINE
  5
24A
100
AcDbEntity
  8
0
100
AcDbLine
 62
7
  6
CONTINUOUS
 10
122.8599045895
 20
173.9225898037
 11
58.4599045895
 21
173.9225898037
  0
LINE
  5
24B
100
AcDbEntity
  8
0
100
AcDbLine
 62
7
  6
CONTINUOUS
 10
52.4599045895
 20
175.1519473127
 11
58.4599045895
 21
175.1519473127
  0
LINE
  5
24C
100
AcDbEntity
  8
0
100
AcDbLine
 62
7
  6
CONTINUOUS
 10
58.4599045895
 20
178.0901120743
 11
122.8599045895
 21
178.0901120743
  0
LINE
  5
24D
100
AcDbEntity
  8
0
100
AcDbLine
 62
7
  6
CONTINUOUS
 10
140.8599045895
 20
178.1162040838
 11
153.4599045895
 21
178.1162040838
  0
LINE
  5
24E
100
AcDbEntity
  8
0
100
AcDbLine
 62
7
  6
CONTINUOUS
 10
122.8599045895
 20
178.1208597556
 11
140.8599045895
 21
178.1208597556
  0
LINE
  5
24F
100
AcDbEntity
  8
0
100
AcDbLine
 62
7
  6
CONTINUOUS
 10
140.8599045895
 20
181.4519473127
 11
122.8599045895
 21
181.4519473127
  0
LINE
  5
250
100
AcDbEntity
  8
0
100
AcDbLine
 62
7
  6
CONTINUOUS
 10
153.4599045895
 20
181.4719473127
 11
140.8599045895
 21
181.4719473127
  0
LINE
  5
251
100
AcDbEntity
  8
0
100
AcDbLine
 62
7
  6
CONTINUOUS
 10
122.8599045895
 20
181.9519473127
 11
52.4599045895
 21
181.9519473127
  0
LINE
  5
252
100
AcDbEntity
  8
0
100
AcDbLine
 62
7
  6
CONTINUOUS
 10
140.8599045895
 20
116.4319473127
 11
140.8599045895
 21
124.2372457003
  0
LINE
  5
253
100
AcDbEntity
  8
0
100
AcDbLine
 62
7
  6
CONTINUOUS
 10
140.8599045895
 20
126.9504480386
 11
140.8599045895
 21
170.9534465868
  0
LINE
  5
254
100
AcDbEntity
  8
0
100
AcDbLine
 62
7
  6
CONTINUOUS
 10
140.8599045895
 20
173.6666489251
 11
140.8599045895
 21
181.4719473127
  0
LINE
  5
255
100
AcDbEntity
  8
0
100
AcDbLine
 62
7
  6
CONTINUOUS
 10
153.4599045895
 20
185.5519473127
 11
172.4599045895
 21
185.5519473127
  0
LINE
  5
256
100
AcDbEntity
  8
0
100
AcDbLine
 62
7
  6
CONTINUOUS
 10
172.4599045895
 20
185.6519473127
 11
153.4599045895
 21
185.6519473127
  0
LINE
  5
257
100
AcDbEntity
  8
0
100
AcDbLine
 62
7
  6
CONTINUOUS
 10
151.4599045895
 20
186.3519473127
 11
153.4599045895
 21
186.3519473127
  0
LINE
  5
258
100
AcDbEntity
  8
0
100
AcDbLine
 62
7
  6
CONTINUOUS
 10
153.4599045895
 20
191.1519473127
 11
151.4599045895
 21
191.1519473127
  0
LINE
  5
259
100
AcDbEntity
  8
0
100
AcDbLine
 62
7
  6
CONTINUOUS
 10
147.9599045895
 20
196.2019564469
 11
147.9599045895
 21
205.7019381785
  0
LINE
  5
25A
100
AcDbEntity
  8
0
100
AcDbLine
 62
7
  6
CONTINUOUS
 10
147.9599045895
 20
196.2019473127
 11
151.4599045895
 21
195.5848028802
  0
LINE
  5
25B
100
AcDbEntity
  8
0
100
AcDbLine
 62
7
  6
CONTINUOUS
 10
151.4599045895
 20
186.3519473127
 11
151.4599045895
 21
216.4519473127
  0
LINE
  5
25C
100
AcDbEntity
  8
0
100
AcDbLine
 62
7
  6
CONTINUOUS
 10
153.4599045895
 20
219.9519473127
 11
153.4599045895
 21
185.6519473127
  0
LINE
  5
25D
100
AcDbEntity
  8
0
100
AcDbLine
 62
7
  6
CONTINUOUS
 10
153.4599045895
 20
170.5618778955
 11
153.4599045895
 21
185.5519473127
  0
LINE
  5
25E
100
AcDbEntity
  8
0
100
AcDbLine
 62
7
  6
CONTINUOUS
 10
153.9599045895
 20
216.9519473127
 11
153.9599045895
 21
218.5519473127
  0
LINE
  5
25F
100
AcDbEntity
  8
0
100
AcDbLine
 62
7
  6
CONTINUOUS
 10
156.4599045895
 20
185.6519473127
 11
156.4599045895
 21
216.9519473127
  0
LINE
  5
260
100
AcDbEntity
  8
0
100
AcDbLine
 62
7
  6
CONTINUOUS
 10
156.9599045895
 20
219.9519473127
 11
156.9599045895
 21
219.3519473127
  0
LINE
  5
261
100
AcDbEntity
  8
0
100
AcDbLine
 62
7
  6
CONTINUOUS
 10
147.9599045895
 20
205.7019473127
 11
151.4599045895
 21
206.3190917452
  0
LINE
  5
262
100
AcDbEntity
  8
0
100
AcDbLine
 62
7
  6
CONTINUOUS
 10
159.9599045895
 20
219.9519473127
 11
159.9599045895
 21
216.9519473127
  0
LINE
  5
263
100
AcDbEntity
  8
0
100
AcDbLine
 62
7
  6
CONTINUOUS
 10
160.4599045895
 20
219.9519473127
 11
160.4599045895
 21
223.4519473127
  0
LINE
  5
264
100
AcDbEntity
  8
0
100
AcDbLine
 62
7
  6
CONTINUOUS
 10
164.9599045895
 20
225.4519473127
 11
164.9599045895
 21
229.4519473127
  0
LINE
  5
265
100
AcDbEntity
  8
0
100
AcDbLine
 62
7
  6
CONTINUOUS
 10
165.4599045895
 20
229.4519473127
 11
165.4599045895
 21
225.4519473127
  0
LINE
  5
266
100
AcDbEntity
  8
0
100
AcDbLine
 62
7
  6
CONTINUOUS
 10
166.4599045895
 20
115.9519473127
 11
166.4599045895
 21
170.5618778955
  0
LINE
  5
267
100
AcDbEntity
  8
0
100
AcDbLine
 62
7
  6
CONTINUOUS
 10
223.3477453644
 20
213.9519473127
 11
153.4599045895
 21
213.9519473127
  0
LINE
  5
268
100
AcDbEntity
  8
0
100
AcDbLine
 62
7
  6
CONTINUOUS
 10
167.4599045895
 20
232.4519473127
 11
167.4599045895
 21
223.932305766
  0
LINE
  5
269
100
AcDbEntity
  8
0
100
AcDbLine
 62
7
  6
CONTINUOUS
 10
168.4599045895
 20
223.4519473127
 11
168.4599045895
 21
219.9519473127
  0
LINE
  5
26A
100
AcDbEntity
  8
0
100
AcDbLine
 62
7
  6
CONTINUOUS
 10
168.9599045895
 20
232.4519473127
 11
168.9599045895
 21
222.4519473127
  0
LINE
  5
26B
100
AcDbEntity
  8
0
100
AcDbLine
 62
7
  6
CONTINUOUS
 10
172.4599045895
 20
164.9519473127
 11
172.4599045895
 21
132.9519473127
  0
LINE
  5
26C
100
AcDbEntity
  8
0
100
AcDbLine
 62
7
  6
CONTINUOUS
 10
172.4599045895
 20
170.2297333875
 11
172.4599045895
 21
185.6519473127
  0
LINE
  5
26D
100
AcDbEntity
  8
0
100
AcDbLine
 62
7
  6
CONTINUOUS
 10
172.9599045895
 20
224.0519473127
 11
172.9599045895
 21
222.4519473127
  0
LINE
  5
26E
100
AcDbEntity
  8
0
100
AcDbLine
 62
7
  6
CONTINUOUS
 10
173.3905615238
 20
222.4519473127
 11
173.3905615238
 21
219.9519473127
  0
LINE
  5
26F
100
AcDbEntity
  8
0
100
AcDbLine
 62
7
  6
CONTINUOUS
 10
151.4599045895
 20
216.4519473127
 11
153.4599045895
 21
216.4519473127
  0
LINE
  5
270
100
AcDbEntity
  8
0
100
AcDbLine
 62
7
  6
CONTINUOUS
 10
153.4599045895
 20
216.9519473127
 11
159.9599045895
 21
216.9519473127
  0
LINE
  5
271
100
AcDbEntity
  8
0
100
AcDbLine
 62
7
  6
CONTINUOUS
 10
212.9599045895
 20
216.9519473127
 11
218.9599045895
 21
216.9519473127
  0
LINE
  5
272
100
AcDbEntity
  8
0
100
AcDbLine
 62
7
  6
CONTINUOUS
 10
153.9599045895
 20
218.5519473127
 11
159.9599045895
 21
218.5519473127
  0
LINE
  5
273
100
AcDbEntity
  8
0
100
AcDbLine
 62
7
  6
CONTINUOUS
 10
212.9599045895
 20
218.5519473127
 11
218.9599045895
 21
218.5519473127
  0
LINE
  5
274
100
AcDbEntity
  8
0
100
AcDbLine
 62
7
  6
CONTINUOUS
 10
215.9662459059
 20
219.3519510175
 11
215.9535632731
 21
219.3519510175
  0
LINE
  5
275
100
AcDbEntity
  8
0
100
AcDbLine
 62
7
  6
CONTINUOUS
 10
156.9662459059
 20
219.3519510175
 11
156.9535632731
 21
219.3519510175
  0
LINE
  5
276
100
AcDbEntity
  8
0
100
AcDbLine
 62
7
  6
CONTINUOUS
 10
153.4599045895
 20
219.9519473127
 11
221.7095979475
 21
219.9519473127
  0
LINE
  5
277
100
AcDbEntity
  8
0
100
AcDbLine
 62
7
  6
CONTINUOUS
 10
168.4599045895
 20
222.4519473127
 11
186.9599045895
 21
222.4519473127
  0
LINE
  5
278
100
AcDbEntity
  8
0
100
AcDbLine
 62
7
  6
CONTINUOUS
 10
193.4599045895
 20
222.9519473127
 11
213.4599045895
 21
222.9519473127
  0
LINE
  5
279
100
AcDbEntity
  8
0
100
AcDbLine
 62
7
  6
CONTINUOUS
 10
160.4599045895
 20
223.4519473127
 11
168.4599045895
 21
223.4519473127
  0
LINE
  5
27A
100
AcDbEntity
  8
0
100
AcDbLine
 62
7
  6
CONTINUOUS
 10
172.9599045895
 20
224.0519473127
 11
178.9599045895
 21
224.0519473127
  0
LINE
  5
27B
100
AcDbEntity
  8
0
100
AcDbLine
 62
7
  6
CONTINUOUS
 10
178.5292476552
 20
219.9519473127
 11
178.5292476552
 21
222.4519473127
  0
LINE
  5
27C
100
AcDbEntity
  8
0
100
AcDbLine
 62
7
  6
CONTINUOUS
 10
178.9599045895
 20
224.0519473127
 11
178.9599045895
 21
222.4519473127
  0
LINE
  5
27D
100
AcDbEntity
  8
0
100
AcDbLine
 62
7
  6
CONTINUOUS
 10
164.4658493478
 20
224.5519498172
 11
164.4539598312
 21
224.5519498172
  0
LINE
  5
27E
100
AcDbEntity
  8
0
100
AcDbLine
 62
7
  6
CONTINUOUS
 10
186.9599045895
 20
225.4519473127
 11
186.4599045895
 21
225.4519473127
  0
LINE
  5
27F
100
AcDbEntity
  8
0
100
AcDbLine
 62
7
  6
CONTINUOUS
 10
165.4599045895
 20
225.4519473127
 11
164.9599045895
 21
225.4519473127
  0
LINE
  5
280
100
AcDbEntity
  8
0
100
AcDbLine
 62
7
  6
CONTINUOUS
 10
195.9599045895
 20
225.4519473127
 11
207.3436294072
 21
225.4519473127
  0
LINE
  5
281
100
AcDbEntity
  8
0
100
AcDbLine
 62
7
  6
CONTINUOUS
 10
208.9806999616
 20
225.4519473127
 11
210.9599045895
 21
225.4519473127
  0
LINE
  5
282
100
AcDbEntity
  8
0
100
AcDbLine
 62
7
  6
CONTINUOUS
 10
186.4599045895
 20
225.9519473127
 11
184.4599045895
 21
225.9519473127
  0
LINE
  5
283
100
AcDbEntity
  8
0
100
AcDbLine
 62
7
  6
CONTINUOUS
 10
167.4599045895
 20
225.9519473127
 11
165.4599045895
 21
225.9519473127
  0
LINE
  5
284
100
AcDbEntity
  8
0
100
AcDbLine
 62
7
  6
CONTINUOUS
 10
195.9599045895
 20
225.9519473127
 11
196.7099045895
 21
225.9519473127
  0
LINE
  5
285
100
AcDbEntity
  8
0
100
AcDbLine
 62
7
  6
CONTINUOUS
 10
210.2099045895
 20
225.9519473127
 11
210.9599045895
 21
225.9519473127
  0
LINE
  5
286
100
AcDbEntity
  8
0
100
AcDbLine
 62
7
  6
CONTINUOUS
 10
165.4599045895
 20
228.9519473127
 11
167.4599045895
 21
228.9519473127
  0
LINE
  5
287
100
AcDbEntity
  8
0
100
AcDbLine
 62
7
  6
CONTINUOUS
 10
184.4599045895
 20
228.9519473127
 11
186.4599045895
 21
228.9519473127
  0
LINE
  5
288
100
AcDbEntity
  8
0
100
AcDbLine
 62
7
  6
CONTINUOUS
 10
164.9599045895
 20
229.4519473127
 11
165.4599045895
 21
229.4519473127
  0
LINE
  5
289
100
AcDbEntity
  8
0
100
AcDbLine
 62
7
  6
CONTINUOUS
 10
186.4599045895
 20
229.4519473127
 11
186.9599045895
 21
229.4519473127
  0
LINE
  5
28A
100
AcDbEntity
  8
0
100
AcDbLine
 62
7
  6
CONTINUOUS
 10
182.9599045895
 20
232.4519473127
 11
182.9599045895
 21
222.4519473127
  0
LINE
  5
28B
100
AcDbEntity
  8
0
100
AcDbLine
 62
7
  6
CONTINUOUS
 10
184.4599045895
 20
232.4519473127
 11
184.4599045895
 21
222.4519473127
  0
LINE
  5
28C
100
AcDbEntity
  8
0
100
AcDbLine
 62
7
  6
CONTINUOUS
 10
186.4599045895
 20
225.4519473127
 11
186.4599045895
 21
229.4519473127
  0
LINE
  5
28D
100
AcDbEntity
  8
0
100
AcDbLine
 62
7
  6
CONTINUOUS
 10
186.9599045895
 20
229.4519473127
 11
186.9599045895
 21
225.4519473127
  0
LINE
  5
28E
100
AcDbEntity
  8
0
100
AcDbLine
 62
7
  6
CONTINUOUS
 10
186.9599045895
 20
222.4519473127
 11
186.9599045895
 21
219.9519473127
  0
LINE
  5
28F
100
AcDbEntity
  8
0
100
AcDbLine
 62
7
  6
CONTINUOUS
 10
196.7099045895
 20
231.9519473127
 11
210.2099045895
 21
231.9519473127
  0
LINE
  5
290
100
AcDbEntity
  8
0
100
AcDbLine
 62
7
  6
CONTINUOUS
 10
167.4599045895
 20
232.4519473127
 11
184.4599045895
 21
232.4519473127
  0
LINE
  5
291
100
AcDbEntity
  8
0
100
AcDbLine
 62
7
  6
CONTINUOUS
 10
199.4599045895
 20
233.9519473127
 11
207.4599045895
 21
233.9519473127
  0
LINE
  5
292
100
AcDbEntity
  8
0
100
AcDbLine
 62
7
  6
CONTINUOUS
 10
197.4599045895
 20
235.9519473127
 11
209.4599045895
 21
235.9519473127
  0
LINE
  5
293
100
AcDbEntity
  8
0
100
AcDbLine
 62
7
  6
CONTINUOUS
 10
198.2099045895
 20
236.9519473127
 11
208.7099045895
 21
236.9519473127
  0
LINE
  5
294
100
AcDbEntity
  8
0
100
AcDbLine
 62
7
  6
CONTINUOUS
 10
193.4599045895
 20
219.9519473127
 11
193.4599045895
 21
222.9519473127
  0
LINE
  5
295
100
AcDbEntity
  8
0
100
AcDbLine
 62
7
  6
CONTINUOUS
 10
193.4862264837
 20
219.9519473127
 11
193.4862264837
 21
222.9519473127
  0
LINE
  5
296
100
AcDbEntity
  8
0
100
AcDbLine
 62
7
  6
CONTINUOUS
 10
195.9599045895
 20
222.9519473127
 11
195.9599045895
 21
225.9519473127
  0
LINE
  5
297
100
AcDbEntity
  8
0
100
AcDbLine
 62
7
  6
CONTINUOUS
 10
196.7099045895
 20
225.4519473127
 11
196.7099045895
 21
231.9519473127
  0
LINE
  5
298
100
AcDbEntity
  8
0
100
AcDbLine
 62
7
  6
CONTINUOUS
 10
197.4599045895
 20
231.9519473127
 11
197.4599045895
 21
235.9519473127
  0
LINE
  5
299
100
AcDbEntity
  8
0
100
AcDbLine
 62
7
  6
CONTINUOUS
 10
197.8451254272
 20
222.9519473127
 11
197.8451254272
 21
219.9519473127
  0
LINE
  5
29A
100
AcDbEntity
  8
0
100
AcDbLine
 62
7
  6
CONTINUOUS
 10
198.2099045895
 20
235.9519473127
 11
198.2099045895
 21
236.9519473127
  0
LINE
  5
29B
100
AcDbEntity
  8
0
100
AcDbLine
 62
7
  6
CONTINUOUS
 10
199.1010056459
 20
219.9519473127
 11
199.1010056459
 21
222.9519473127
  0
LINE
  5
29C
100
AcDbEntity
  8
0
100
AcDbLine
 62
7
  6
CONTINUOUS
 10
199.4599045895
 20
231.9519473127
 11
199.4599045895
 21
233.9519473127
  0
LINE
  5
29D
100
AcDbEntity
  8
0
100
AcDbLine
 62
7
  6
CONTINUOUS
 10
205.7098698408
 20
222.9519473127
 11
205.7098698408
 21
225.4519473127
  0
LINE
  5
29E
100
AcDbEntity
  8
0
100
AcDbLine
 62
7
  6
CONTINUOUS
 10
207.3436294072
 20
225.4519473127
 11
207.3436294072
 21
231.9519473127
  0
LINE
  5
29F
100
AcDbEntity
  8
0
100
AcDbLine
 62
7
  6
CONTINUOUS
 10
207.4599045895
 20
233.9519473127
 11
207.4599045895
 21
231.9519473127
  0
LINE
  5
2A0
100
AcDbEntity
  8
0
100
AcDbLine
 62
7
  6
CONTINUOUS
 10
207.818803533
 20
222.9519473127
 11
207.818803533
 21
219.9519473127
  0
LINE
  5
2A1
100
AcDbEntity
  8
0
100
AcDbLine
 62
7
  6
CONTINUOUS
 10
208.7099045895
 20
236.9519473127
 11
208.7099045895
 21
235.9519473127
  0
LINE
  5
2A2
100
AcDbEntity
  8
0
100
AcDbLine
 62
7
  6
CONTINUOUS
 10
208.9806999616
 20
231.9519473127
 11
208.9806999616
 21
225.4519473127
  0
LINE
  5
2A3
100
AcDbEntity
  8
0
100
AcDbLine
 62
7
  6
CONTINUOUS
 10
209.0746837518
 20
219.9519473127
 11
209.0746837518
 21
222.9519473127
  0
LINE
  5
2A4
100
AcDbEntity
  8
0
100
AcDbLine
 62
7
  6
CONTINUOUS
 10
209.4599045895
 20
235.9519473127
 11
209.4599045895
 21
231.9519473127
  0
LINE
  5
2A5
100
AcDbEntity
  8
0
100
AcDbLine
 62
7
  6
CONTINUOUS
 10
210.2099045895
 20
231.9519473127
 11
210.2099045895
 21
225.4519473127
  0
LINE
  5
2A6
100
AcDbEntity
  8
0
100
AcDbLine
 62
7
  6
CONTINUOUS
 10
210.614459528
 20
225.4519473127
 11
210.614459528
 21
222.9519473127
  0
LINE
  5
2A7
100
AcDbEntity
  8
0
100
AcDbLine
 62
7
  6
CONTINUOUS
 10
210.9599045895
 20
225.9519473127
 11
210.9599045895
 21
222.9519473127
  0
LINE
  5
2A8
100
AcDbEntity
  8
0
100
AcDbLine
 62
7
  6
CONTINUOUS
 10
212.9599045895
 20
219.9519473127
 11
212.9599045895
 21
216.9519473127
  0
LINE
  5
2A9
100
AcDbEntity
  8
0
100
AcDbLine
 62
7
  6
CONTINUOUS
 10
213.4335826953
 20
222.9519473127
 11
213.4335826953
 21
219.9519473127
  0
LINE
  5
2AA
100
AcDbEntity
  8
0
100
AcDbLine
 62
7
  6
CONTINUOUS
 10
213.4599045895
 20
222.9519473127
 11
213.4599045895
 21
219.9519473127
  0
LINE
  5
2AB
100
AcDbEntity
  8
0
100
AcDbLine
 62
7
  6
CONTINUOUS
 10
218.9599045895
 20
219.9519473127
 11
218.9599045895
 21
216.9519473127
  0
LINE
  5
2AC
100
AcDbEntity
  8
0
100
AcDbLine
 62
7
  6
CONTINUOUS
 10
218.9599045895
 20
213.9519473127
 11
218.9599045895
 21
127.7519473127
  0
LINE
  5
2AD
100
AcDbEntity
  8
0
100
AcDbLine
 62
7
  6
CONTINUOUS
 10
222.6599045895
 20
213.9519473127
 11
221.7095979475
 21
219.9519473127
  0
ARC
  5
2AE
100
AcDbEntity
  8
0
100
AcDbCircle
 62
7
  6
CONTINUOUS
 10
-73.5400954105
 20
170.8519473127
 40
300.0
100
AcDbArc
 50
351.7399235704
 51
8.2600764296
  0
ARC
  5
2AF
100
AcDbEntity
  8
0
100
AcDbCircle
 62
7
  6
CONTINUOUS
 10
-73.5400954105
 20
166.8519473127
 40
274.0
100
AcDbArc
 50
349.3809658895
 51
0.6075351892
  0
ARC
  5
2B0
100
AcDbEntity
  8
0
100
AcDbCircle
 62
7
  6
CONTINUOUS
 10
164.4536539007
 20
216.7519498172
 40
7.8
100
AcDbArc
 50
89.954084856
 51
120.7984176416
  0
ARC
  5
2B1
100
AcDbEntity
  8
0
100
AcDbCircle
 62
7
  6
CONTINUOUS
 10
164.4661552782
 20
216.7519498172
 40
7.8
100
AcDbArc
 50
59.2015823584
 51
90.045915144
  0
ARC
  5
2B2
100
AcDbEntity
  8
0
100
AcDbCircle
 62
7
  6
CONTINUOUS
 10
175.9132846636
 20
218.6521225908
 40
6.2
100
AcDbArc
 50
60.5679963153
 51
89.5691693284
  0
ARC
  5
2B3
100
AcDbEntity
  8
0
100
AcDbCircle
 62
7
  6
CONTINUOUS
 10
176.0065245153
 20
218.6521225908
 40
6.2
100
AcDbArc
 50
90.4308306716
 51
119.4320036847
  0
ARC
  5
2B4
100
AcDbEntity
  8
0
100
AcDbCircle
 62
7
  6
CONTINUOUS
 10
215.9665722441
 20
213.3519510175
 40
6.0
100
AcDbArc
 50
60.0734942192
 51
90.0636714245
  0
ARC
  5
2B5
100
AcDbEntity
  8
0
100
AcDbCircle
 62
7
  6
CONTINUOUS
 10
215.9532369349
 20
213.3519510175
 40
6.0
100
AcDbArc
 50
89.9363285755
 51
119.9265057808
  0
ARC
  5
2B6
100
AcDbEntity
  8
0
100
AcDbCircle
 62
7
  6
CONTINUOUS
 10
156.9532369349
 20
213.3519510175
 40
6.0
100
AcDbArc
 50
89.9363285755
 51
119.9265057808
  0
ARC
  5
2B7
100
AcDbEntity
  8
0
100
AcDbCircle
 62
7
  6
CONTINUOUS
 10
156.9665722441
 20
213.3519510175
 40
6.0
100
AcDbArc
 50
60.0734942192
 51
90.0636714245
  0
ARC
  5
2B8
100
AcDbEntity
  8
0
100
AcDbCircle
 62
7
  6
CONTINUOUS
 10
199.9445293858
 20
169.7519473127
 40
0.5
100
AcDbArc
 50
0.6075351892
 51
72.857015308
  0
ARC
  5
2B9
100
AcDbEntity
  8
0
100
AcDbCircle
 62
7
  6
CONTINUOUS
 10
195.2759941377
 20
116.4519473127
 40
0.5
100
AcDbArc
 50
270.0
 51
349.3809658896
  0
SPLINE
  5
2BA
100
AcDbEntity
  8
0
100
AcDbSpline
 62
7
  6
CONTINUOUS
 70
0
 71
3
 72
15
 73
11
 74
0
 42
0.0000001
 43
0.0000001
 44
0.0000000001
 40
0.0
 40
0.0
 40
0.0
 40
0.0
 40
0.2500940459
 40
0.3751584989
 40
0.5002170638
 40
0.6252562919
 40
0.7502362213
 40
0.8750207606
 40
0.9375185432
 40
1.0
 40
1.0
 40
1.0
 40
1.0
 10
151.4580444814
 20
202.9020070055
 30
0.0
 10
151.2348570665
 20
202.7937063039
 30
0.0
 10
150.9042518659
 20
202.6219358181
 30
0.0
 10
150.4800960213
 20
202.364088805
 30
0.0
 10
150.1740904233
 20
202.1518159636
 30
0.0
 10
149.8868356935
 20
201.9142988615
 30
0.0
 10
149.6312062059
 20
201.6427572313
 30
0.0
 10
149.4661552982
 20
201.3757176943
 30
0.0
 10
149.3910541727
 20
201.1382597499
 30
0.0
 10
149.3777250444
 20
201.0139245784
 30
0.0
 10
149.3777250444
 20
200.9519473127
 30
0.0
  0
SPLINE
  5
2BB
100
AcDbEntity
  8
0
100
AcDbSpline
 62
7
  6
CONTINUOUS
 70
0
 71
3
 72
29
 73
25
 74
0
 42
0.0000001
 43
0.0000001
 44
0.0000000001
 40
0.0
 40
0.0
 40
0.0
 40
0.0
 40
0.0720422738
 40
0.1431397662
 40
0.2129346078
 40
0.2808418001
 40
0.3458368108
 40
0.3767147182
 40
0.4060551209
 40
0.4333822579
 40
0.4581676757
 40
0.4801357681
 40
0.4999940253
 40
0.5198530829
 40
0.5418231097
 40
0.5666104904
 40
0.5939391326
 40
0.6232804662
 40
0.6541591571
 40
0.7191558882
 40
0.7870640199
 40
0.8568594591
 40
0.9279574094
 40
1.0
 40
1.0
 40
1.0
 40
1.0
 10
151.4579468069
 20
206.2570805774
 30
0.0
 10
151.3469329181
 20
206.2301453346
 30
0.0
 10
151.1267923558
 20
206.1748178171
 30
0.0
 10
150.8011002842
 20
206.0856756061
 30
0.0
 10
150.4842332617
 20
205.9894686811
 30
0.0
 10
150.1804302152
 20
205.8843026069
 30
0.0
 10
149.9399364532
 20
205.7855324638
 30
0.0
 10
149.7621429304
 20
205.6969299647
 30
0.0
 10
149.6421693446
 20
205.6268267153
 30
0.0
 10
149.5370530341
 20
205.5512951056
 30
0.0
 10
149.4519200338
 20
205.4695538643
 30
0.0
 10
149.3929555664
 20
205.3802150872
 30
0.0
 10
149.3704860593
 20
205.2820356855
 30
0.0
 10
149.3929891333
 20
205.1838618059
 30
0.0
 10
149.4519755454
 20
205.0945300059
 30
0.0
 10
149.5371256925
 20
205.0127945442
 30
0.0
 10
149.6422542543
 20
204.9372684034
 30
0.0
 10
149.7622359882
 20
204.8671691614
 30
0.0
 10
149.9400373117
 20
204.7785701483
 30
0.0
 10
150.1805394923
 20
204.6798062429
 30
0.0
 10
150.4843489104
 20
204.5746430375
 30
0.0
 10
150.8012200925
 20
204.4784388865
 30
0.0
 10
151.1269150839
 20
204.3892991647
 30
0.0
 10
151.3470570958
 20
204.3339723694
 30
0.0
 10
151.458071692
 20
204.3070379114
 30
0.0
  0
SPLINE
  5
2BC
100
AcDbEntity
  8
0
100
AcDbSpline
 62
7
  6
CONTINUOUS
 70
0
 71
3
 72
15
 73
11
 74
0
 42
0.0000001
 43
0.0000001
 44
0.0000000001
 40
0.0
 40
0.0
 40
0.0
 40
0.0
 40
0.2500940478
 40
0.3751585028
 40
0.5002170719
 40
0.6252563095
 40
0.7502362595
 40
0.875020823
 40
0.937518587
 40
1.0
 40
1.0
 40
1.0
 40
1.0
 10
151.4580433569
 20
199.0018881629
 30
0.0
 10
151.2348560465
 20
199.1101888462
 30
0.0
 10
150.9042509958
 20
199.2819592902
 30
0.0
 10
150.4800953531
 20
199.5398062508
 30
0.0
 10
150.1740899005
 20
199.7520790552
 30
0.0
 10
149.8868353007
 20
199.9895961236
 30
0.0
 10
149.6312059435
 20
200.2611377376
 30
0.0
 10
149.466155164
 20
200.5281772321
 30
0.0
 10
149.3910541461
 20
200.7656350599
 30
0.0
 10
149.3777250444
 20
200.8899701164
 30
0.0
 10
149.3777250444
 20
200.9519473127
 30
0.0
  0
SPLINE
  5
2BD
100
AcDbEntity
  8
0
100
AcDbSpline
 62
7
  6
CONTINUOUS
 70
0
 71
3
 72
29
 73
25
 74
0
 42
0.0000001
 43
0.0000001
 44
0.0000000001
 40
0.0
 40
0.0
 40
0.0
 40
0.0
 40
0.0720422738
 40
0.1431397662
 40
0.2129346078
 40
0.2808418001
 40
0.3458368108
 40
0.3767147182
 40
0.4060551209
 40
0.4333822579
 40
0.4581676757
 40
0.4801357681
 40
0.4999940253
 40
0.5198530829
 40
0.5418231097
 40
0.5666104904
 40
0.5939391326
 40
0.6232804662
 40
0.6541591571
 40
0.7191558882
 40
0.7870640199
 40
0.8568594591
 40
0.9279574094
 40
1.0
 40
1.0
 40
1.0
 40
1.0
 10
151.4579468069
 20
197.5968265396
 30
0.0
 10
151.3469329181
 20
197.5698912967
 30
0.0
 10
151.1267923558
 20
197.5145637792
 30
0.0
 10
150.8011002842
 20
197.4254215682
 30
0.0
 10
150.4842332617
 20
197.3292146433
 30
0.0
 10
150.1804302152
 20
197.2240485691
 30
0.0
 10
149.9399364532
 20
197.125278426
 30
0.0
 10
149.7621429304
 20
197.0366759269
 30
0.0
 10
149.6421693446
 20
196.9665726775
 30
0.0
 10
149.5370530341
 20
196.8910410677
 30
0.0
 10
149.4519200338
 20
196.8092998264
 30
0.0
 10
149.3929555664
 20
196.7199610493
 30
0.0
 10
149.3704860593
 20
196.6217816477
 30
0.0
 10
149.3929891333
 20
196.5236077681
 30
0.0
 10
149.4519755454
 20
196.4342759681
 30
0.0
 10
149.5371256925
 20
196.3525405063
 30
0.0
 10
149.6422542543
 20
196.2770143655
 30
0.0
 10
149.7622359882
 20
196.2069151235
 30
0.0
 10
149.9400373117
 20
196.1183161104
 30
0.0
 10
150.1805394923
 20
196.019552205
 30
0.0
 10
150.4843489104
 20
195.9143889997
 30
0.0
 10
150.8012200925
 20
195.8181848487
 30
0.0
 10
151.1269150839
 20
195.7290451268
 30
0.0
 10
151.3470570958
 20
195.6737183316
 30
0.0
 10
151.458071692
 20
195.6467838735
 30
0.0
  0
SPLINE
  5
2BE
100
AcDbEntity
  8
0
100
AcDbSpline
 62
7
  6
CONTINUOUS
 70
0
 71
3
 72
10
 73
6
 74
0
 42
0.0000001
 43
0.0000001
 44
0.0000000001
 40
0.0
 40
0.0
 40
0.0
 40
0.0
 40
0.2489354164
 40
0.4987882715
 40
1.0
 40
1.0
 40
1.0
 40
1.0
 10
200.4508950665
 20
169.073914336
 30
0.0
 10
198.1181643829
 20
168.8074166455
 30
0.0
 10
193.4510766926
 20
168.2118825997
 30
0.0
 10
184.1177823632
 20
166.8505808599
 30
0.0
 10
177.1258043645
 20
165.7115007663
 30
0.0
 10
172.4599045895
 20
164.9519473127
 30
0.0
  0
SPLINE
  5
2BF
100
AcDbEntity
  8
0
100
AcDbSpline
 62
7
  6
CONTINUOUS
 70
0
 71
3
 72
9
 73
5
 74
0
 42
0.0000001
 43
0.0000001
 44
0.0000000001
 40
0.0
 40
0.0
 40
0.0
 40
0.0
 40
0.5010005358
 40
1.0
 40
1.0
 40
1.0
 40
1.0
 10
172.4599045895
 20
132.9519473127
 30
0.0
 10
176.6924314701
 20
132.2629418551
 30
0.0
 10
185.1404119787
 20
130.8875651278
 30
0.0
 10
193.6133383596
 20
129.6631941547
 30
0.0
 10
197.8521984964
 20
129.1392920095
 30
0.0
  0
ENDSEC
  0
SECTION
  2
OBJECTS
  0
DICTIONARY
  5
C
100
AcDbDictionary
280
0
281
1
  3
ACAD_GROUP
350
D
  3
ACAD_MLINESTYLE
350
17
  3
ACAD_LAYOUT
350
1A
  3
ACAD_PLOTSETTINGS
350
19
  3
ACAD_PLOTSTYLENAME
350
E
  0
DICTIONARY
  5
D
102
{ACAD_REACTORS
330
C
102
}
100
AcDbDictionary
280
0
281
1
  0
ACDBDICTIONARYWDFLT
  5
E
102
{ACAD_REACTORS
330
C
102
}
100
AcDbDictionary
281
1
  3
Normal
350
F
100
AcDbDictionaryWithDefault
340
F
  0
DICTIONARY
  5
17
102
{ACAD_REACTORS
330
C
102
}
100
AcDbDictionary
280
0
281
1
  3
Standard
350
18
  0
DICTIONARY
  5
19
102
{ACAD_REACTORS
330
C
102
}
100
AcDbDictionary
281
1
  0
DICTIONARY
  5
1A
102
{ACAD_REACTORS
330
C
102
}
100
AcDbDictionary
281
1
  3
Model
350
2C0
  3
Layout1
350
2C1
  0
ACDBPLACEHOLDER
  5
F
102
{ACAD_REACTORS
330
E
102
}
  0
MLINESTYLE
  5
18
102
{ACAD_REACTORS
330
17
102
}
100
AcDbMlineStyle
  2
STANDARD
 70
0
  3

 62
256
 51
90.0
 52
90.0
 71
2
 49
0.5
 62
256
  6
BYLAYER
 49
-0.5
 62
256
  6
BYLAYER
  0
LAYOUT
  5
2C0
102
{ACAD_REACTORS
330
1A
102
}
100
AcDbPlotSettings
  1

  2
none_device
  4

  6

 40
0.0
 41
0.0
 42
0.0
 43
0.0
 44
210.0
 45
297.0
 46
0.0
 47
0.0
 48
0.0
 49
0.0
140
0.0
141
0.0
142
1.0
143
1.0
 70
1024
 72
1
 73
0
 74
0
  7

 75
0
147
1.0
148
0.0
149
0.0
100
AcDbLayout
  1
Model
 70
0
 71
0
 10
0.0
 20
0.0
 11
210.0
 21
297.0
 12
0.0
 22
0.0
 32
0.0
 14
0.0
 24
0.0
 34
0.0
 15
0.0
 25
0.0
 35
0.0
146
0.0
 13
0.0
 23
0.0
 33
0.0
 16
1.0
 26
0.0
 36
0.0
 17
0.0
 27
1.0
 37
0.0
 76
0
330
210
345
0
346
0
  0
LAYOUT
  5
2C1
102
{ACAD_REACTORS
330
1A
102
}
100
AcDbPlotSettings
  1

  2
none_device
  4

  6

 40
0.0
 41
0.0
 42
0.0
 43
0.0
 44
210.0
 45
297.0
 46
0.0
 47
0.0
 48
0.0
 49
0.0
140
0.0
141
0.0
142
1.0
143
1.0
 70
0
 72
1
 73
0
 74
0
  7

 75
0
147
1.0
148
0.0
149
0.0
100
AcDbLayout
  1
Layout1
 70
0
 71
1
 10
0.0
 20
0.0
 11
210.0
 21
297.0
 12
0.0
 22
0.0
 32
0.0
 14
0.0
 24
0.0
 34
0.0
 15
0.0
 25
0.0
 35
0.0
146
0.0
 13
0.0
 23
0.0
 33
0.0
 16
1.0
 26
0.0
 36
0.0
 17
0.0
 27
1.0
 37
0.0
 76
0
330
211
345
0
346
0
  0
ENDSEC
  0
EOF
