999
DXF file: C:\Users\sesa63760\Dev\_Creo\CAD\MCADPE0010550_3D-CAD\drw0001_3.dxf
999
Pro/ENGINEER 2019471 by Parametric Technology Corporation
  0
SECTION
  2
HEADER
  9
$ACADVER
  1
AC1024
  9
$DWGCODEPAGE
  3
ANSI_1252
  9
$EXTMAX
 10
44.3852299561
 20
62.7733966521
 30
0.0
  9
$EXTMIN
 10
0.0
 20
0.0
 30
0.0
  9
$LIMMIN
 10
0.0
 20
0.0
  9
$LIMMAX
 10
44.3852299561
 20
62.7733966521
  9
$VIEWCTR
 10
22.192614978
 20
31.3866983261
  9
$VIEWSIZE
 40
62.7733966521
  9
$CLAYER
  8
0
  9
$LTSCALE
 40
4.0918954855
  9
$CELTYPE
  6
BYLAYER
  9
$DIMSCALE
 40
1.0
  9
$DIMASZ
 40
0.5283955947
  9
$DIMEXO
 40
1.0
  9
$DIMDLI
 40
2.82712779
  9
$DIMEXE
 40
1.0
  9
$DIMCEN
 40
0.6695828976
  9
$DIMLFAC
 40
1.0
  9
$DIMBLK
  1
_FILLED
  9
$DIMALT
 70
0
  9
$DIMALTF
 40
0.0393700787
  9
$DIMTXT
 40
0.7397538326
  9
$DIMTOL
 70
1
  9
$DIMLIM
 70
0
  9
$DIMTFAC
 40
1.0
  9
$DIMTP
 40
0.01
  9
$DIMTM
 40
0.01
  9
$DIMGAP
 40
0.625
  9
$DIMDSEP
 70
46
  9
$AUNITS
 70
0
  9
$PDMODE
 70
3
  9
$PDSIZE
 40
0.3125
  9
$HANDSEED
  5
248
  9
$TILEMODE
 70
1
  9
$MEASUREMENT
 70
1
  9
$INSUNITS
 70
4
  0
ENDSEC
  0
SECTION
  2
CLASSES
  0
CLASS
  1
ACDBDICTIONARYWDFLT
  2
AcDbDictionaryWithDefault
  3
AutoCAD 2000
 90
0
 91
1
280
0
281
0
  0
CLASS
  1
ACDBPLACEHOLDER
  2
AcDbPlaceHolder
  3
AutoCAD 2000
 90
0
 91
1
280
0
281
0
  0
CLASS
  1
LAYOUT
  2
AcDbLayout
  3
AutoCAD 2000
 90
0
 91
0
280
0
281
0
  0
ENDSEC
  0
SECTION
  2
TABLES
  0
TABLE
  2
VPORT
  5
8
100
AcDbSymbolTable
 70
2
  0
VPORT
  5
1F4
100
AcDbSymbolTableRecord
100
AcDbViewportTableRecord
  2
*ACTIVE
 70
0
 10
0.0
 20
0.0
 11
1.0
 21
1.0
 12
22.192614978
 22
31.3866983261
 13
0.0
 23
0.0
 14
1.0
 24
1.0
 15
0.0
 25
0.0
 16
0.0
 26
0.0
 36
1.0
 17
0.0
 27
0.0
 37
0.0
 40
62.7733966521
 41
0.7070707071
 42
50.0
 43
0.0
 44
0.0
 50
0.0
 51
0.0
 71
0
 72
100
 73
1
 74
1
 75
0
 76
0
 77
0
 78
0
  0
ENDTAB
  0
TABLE
  2
LTYPE
  5
5
100
AcDbSymbolTable
 70
6
  0
LTYPE
  5
14
100
AcDbSymbolTableRecord
100
AcDbLinetypeTableRecord
  2
BYBLOCK
 70
0
  3

 72
65
 73
0
 40
0.0
  0
LTYPE
  5
15
100
AcDbSymbolTableRecord
100
AcDbLinetypeTableRecord
  2
BYLAYER
 70
0
  3

 72
65
 73
0
 40
0.0
  0
LTYPE
  5
16
100
AcDbSymbolTableRecord
100
AcDbLinetypeTableRecord
  2
CONTINUOUS
 70
64
  3
Solid line
 72
65
 73
0
 40
0.0
  0
LTYPE
  5
1F5
100
AcDbSymbolTableRecord
100
AcDbLinetypeTableRecord
  2
CENTER
 70
64
  3
____ _ ____ _ ____ _ ____ _ ____ _ ____ _ ____
 72
65
 73
4
 40
0.6
 49
0.375
 74
0
 49
-0.075
 74
0
 49
0.075
 74
0
 49
-0.075
 74
0
  0
LTYPE
  5
1F6
100
AcDbSymbolTableRecord
100
AcDbLinetypeTableRecord
  2
HIDDEN
 70
64
  3
- - - - - - - - - - - - - - - - - - - -
 72
65
 73
2
 40
0.2
 49
0.1
 74
0
 49
-0.1
 74
0
  0
LTYPE
  5
1F7
100
AcDbSymbolTableRecord
100
AcDbLinetypeTableRecord
  2
PHANTOM
 70
64
  3
_____ _ _ _____ _ _ _____ _ _ _____
 72
65
 73
6
 40
0.8
 49
0.45
 74
0
 49
-0.05
 74
0
 49
0.1
 74
0
 49
-0.05
 74
0
 49
0.1
 74
0
 49
-0.05
 74
0
  0
LTYPE
  5
1F8
100
AcDbSymbolTableRecord
100
AcDbLinetypeTableRecord
  2
DOT
 70
64
  3
. . . . . . . . . . . . . . . . . . . .
 72
65
 73
2
 40
0.2
 49
0.1
 74
0
 49
-0.1
 74
0
  0
LTYPE
  5
1F9
100
AcDbSymbolTableRecord
100
AcDbLinetypeTableRecord
  2
DASHED
 70
64
  3
- - - - - - - - - - - - - - - - - - - -
 72
65
 73
2
 40
0.2
 49
0.1
 74
0
 49
-0.1
 74
0
  0
ENDTAB
  0
TABLE
  2
LAYER
  5
2
100
AcDbSymbolTable
 70
36
  0
LAYER
  5
10
100
AcDbSymbolTableRecord
100
AcDbLayerTableRecord
  2
0
 70
0
 62
7
  6
CONTINUOUS
370
-3
390
F
  0
LAYER
  5
1FA
100
AcDbSymbolTableRecord
100
AcDbLayerTableRecord
  2
DEFAULT_1
 70
0
 62
7
  6
CENTER
370
-3
390
F
  0
LAYER
  5
1FB
100
AcDbSymbolTableRecord
100
AcDbLayerTableRecord
  2
DEFAULT_2
 70
0
 62
7
  6
HIDDEN
370
-3
390
F
  0
LAYER
  5
1FC
100
AcDbSymbolTableRecord
100
AcDbLayerTableRecord
  2
DEFAULT_3
 70
0
 62
7
  6
PHANTOM
370
-3
390
F
  0
LAYER
  5
1FD
100
AcDbSymbolTableRecord
100
AcDbLayerTableRecord
  2
00_COMPONENTS
 70
0
 62
7
  6
CONTINUOUS
370
-3
390
F
  0
LAYER
  5
1FE
100
AcDbSymbolTableRecord
100
AcDbLayerTableRecord
  2
01_1_DEFAULT_DATUMS
 70
0
 62
7
  6
CONTINUOUS
370
-3
390
F
  0
LAYER
  5
1FF
100
AcDbSymbolTableRecord
100
AcDbLayerTableRecord
  2
01_PLANES
 70
0
 62
7
  6
CONTINUOUS
370
-3
390
F
  0
LAYER
  5
200
100
AcDbSymbolTableRecord
100
AcDbLayerTableRecord
  2
02_COORD_SYS
 70
0
 62
7
  6
CONTINUOUS
370
-3
390
F
  0
LAYER
  5
201
100
AcDbSymbolTableRecord
100
AcDbLayerTableRecord
  2
03_AXES
 70
0
 62
7
  6
CONTINUOUS
370
-3
390
F
  0
LAYER
  5
202
100
AcDbSymbolTableRecord
100
AcDbLayerTableRecord
  2
04_POINTS
 70
0
 62
7
  6
CONTINUOUS
370
-3
390
F
  0
LAYER
  5
203
100
AcDbSymbolTableRecord
100
AcDbLayerTableRecord
  2
05_CURVES
 70
0
 62
7
  6
CONTINUOUS
370
-3
390
F
  0
LAYER
  5
204
100
AcDbSymbolTableRecord
100
AcDbLayerTableRecord
  2
06_SURFS
 70
0
 62
7
  6
CONTINUOUS
370
-3
390
F
  0
LAYER
  5
205
100
AcDbSymbolTableRecord
100
AcDbLayerTableRecord
  2
07_COSMETICS
 70
0
 62
7
  6
CONTINUOUS
370
-3
390
F
  0
LAYER
  5
206
100
AcDbSymbolTableRecord
100
AcDbLayerTableRecord
  2
10_NOTES
 70
0
 62
7
  6
CONTINUOUS
370
-3
390
F
  0
LAYER
  5
207
100
AcDbSymbolTableRecord
100
AcDbLayerTableRecord
  2
11_NOTES_PUB
 70
0
 62
7
  6
CONTINUOUS
370
-3
390
F
  0
LAYER
  5
208
100
AcDbSymbolTableRecord
100
AcDbLayerTableRecord
  2
13_REF_GTOL
 70
0
 62
7
  6
CONTINUOUS
370
-3
390
F
  0
LAYER
  5
209
100
AcDbSymbolTableRecord
100
AcDbLayerTableRecord
  2
16_MISC
 70
0
 62
7
  6
CONTINUOUS
370
-3
390
F
  0
LAYER
  5
20A
100
AcDbSymbolTableRecord
100
AcDbLayerTableRecord
  2
17_NO_PRINT
 70
0
 62
7
  6
CONTINUOUS
370
-3
390
F
  0
LAYER
  5
20B
100
AcDbSymbolTableRecord
100
AcDbLayerTableRecord
  2
18_DATUM_CAMS_JOINTS
 70
0
 62
7
  6
CONTINUOUS
370
-3
390
F
  0
LAYER
  5
20C
100
AcDbSymbolTableRecord
100
AcDbLayerTableRecord
  2
19_DATUM_FUNCTIONAL
 70
0
 62
7
  6
CONTINUOUS
370
-3
390
F
  0
LAYER
  5
20D
100
AcDbSymbolTableRecord
100
AcDbLayerTableRecord
  2
20_DATUM_KINEMATIC_SCHEME
 70
0
 62
7
  6
CONTINUOUS
370
-3
390
F
  0
ENDTAB
  0
TABLE
  2
STYLE
  5
3
100
AcDbSymbolTable
 70
1
  0
STYLE
  5
11
100
AcDbSymbolTableRecord
100
AcDbTextStyleTableRecord
  2
STANDARD
 70
0
 40
0.0
 41
1.0
 50
0.0
 71
0
 42
0.2
  3
ARIAL.TTF
  4

  0
STYLE
  5
20E
100
AcDbSymbolTableRecord
100
AcDbTextStyleTableRecord
  2
TEXTSTYLE_1
 70
0
 40
0.0
 41
0.8
 50
0.0
 71
0
 42
0.2
  3
gdt
  4

  0
ENDTAB
  0
TABLE
  2
VIEW
  5
6
100
AcDbSymbolTable
 70
0
  0
ENDTAB
  0
TABLE
  2
UCS
  5
7
100
AcDbSymbolTable
 70
0
  0
ENDTAB
  0
TABLE
  2
APPID
  5
9
100
AcDbSymbolTable
 70
1
  0
APPID
  5
20F
100
AcDbSymbolTableRecord
100
AcDbRegAppTableRecord
  2
ACAD
 70
0
  0
ENDTAB
  0
TABLE
  2
BLOCK_RECORD
  5
1
100
AcDbSymbolTable
 70
0
  0
BLOCK_RECORD
  5
210
100
AcDbSymbolTableRecord
100
AcDbBlockTableRecord
  2
*Model_Space
  0
BLOCK_RECORD
  5
211
100
AcDbSymbolTableRecord
100
AcDbBlockTableRecord
  2
*Paper_Space
  0
BLOCK_RECORD
  5
212
100
AcDbSymbolTableRecord
100
AcDbBlockTableRecord
  2
_FILLED
  0
ENDTAB
  0
TABLE
  2
DIMSTYLE
  5
A
100
AcDbSymbolTable
 70
1
100
AcDbDimStyleTable
 71
0
  0
DIMSTYLE
105
213
100
AcDbSymbolTableRecord
100
AcDbDimStyleTableRecord
  2
STANDARD
 70
0
  3

  4

 40
1.0
 41
0.5283955947
 42
1.0
 43
0.38
 44
1.0
 45
0.0
 46
0.0
 47
0.01
 48
0.01
140
0.7397538326
141
0.09
142
0.0
143
25.4
144
1.0
145
0.0
146
1.0
147
0.625
 71
1
 72
0
 73
0
 74
0
 75
0
 76
0
 77
1
 78
8
 79
2
170
0
171
1
172
0
173
0
174
0
175
0
176
0
177
0
178
0
270
2
179
2
271
2
272
2
273
2
274
2
275
0
280
0
281
0
282
0
283
1
284
8
285
0
286
0
287
3
288
0
340
11
278
46
341
212
342
212
343
212
344
212
  0
ENDTAB
  0
ENDSEC
  0
SECTION
  2
BLOCKS
  0
BLOCK
  5
20
100
AcDbEntity
  8
0
100
AcDbBlockBegin
  2
*Model_Space
 70
0
 10
0.0
 20
0.0
 30
0.0
  3
*Model_Space
  1

  0
ENDBLK
  5
21
100
AcDbEntity
  8
0
100
AcDbBlockEnd
  0
BLOCK
  5
1C
100
AcDbEntity
  8
0
100
AcDbBlockBegin
  2
*Paper_Space
 70
0
 10
0.0
 20
0.0
 30
0.0
  3
*Paper_Space
  1

  0
ENDBLK
  5
1D
100
AcDbEntity
  8
0
100
AcDbBlockEnd
  0
BLOCK
  5
214
100
AcDbEntity
  8
0
100
AcDbBlockBegin
  2
_FILLED
 70
64
 10
0.0
 20
0.0
  3
_FILLED
  1

  0
SOLID
  5
215
100
AcDbEntity
  8
0
  6
BYBLOCK
 62
0
100
AcDbTrace
 10
0.0
 20
0.0
 11
-1.0
 21
0.25
 12
-1.0
 22
-0.25
 13
-1.0
 23
-0.25
  0
ENDBLK
  5
216
100
AcDbEntity
  8
0
  6
BYBLOCK
 62
0
100
AcDbBlockEnd
  0
ENDSEC
  0
SECTION
  2
ENTITIES
  0
LINE
  5
217
100
AcDbEntity
  8
0
100
AcDbLine
 62
7
  6
BYLAYER
 10
19.7322651821
 20
5.0326284954
 11
25.8822651821
 21
5.0326284954
  0
LINE
  5
218
100
AcDbEntity
  8
0
100
AcDbLine
 62
7
  6
BYLAYER
 10
25.8822651821
 20
6.0326284954
 11
19.7322651821
 21
6.0326284954
  0
LINE
  5
219
100
AcDbEntity
  8
0
100
AcDbLine
 62
7
  6
BYLAYER
 10
19.7322651821
 20
8.1326284954
 11
25.8822651821
 21
8.1326284954
  0
LINE
  5
21A
100
AcDbEntity
  8
0
100
AcDbLine
 62
7
  6
BYLAYER
 10
25.8822651821
 20
9.0326284954
 11
19.7322651821
 21
9.0326284954
  0
LINE
  5
21B
100
AcDbEntity
  8
0
100
AcDbLine
 62
7
  6
BYLAYER
 10
25.8822651821
 20
10.0326284954
 11
19.7322651821
 21
10.0326284954
  0
LINE
  5
21C
100
AcDbEntity
  8
0
100
AcDbLine
 62
7
  6
BYLAYER
 10
19.7322651821
 20
17.1326292938
 11
25.8822651821
 21
17.1326292938
  0
LINE
  5
21D
100
AcDbEntity
  8
0
100
AcDbLine
 62
7
  6
BYLAYER
 10
19.7322651821
 20
17.6326284954
 11
25.8822651821
 21
17.6326284954
  0
LINE
  5
21E
100
AcDbEntity
  8
0
100
AcDbLine
 62
7
  6
BYLAYER
 10
25.8822651821
 20
18.6326284954
 11
19.7322651821
 21
18.6326284954
  0
LINE
  5
21F
100
AcDbEntity
  8
0
100
AcDbLine
 62
7
  6
BYLAYER
 10
19.7322651821
 20
18.9353743371
 11
25.8822651821
 21
18.9353743371
  0
LINE
  5
220
100
AcDbEntity
  8
0
100
AcDbLine
 62
7
  6
BYLAYER
 10
25.8822651821
 20
19.4996042334
 11
19.7322651821
 21
19.4996042334
  0
LINE
  5
221
100
AcDbEntity
  8
0
100
AcDbLine
 62
7
  6
BYLAYER
 10
19.7322651821
 20
27.9656528001
 11
25.8822651821
 21
27.9656528001
  0
LINE
  5
222
100
AcDbEntity
  8
0
100
AcDbLine
 62
7
  6
BYLAYER
 10
19.7322651821
 20
5.0326284954
 11
19.7322651821
 21
58.0481042481
  0
LINE
  5
223
100
AcDbEntity
  8
0
100
AcDbLine
 62
7
  6
BYLAYER
 10
20.0822651821
 20
50.9277879938
 11
20.0822651821
 21
50.7225759078
  0
LINE
  5
224
100
AcDbEntity
  8
0
100
AcDbLine
 62
7
  6
BYLAYER
 10
20.0822651821
 20
35.0158957195
 11
20.0822651821
 21
34.8106836336
  0
LINE
  5
225
100
AcDbEntity
  8
0
100
AcDbLine
 62
7
  6
BYLAYER
 10
20.3822651821
 20
54.347989427
 11
20.3822651821
 21
52.8088987821
  0
LINE
  5
226
100
AcDbEntity
  8
0
100
AcDbLine
 62
7
  6
BYLAYER
 10
20.3822651821
 20
38.4360971528
 11
20.3822651821
 21
36.8970065078
  0
LINE
  5
227
100
AcDbEntity
  8
0
100
AcDbLine
 62
7
  6
BYLAYER
 10
19.7322651821
 20
28.5299613862
 11
25.8822651821
 21
28.5299613862
  0
LINE
  5
228
100
AcDbEntity
  8
0
100
AcDbLine
 62
7
  6
BYLAYER
 10
25.2322651821
 20
36.8970065078
 11
25.2322651821
 21
38.4360971528
  0
LINE
  5
229
100
AcDbEntity
  8
0
100
AcDbLine
 62
7
  6
BYLAYER
 10
25.2322651821
 20
52.8088987821
 11
25.2322651821
 21
54.347989427
  0
LINE
  5
22A
100
AcDbEntity
  8
0
100
AcDbLine
 62
7
  6
BYLAYER
 10
25.6223409386
 20
34.4002594616
 11
25.6223409386
 21
35.4263198916
  0
LINE
  5
22B
100
AcDbEntity
  8
0
100
AcDbLine
 62
7
  6
BYLAYER
 10
25.6223409386
 20
50.3121517358
 11
25.6223409386
 21
51.3382121658
  0
LINE
  5
22C
100
AcDbEntity
  8
0
100
AcDbLine
 62
7
  6
BYLAYER
 10
25.8822651821
 20
5.0326284954
 11
25.8822651821
 21
58.0481042481
  0
LINE
  5
22D
100
AcDbEntity
  8
0
100
AcDbLine
 62
7
  6
BYLAYER
 10
19.7322651821
 20
33.5674442547
 11
25.8822651821
 21
33.5674442547
  0
LINE
  5
22E
100
AcDbEntity
  8
0
100
AcDbLine
 62
7
  6
BYLAYER
 10
19.7322651821
 20
33.7550860613
 11
25.8822651821
 21
33.7550860634
  0
LINE
  5
22F
100
AcDbEntity
  8
0
100
AcDbLine
 62
7
  6
BYLAYER
 10
25.6223409386
 20
34.4002594616
 11
25.8822651821
 21
34.4002594616
  0
LINE
  5
230
100
AcDbEntity
  8
0
100
AcDbLine
 62
7
  6
BYLAYER
 10
25.6223409386
 20
35.4263198916
 11
25.8822651821
 21
35.4263198916
  0
LINE
  5
231
100
AcDbEntity
  8
0
100
AcDbLine
 62
7
  6
BYLAYER
 10
25.2322651821
 20
36.8970065079
 11
20.3822651821
 21
36.8970065079
  0
LINE
  5
232
100
AcDbEntity
  8
0
100
AcDbLine
 62
7
  6
BYLAYER
 10
20.3822651821
 20
38.4360971528
 11
25.2322651821
 21
38.4360971528
  0
LINE
  5
233
100
AcDbEntity
  8
0
100
AcDbLine
 62
7
  6
BYLAYER
 10
19.7322651821
 20
38.9149253535
 11
25.8822651821
 21
38.9149253535
  0
LINE
  5
234
100
AcDbEntity
  8
0
100
AcDbLine
 62
7
  6
BYLAYER
 10
25.8822651821
 20
43.204232554
 11
19.7322651821
 21
43.204232554
  0
LINE
  5
235
100
AcDbEntity
  8
0
100
AcDbLine
 62
7
  6
BYLAYER
 10
19.7322651821
 20
49.4869451304
 11
25.8822651821
 21
49.4869451304
  0
LINE
  5
236
100
AcDbEntity
  8
0
100
AcDbLine
 62
7
  6
BYLAYER
 10
25.8822651821
 20
49.6748836545
 11
19.7322651821
 21
49.6748836545
  0
LINE
  5
237
100
AcDbEntity
  8
0
100
AcDbLine
 62
7
  6
BYLAYER
 10
25.6223409386
 20
50.3121517358
 11
25.8822651821
 21
50.3121517358
  0
LINE
  5
238
100
AcDbEntity
  8
0
100
AcDbLine
 62
7
  6
BYLAYER
 10
25.6223409386
 20
51.3382121658
 11
25.8822651821
 21
51.3382121658
  0
LINE
  5
239
100
AcDbEntity
  8
0
100
AcDbLine
 62
7
  6
BYLAYER
 10
25.2322651821
 20
52.8088987821
 11
20.3822651821
 21
52.8088987821
  0
LINE
  5
23A
100
AcDbEntity
  8
0
100
AcDbLine
 62
7
  6
BYLAYER
 10
20.3822651821
 20
54.347989427
 11
25.2322651821
 21
54.347989427
  0
LINE
  5
23B
100
AcDbEntity
  8
0
100
AcDbLine
 62
7
  6
BYLAYER
 10
25.8822651821
 20
54.4481042481
 11
19.7322651821
 21
54.4481042481
  0
LINE
  5
23C
100
AcDbEntity
  8
0
100
AcDbLine
 62
7
  6
BYLAYER
 10
19.7322651821
 20
57.5481042481
 11
25.8822651821
 21
57.5481042481
  0
LINE
  5
23D
100
AcDbEntity
  8
0
100
AcDbLine
 62
7
  6
BYLAYER
 10
25.8822651821
 20
58.0481042481
 11
19.7322651821
 21
58.0481042481
  0
SPLINE
  5
23E
100
AcDbEntity
  8
0
100
AcDbSpline
 62
7
  6
BYLAYER
 70
0
 71
3
 72
14
 73
10
 74
0
 42
0.0000001
 43
0.0000001
 44
0.0000000001
 40
0.0
 40
0.0
 40
0.0
 40
0.0
 40
0.0853755641
 40
0.1849747731
 40
0.2979392736
 40
0.4229080758
 40
0.5579511225
 40
0.7008361438
 40
1.0
 40
1.0
 40
1.0
 40
1.0
 10
25.6223409386
 20
50.3121517358
 30
0.0
 10
25.5600638288
 20
50.2652903339
 30
0.0
 10
25.4152925687
 20
50.1768104552
 30
0.0
 10
25.1667876784
 20
50.0651776619
 30
0.0
 10
24.8744381898
 20
49.9665438947
 30
0.0
 10
24.5441030773
 20
49.8829272858
 30
0.0
 10
24.1822115229
 20
49.8159278311
 30
0.0
 10
23.6593596652
 20
49.7498329728
 30
0.0
 10
23.2553693202
 20
49.7307174921
 30
0.0
 10
22.9822651821
 20
49.7307174921
 30
0.0
  0
SPLINE
  5
23F
100
AcDbEntity
  8
0
100
AcDbSpline
 62
7
  6
BYLAYER
 70
0
 71
3
 72
19
 73
15
 74
0
 42
0.0000001
 43
0.0000001
 44
0.0000000001
 40
0.0
 40
0.0
 40
0.0
 40
0.0
 40
0.1745803783
 40
0.3433908802
 40
0.5005883118
 40
0.6414067209
 40
0.7044204287
 40
0.7620152982
 40
0.8139806343
 40
0.8602950002
 40
0.9012206482
 40
0.9373435338
 40
0.9697374103
 40
1.0
 40
1.0
 40
1.0
 40
1.0
 10
22.9822651821
 20
49.7307174921
 30
0.0
 10
22.7936300887
 20
49.7307174921
 30
0.0
 10
22.4224746942
 20
49.7430458745
 30
0.0
 10
21.8839097967
 20
49.7978550012
 30
0.0
 10
21.3869171027
 20
49.8869261662
 30
0.0
 10
21.0098321778
 20
49.9899172595
 30
0.0
 10
20.7451057275
 20
50.0889937809
 30
0.0
 10
20.5753236324
 20
50.1665326398
 30
0.0
 10
20.4283755298
 20
50.2493360409
 30
0.0
 10
20.3055916018
 20
50.3368145245
 30
0.0
 10
20.2079334388
 20
50.4282761876
 30
0.0
 10
20.136506604
 20
50.5234965915
 30
0.0
 10
20.092476634
 20
50.6218553155
 30
0.0
 10
20.0822651821
 20
50.6898770072
 30
0.0
 10
20.0822651821
 20
50.7225759078
 30
0.0
  0
SPLINE
  5
240
100
AcDbEntity
  8
0
100
AcDbSpline
 62
7
  6
BYLAYER
 70
0
 71
3
 72
19
 73
15
 74
0
 42
0.0000001
 43
0.0000001
 44
0.0000000001
 40
0.0
 40
0.0
 40
0.0
 40
0.0
 40
0.1745803783
 40
0.3433908802
 40
0.5005883118
 40
0.6414067209
 40
0.7044204287
 40
0.7620152982
 40
0.8139806343
 40
0.8602950002
 40
0.9012206482
 40
0.9373435338
 40
0.9697374103
 40
1.0
 40
1.0
 40
1.0
 40
1.0
 10
22.9822651821
 20
33.8188252179
 30
0.0
 10
22.7936300887
 20
33.8188252179
 30
0.0
 10
22.4224746942
 20
33.8311536003
 30
0.0
 10
21.8839097967
 20
33.885962727
 30
0.0
 10
21.3869171027
 20
33.975033892
 30
0.0
 10
21.0098321778
 20
34.0780249853
 30
0.0
 10
20.7451057275
 20
34.1771015067
 30
0.0
 10
20.5753236324
 20
34.2546403656
 30
0.0
 10
20.4283755298
 20
34.3374437667
 30
0.0
 10
20.3055916018
 20
34.4249222503
 30
0.0
 10
20.2079334388
 20
34.5163839134
 30
0.0
 10
20.136506604
 20
34.6116043173
 30
0.0
 10
20.092476634
 20
34.7099630413
 30
0.0
 10
20.0822651821
 20
34.777984733
 30
0.0
 10
20.0822651821
 20
34.8106836336
 30
0.0
  0
SPLINE
  5
241
100
AcDbEntity
  8
0
100
AcDbSpline
 62
7
  6
BYLAYER
 70
0
 71
3
 72
14
 73
10
 74
0
 42
0.0000001
 43
0.0000001
 44
0.0000000001
 40
0.0
 40
0.0
 40
0.0
 40
0.0
 40
0.0853755641
 40
0.1849747731
 40
0.2979392736
 40
0.4229080758
 40
0.5579511225
 40
0.7008361438
 40
1.0
 40
1.0
 40
1.0
 40
1.0
 10
25.6223409385
 20
34.4002594616
 30
0.0
 10
25.5600638287
 20
34.3533980596
 30
0.0
 10
25.4152925686
 20
34.2649181809
 30
0.0
 10
25.1667876784
 20
34.1532853876
 30
0.0
 10
24.8744381898
 20
34.0546516205
 30
0.0
 10
24.5441030772
 20
33.9710350116
 30
0.0
 10
24.1822115228
 20
33.9040355569
 30
0.0
 10
23.6593596652
 20
33.8379406986
 30
0.0
 10
23.2553693202
 20
33.8188252179
 30
0.0
 10
22.9822651821
 20
33.8188252179
 30
0.0
  0
SPLINE
  5
242
100
AcDbEntity
  8
0
100
AcDbSpline
 62
7
  6
BYLAYER
 70
0
 71
3
 72
19
 73
15
 74
0
 42
0.0000001
 43
0.0000001
 44
0.0000000001
 40
0.0
 40
0.0
 40
0.0
 40
0.0
 40
0.030262584
 40
0.0626564435
 40
0.098779308
 40
0.1397049309
 40
0.1860192748
 40
0.2379845985
 40
0.2955794481
 40
0.3585931461
 40
0.4994115428
 40
0.656608987
 40
0.8254195725
 40
1.0
 40
1.0
 40
1.0
 40
1.0
 10
20.0822651821
 20
50.9277879938
 30
0.0
 10
20.0822651821
 20
50.9604868884
 30
0.0
 10
20.0924766076
 20
51.0285085563
 30
0.0
 10
20.1365065267
 20
51.1268672556
 30
0.0
 10
20.2079333411
 20
51.22208759
 30
0.0
 10
20.3055914193
 20
51.3135492314
 30
0.0
 10
20.4283752752
 20
51.4010277099
 30
0.0
 10
20.5753233214
 20
51.4838310915
 30
0.0
 10
20.7451053509
 20
51.5613699864
 30
0.0
 10
21.0098317592
 20
51.6604464967
 30
0.0
 10
21.3869166578
 20
51.7634376456
 30
0.0
 10
21.8839094401
 20
51.8525088565
 30
0.0
 10
22.4224744959
 20
51.9073179974
 30
0.0
 10
22.7936300348
 20
51.9196464094
 30
0.0
 10
22.9822651821
 20
51.9196464094
 30
0.0
  0
SPLINE
  5
243
100
AcDbEntity
  8
0
100
AcDbSpline
 62
7
  6
BYLAYER
 70
0
 71
3
 72
14
 73
10
 74
0
 42
0.0000001
 43
0.0000001
 44
0.0000000001
 40
0.0
 40
0.0
 40
0.0
 40
0.0
 40
0.2991639358
 40
0.4420489758
 40
0.5770920155
 40
0.7020608109
 40
0.8150252846
 40
0.9146244557
 40
1.0
 40
1.0
 40
1.0
 40
1.0
 10
22.9822651821
 20
51.9196464094
 30
0.0
 10
23.255369393
 20
51.9196464094
 30
0.0
 10
23.6593598283
 20
51.9005309201
 30
0.0
 10
24.1822117668
 20
51.8344360326
 30
0.0
 10
24.5441033227
 20
51.7674365617
 30
0.0
 10
24.8744383968
 20
51.6838199488
 30
0.0
 10
25.1667878143
 20
51.585186178
 30
0.0
 10
25.4152926397
 20
51.4735534265
 30
0.0
 10
25.5600638433
 20
51.3850735568
 30
0.0
 10
25.6223409386
 20
51.3382121658
 30
0.0
  0
SPLINE
  5
244
100
AcDbEntity
  8
0
100
AcDbSpline
 62
7
  6
BYLAYER
 70
0
 71
3
 72
14
 73
10
 74
0
 42
0.0000001
 43
0.0000001
 44
0.0000000001
 40
0.0
 40
0.0
 40
0.0
 40
0.0
 40
0.2991639358
 40
0.4420489758
 40
0.5770920155
 40
0.7020608109
 40
0.8150252846
 40
0.9146244557
 40
1.0
 40
1.0
 40
1.0
 40
1.0
 10
22.9822651821
 20
36.0077541352
 30
0.0
 10
23.255369393
 20
36.0077541352
 30
0.0
 10
23.6593598283
 20
35.9886386458
 30
0.0
 10
24.1822117667
 20
35.9225437584
 30
0.0
 10
24.5441033226
 20
35.8555442874
 30
0.0
 10
24.8744383967
 20
35.7719276746
 30
0.0
 10
25.1667878142
 20
35.6732939038
 30
0.0
 10
25.4152926396
 20
35.5616611523
 30
0.0
 10
25.5600638432
 20
35.4731812826
 30
0.0
 10
25.6223409386
 20
35.4263198916
 30
0.0
  0
SPLINE
  5
245
100
AcDbEntity
  8
0
100
AcDbSpline
 62
7
  6
BYLAYER
 70
0
 71
3
 72
19
 73
15
 74
0
 42
0.0000001
 43
0.0000001
 44
0.0000000001
 40
0.0
 40
0.0
 40
0.0
 40
0.0
 40
0.030262584
 40
0.0626564435
 40
0.098779308
 40
0.1397049309
 40
0.1860192748
 40
0.2379845985
 40
0.2955794481
 40
0.3585931461
 40
0.4994115428
 40
0.656608987
 40
0.8254195725
 40
1.0
 40
1.0
 40
1.0
 40
1.0
 10
20.0822651821
 20
35.0158957196
 30
0.0
 10
20.0822651821
 20
35.0485946141
 30
0.0
 10
20.0924766076
 20
35.1166162821
 30
0.0
 10
20.1365065267
 20
35.2149749814
 30
0.0
 10
20.2079333411
 20
35.3101953158
 30
0.0
 10
20.3055914193
 20
35.4016569571
 30
0.0
 10
20.4283752752
 20
35.4891354357
 30
0.0
 10
20.5753233214
 20
35.5719388172
 30
0.0
 10
20.7451053509
 20
35.6494777121
 30
0.0
 10
21.0098317592
 20
35.7485542224
 30
0.0
 10
21.3869166578
 20
35.8515453714
 30
0.0
 10
21.8839094401
 20
35.9406165822
 30
0.0
 10
22.4224744959
 20
35.9954257231
 30
0.0
 10
22.7936300348
 20
36.0077541352
 30
0.0
 10
22.9822651821
 20
36.0077541352
 30
0.0
  0
ENDSEC
  0
SECTION
  2
OBJECTS
  0
DICTIONARY
  5
C
100
AcDbDictionary
280
0
281
1
  3
ACAD_GROUP
350
D
  3
ACAD_MLINESTYLE
350
17
  3
ACAD_LAYOUT
350
1A
  3
ACAD_PLOTSETTINGS
350
19
  3
ACAD_PLOTSTYLENAME
350
E
  0
DICTIONARY
  5
D
102
{ACAD_REACTORS
330
C
102
}
100
AcDbDictionary
280
0
281
1
  0
ACDBDICTIONARYWDFLT
  5
E
102
{ACAD_REACTORS
330
C
102
}
100
AcDbDictionary
281
1
  3
Normal
350
F
100
AcDbDictionaryWithDefault
340
F
  0
DICTIONARY
  5
17
102
{ACAD_REACTORS
330
C
102
}
100
AcDbDictionary
280
0
281
1
  3
Standard
350
18
  0
DICTIONARY
  5
19
102
{ACAD_REACTORS
330
C
102
}
100
AcDbDictionary
281
1
  0
DICTIONARY
  5
1A
102
{ACAD_REACTORS
330
C
102
}
100
AcDbDictionary
281
1
  3
Model
350
246
  3
Layout1
350
247
  0
ACDBPLACEHOLDER
  5
F
102
{ACAD_REACTORS
330
E
102
}
  0
MLINESTYLE
  5
18
102
{ACAD_REACTORS
330
17
102
}
100
AcDbMlineStyle
  2
STANDARD
 70
0
  3

 62
256
 51
90.0
 52
90.0
 71
2
 49
0.5
 62
256
  6
BYLAYER
 49
-0.5
 62
256
  6
BYLAYER
  0
LAYOUT
  5
246
102
{ACAD_REACTORS
330
1A
102
}
100
AcDbPlotSettings
  1

  2
none_device
  4

  6

 40
0.0
 41
0.0
 42
0.0
 43
0.0
 44
210.0
 45
297.0
 46
0.0
 47
0.0
 48
0.0
 49
0.0
140
0.0
141
0.0
142
1.0
143
1.0
 70
1024
 72
1
 73
0
 74
0
  7

 75
0
147
1.0
148
0.0
149
0.0
100
AcDbLayout
  1
Model
 70
0
 71
0
 10
0.0
 20
0.0
 11
210.0
 21
297.0
 12
0.0
 22
0.0
 32
0.0
 14
0.0
 24
0.0
 34
0.0
 15
0.0
 25
0.0
 35
0.0
146
0.0
 13
0.0
 23
0.0
 33
0.0
 16
1.0
 26
0.0
 36
0.0
 17
0.0
 27
1.0
 37
0.0
 76
0
330
210
345
0
346
0
  0
LAYOUT
  5
247
102
{ACAD_REACTORS
330
1A
102
}
100
AcDbPlotSettings
  1

  2
none_device
  4

  6

 40
0.0
 41
0.0
 42
0.0
 43
0.0
 44
210.0
 45
297.0
 46
0.0
 47
0.0
 48
0.0
 49
0.0
140
0.0
141
0.0
142
1.0
143
1.0
 70
0
 72
1
 73
0
 74
0
  7

 75
0
147
1.0
148
0.0
149
0.0
100
AcDbLayout
  1
Layout1
 70
0
 71
1
 10
0.0
 20
0.0
 11
210.0
 21
297.0
 12
0.0
 22
0.0
 32
0.0
 14
0.0
 24
0.0
 34
0.0
 15
0.0
 25
0.0
 35
0.0
146
0.0
 13
0.0
 23
0.0
 33
0.0
 16
1.0
 26
0.0
 36
0.0
 17
0.0
 27
1.0
 37
0.0
 76
0
330
211
345
0
346
0
  0
ENDSEC
  0
EOF
