999
DXF file: C:\Users\sesa63760\Dev\_Creo\CAD\MCADPD0005305_3D-CAD\drw0001_7.dxf
999
Pro/ENGINEER 2019471 by Parametric Technology Corporation
  0
SECTION
  2
HEADER
  9
$ACADVER
  1
AC1024
  9
$DWGCODEPAGE
  3
ANSI_1252
  9
$EXTMAX
 10
76.0965895277
 20
107.6223194748
 30
0.0
  9
$EXTMIN
 10
0.0
 20
0.0
 30
0.0
  9
$LIMMIN
 10
0.0
 20
0.0
  9
$LIMMAX
 10
76.0965895277
 20
107.6223194748
  9
$VIEWCTR
 10
38.0482947638
 20
53.8111597374
  9
$VIEWSIZE
 40
107.6223194748
  9
$CLAYER
  8
0
  9
$LTSCALE
 40
7.015380825
  9
$CELTYPE
  6
BYLAYER
  9
$DIMSCALE
 40
1.0
  9
$DIMASZ
 40
0.9059117801
  9
$DIMEXO
 40
1.0
  9
$DIMDLI
 40
4.8469903882
  9
$DIMEXE
 40
1.0
  9
$DIMCEN
 40
1.1479714077
  9
$DIMLFAC
 40
1.0
  9
$DIMBLK
  1
_FILLED
  9
$DIMALT
 70
0
  9
$DIMALTF
 40
0.0393700787
  9
$DIMTXT
 40
1.2682764921
  9
$DIMTOL
 70
1
  9
$DIMLIM
 70
0
  9
$DIMTFAC
 40
1.0
  9
$DIMTP
 40
0.01
  9
$DIMTM
 40
0.01
  9
$DIMGAP
 40
0.625
  9
$DIMDSEP
 70
46
  9
$AUNITS
 70
0
  9
$PDMODE
 70
3
  9
$PDSIZE
 40
0.3125
  9
$HANDSEED
  5
26D
  9
$TILEMODE
 70
1
  9
$MEASUREMENT
 70
1
  9
$INSUNITS
 70
4
  0
ENDSEC
  0
SECTION
  2
CLASSES
  0
CLASS
  1
ACDBDICTIONARYWDFLT
  2
AcDbDictionaryWithDefault
  3
AutoCAD 2000
 90
0
 91
1
280
0
281
0
  0
CLASS
  1
ACDBPLACEHOLDER
  2
AcDbPlaceHolder
  3
AutoCAD 2000
 90
0
 91
1
280
0
281
0
  0
CLASS
  1
LAYOUT
  2
AcDbLayout
  3
AutoCAD 2000
 90
0
 91
0
280
0
281
0
  0
ENDSEC
  0
SECTION
  2
TABLES
  0
TABLE
  2
VPORT
  5
8
100
AcDbSymbolTable
 70
2
  0
VPORT
  5
1F4
100
AcDbSymbolTableRecord
100
AcDbViewportTableRecord
  2
*ACTIVE
 70
0
 10
0.0
 20
0.0
 11
1.0
 21
1.0
 12
38.0482947638
 22
53.8111597374
 13
0.0
 23
0.0
 14
1.0
 24
1.0
 15
0.0
 25
0.0
 16
0.0
 26
0.0
 36
1.0
 17
0.0
 27
0.0
 37
0.0
 40
107.6223194748
 41
0.7070707071
 42
50.0
 43
0.0
 44
0.0
 50
0.0
 51
0.0
 71
0
 72
100
 73
1
 74
1
 75
0
 76
0
 77
0
 78
0
  0
ENDTAB
  0
TABLE
  2
LTYPE
  5
5
100
AcDbSymbolTable
 70
6
  0
LTYPE
  5
14
100
AcDbSymbolTableRecord
100
AcDbLinetypeTableRecord
  2
BYBLOCK
 70
0
  3

 72
65
 73
0
 40
0.0
  0
LTYPE
  5
15
100
AcDbSymbolTableRecord
100
AcDbLinetypeTableRecord
  2
BYLAYER
 70
0
  3

 72
65
 73
0
 40
0.0
  0
LTYPE
  5
16
100
AcDbSymbolTableRecord
100
AcDbLinetypeTableRecord
  2
CONTINUOUS
 70
64
  3
Solid line
 72
65
 73
0
 40
0.0
  0
LTYPE
  5
1F5
100
AcDbSymbolTableRecord
100
AcDbLinetypeTableRecord
  2
CENTER
 70
64
  3
____ _ ____ _ ____ _ ____ _ ____ _ ____ _ ____
 72
65
 73
4
 40
0.6
 49
0.375
 74
0
 49
-0.075
 74
0
 49
0.075
 74
0
 49
-0.075
 74
0
  0
LTYPE
  5
1F6
100
AcDbSymbolTableRecord
100
AcDbLinetypeTableRecord
  2
HIDDEN
 70
64
  3
- - - - - - - - - - - - - - - - - - - -
 72
65
 73
2
 40
0.2
 49
0.1
 74
0
 49
-0.1
 74
0
  0
LTYPE
  5
1F7
100
AcDbSymbolTableRecord
100
AcDbLinetypeTableRecord
  2
PHANTOM
 70
64
  3
_____ _ _ _____ _ _ _____ _ _ _____
 72
65
 73
6
 40
0.8
 49
0.45
 74
0
 49
-0.05
 74
0
 49
0.1
 74
0
 49
-0.05
 74
0
 49
0.1
 74
0
 49
-0.05
 74
0
  0
LTYPE
  5
1F8
100
AcDbSymbolTableRecord
100
AcDbLinetypeTableRecord
  2
DOT
 70
64
  3
. . . . . . . . . . . . . . . . . . . .
 72
65
 73
2
 40
0.2
 49
0.1
 74
0
 49
-0.1
 74
0
  0
LTYPE
  5
1F9
100
AcDbSymbolTableRecord
100
AcDbLinetypeTableRecord
  2
DASHED
 70
64
  3
- - - - - - - - - - - - - - - - - - - -
 72
65
 73
2
 40
0.2
 49
0.1
 74
0
 49
-0.1
 74
0
  0
ENDTAB
  0
TABLE
  2
LAYER
  5
2
100
AcDbSymbolTable
 70
36
  0
LAYER
  5
10
100
AcDbSymbolTableRecord
100
AcDbLayerTableRecord
  2
0
 70
0
 62
7
  6
CONTINUOUS
370
-3
390
F
  0
LAYER
  5
1FA
100
AcDbSymbolTableRecord
100
AcDbLayerTableRecord
  2
DEFAULT_1
 70
0
 62
7
  6
CENTER
370
-3
390
F
  0
LAYER
  5
1FB
100
AcDbSymbolTableRecord
100
AcDbLayerTableRecord
  2
DEFAULT_2
 70
0
 62
7
  6
HIDDEN
370
-3
390
F
  0
LAYER
  5
1FC
100
AcDbSymbolTableRecord
100
AcDbLayerTableRecord
  2
DEFAULT_3
 70
0
 62
7
  6
PHANTOM
370
-3
390
F
  0
LAYER
  5
1FD
100
AcDbSymbolTableRecord
100
AcDbLayerTableRecord
  2
00_COMPONENTS
 70
0
 62
7
  6
CONTINUOUS
370
-3
390
F
  0
LAYER
  5
1FE
100
AcDbSymbolTableRecord
100
AcDbLayerTableRecord
  2
01_1_DEFAULT_DATUMS
 70
0
 62
7
  6
CONTINUOUS
370
-3
390
F
  0
LAYER
  5
1FF
100
AcDbSymbolTableRecord
100
AcDbLayerTableRecord
  2
01_PLANES
 70
0
 62
7
  6
CONTINUOUS
370
-3
390
F
  0
LAYER
  5
200
100
AcDbSymbolTableRecord
100
AcDbLayerTableRecord
  2
02_COORD_SYS
 70
0
 62
7
  6
CONTINUOUS
370
-3
390
F
  0
LAYER
  5
201
100
AcDbSymbolTableRecord
100
AcDbLayerTableRecord
  2
03_AXES
 70
0
 62
7
  6
CONTINUOUS
370
-3
390
F
  0
LAYER
  5
202
100
AcDbSymbolTableRecord
100
AcDbLayerTableRecord
  2
04_POINTS
 70
0
 62
7
  6
CONTINUOUS
370
-3
390
F
  0
LAYER
  5
203
100
AcDbSymbolTableRecord
100
AcDbLayerTableRecord
  2
05_CURVES
 70
0
 62
7
  6
CONTINUOUS
370
-3
390
F
  0
LAYER
  5
204
100
AcDbSymbolTableRecord
100
AcDbLayerTableRecord
  2
06_SURFS
 70
0
 62
7
  6
CONTINUOUS
370
-3
390
F
  0
LAYER
  5
205
100
AcDbSymbolTableRecord
100
AcDbLayerTableRecord
  2
07_COSMETICS
 70
0
 62
7
  6
CONTINUOUS
370
-3
390
F
  0
LAYER
  5
206
100
AcDbSymbolTableRecord
100
AcDbLayerTableRecord
  2
10_NOTES
 70
0
 62
7
  6
CONTINUOUS
370
-3
390
F
  0
LAYER
  5
207
100
AcDbSymbolTableRecord
100
AcDbLayerTableRecord
  2
11_NOTES_PUB
 70
0
 62
7
  6
CONTINUOUS
370
-3
390
F
  0
LAYER
  5
208
100
AcDbSymbolTableRecord
100
AcDbLayerTableRecord
  2
13_REF_GTOL
 70
0
 62
7
  6
CONTINUOUS
370
-3
390
F
  0
LAYER
  5
209
100
AcDbSymbolTableRecord
100
AcDbLayerTableRecord
  2
16_MISC
 70
0
 62
7
  6
CONTINUOUS
370
-3
390
F
  0
LAYER
  5
20A
100
AcDbSymbolTableRecord
100
AcDbLayerTableRecord
  2
17_NO_PRINT
 70
0
 62
7
  6
CONTINUOUS
370
-3
390
F
  0
LAYER
  5
20B
100
AcDbSymbolTableRecord
100
AcDbLayerTableRecord
  2
18_DATUM_CAMS_JOINTS
 70
0
 62
7
  6
CONTINUOUS
370
-3
390
F
  0
LAYER
  5
20C
100
AcDbSymbolTableRecord
100
AcDbLayerTableRecord
  2
19_DATUM_FUNCTIONAL
 70
0
 62
7
  6
CONTINUOUS
370
-3
390
F
  0
LAYER
  5
20D
100
AcDbSymbolTableRecord
100
AcDbLayerTableRecord
  2
20_DATUM_KINEMATIC_SCHEME
 70
0
 62
7
  6
CONTINUOUS
370
-3
390
F
  0
ENDTAB
  0
TABLE
  2
STYLE
  5
3
100
AcDbSymbolTable
 70
1
  0
STYLE
  5
11
100
AcDbSymbolTableRecord
100
AcDbTextStyleTableRecord
  2
STANDARD
 70
0
 40
0.0
 41
1.0
 50
0.0
 71
0
 42
0.2
  3
ARIAL.TTF
  4

  0
STYLE
  5
20E
100
AcDbSymbolTableRecord
100
AcDbTextStyleTableRecord
  2
TEXTSTYLE_1
 70
0
 40
0.0
 41
0.8
 50
0.0
 71
0
 42
0.2
  3
gdt
  4

  0
ENDTAB
  0
TABLE
  2
VIEW
  5
6
100
AcDbSymbolTable
 70
0
  0
ENDTAB
  0
TABLE
  2
UCS
  5
7
100
AcDbSymbolTable
 70
0
  0
ENDTAB
  0
TABLE
  2
APPID
  5
9
100
AcDbSymbolTable
 70
1
  0
APPID
  5
20F
100
AcDbSymbolTableRecord
100
AcDbRegAppTableRecord
  2
ACAD
 70
0
  0
ENDTAB
  0
TABLE
  2
BLOCK_RECORD
  5
1
100
AcDbSymbolTable
 70
0
  0
BLOCK_RECORD
  5
210
100
AcDbSymbolTableRecord
100
AcDbBlockTableRecord
  2
*Model_Space
  0
BLOCK_RECORD
  5
211
100
AcDbSymbolTableRecord
100
AcDbBlockTableRecord
  2
*Paper_Space
  0
BLOCK_RECORD
  5
212
100
AcDbSymbolTableRecord
100
AcDbBlockTableRecord
  2
_FILLED
  0
ENDTAB
  0
TABLE
  2
DIMSTYLE
  5
A
100
AcDbSymbolTable
 70
1
100
AcDbDimStyleTable
 71
0
  0
DIMSTYLE
105
213
100
AcDbSymbolTableRecord
100
AcDbDimStyleTableRecord
  2
STANDARD
 70
0
  3

  4

 40
1.0
 41
0.9059117801
 42
1.0
 43
0.38
 44
1.0
 45
0.0
 46
0.0
 47
0.01
 48
0.01
140
1.2682764921
141
0.09
142
0.0
143
25.4
144
1.0
145
0.0
146
1.0
147
0.625
 71
1
 72
0
 73
0
 74
0
 75
0
 76
0
 77
1
 78
8
 79
2
170
0
171
1
172
0
173
0
174
0
175
0
176
0
177
0
178
0
270
2
179
2
271
2
272
2
273
2
274
2
275
0
280
0
281
0
282
0
283
1
284
8
285
0
286
0
287
3
288
0
340
11
278
46
341
212
342
212
343
212
344
212
  0
ENDTAB
  0
ENDSEC
  0
SECTION
  2
BLOCKS
  0
BLOCK
  5
20
100
AcDbEntity
  8
0
100
AcDbBlockBegin
  2
*Model_Space
 70
0
 10
0.0
 20
0.0
 30
0.0
  3
*Model_Space
  1

  0
ENDBLK
  5
21
100
AcDbEntity
  8
0
100
AcDbBlockEnd
  0
BLOCK
  5
1C
100
AcDbEntity
  8
0
100
AcDbBlockBegin
  2
*Paper_Space
 70
0
 10
0.0
 20
0.0
 30
0.0
  3
*Paper_Space
  1

  0
ENDBLK
  5
1D
100
AcDbEntity
  8
0
100
AcDbBlockEnd
  0
BLOCK
  5
214
100
AcDbEntity
  8
0
100
AcDbBlockBegin
  2
_FILLED
 70
64
 10
0.0
 20
0.0
  3
_FILLED
  1

  0
SOLID
  5
215
100
AcDbEntity
  8
0
  6
BYBLOCK
 62
0
100
AcDbTrace
 10
0.0
 20
0.0
 11
-1.0
 21
0.25
 12
-1.0
 22
-0.25
 13
-1.0
 23
-0.25
  0
ENDBLK
  5
216
100
AcDbEntity
  8
0
  6
BYBLOCK
 62
0
100
AcDbBlockEnd
  0
ENDSEC
  0
SECTION
  2
ENTITIES
  0
LINE
  5
217
100
AcDbEntity
  8
0
100
AcDbLine
 62
7
  6
BYLAYER
 10
8.080023429
 20
27.0746170724
 11
8.080023429
 21
81.0746170633
  0
LINE
  5
218
100
AcDbEntity
  8
0
100
AcDbLine
 62
7
  6
BYLAYER
 10
9.080023429
 20
81.0746170678
 11
9.080023429
 21
27.0746170678
  0
LINE
  5
219
100
AcDbEntity
  8
0
100
AcDbLine
 62
7
  6
BYLAYER
 10
65.0800234244
 20
24.0746170678
 11
11.0800234336
 21
24.0746170678
  0
LINE
  5
21A
100
AcDbEntity
  8
0
100
AcDbLine
 62
7
  6
BYLAYER
 10
11.080023429
 20
25.0746170678
 11
65.080023429
 21
25.0746170678
  0
LINE
  5
21B
100
AcDbEntity
  8
0
100
AcDbLine
 62
7
  6
BYLAYER
 10
11.080023429
 20
84.0746170678
 11
11.080023429
 21
83.0746170678
  0
LINE
  5
21C
100
AcDbEntity
  8
0
100
AcDbLine
 62
7
  6
BYLAYER
 10
11.080023429
 20
25.0746170678
 11
11.080023429
 21
24.0746170678
  0
LINE
  5
21D
100
AcDbEntity
  8
0
100
AcDbLine
 62
7
  6
BYLAYER
 10
8.080023429
 20
27.0746170678
 11
9.080023429
 21
27.0746170678
  0
LINE
  5
21E
100
AcDbEntity
  8
0
100
AcDbLine
 62
7
  6
BYLAYER
 10
67.080023429
 20
27.0746170678
 11
68.080023429
 21
27.0746170678
  0
LINE
  5
21F
100
AcDbEntity
  8
0
100
AcDbLine
 62
7
  6
BYLAYER
 10
32.080023429
 20
34.3832484003
 11
34.080023429
 21
34.3832484003
  0
LINE
  5
220
100
AcDbEntity
  8
0
100
AcDbLine
 62
7
  6
BYLAYER
 10
42.080023429
 20
34.3832484003
 11
44.080023429
 21
34.3832484003
  0
LINE
  5
221
100
AcDbEntity
  8
0
100
AcDbLine
 62
7
  6
BYLAYER
 10
20.080023429
 20
45.3568191808
 11
20.080023429
 21
62.7924149549
  0
LINE
  5
222
100
AcDbEntity
  8
0
100
AcDbLine
 62
7
  6
BYLAYER
 10
37.6376363486
 20
72.8426079776
 11
35.8653131586
 21
69.5093528492
  0
LINE
  5
223
100
AcDbEntity
  8
0
100
AcDbLine
 62
7
  6
BYLAYER
 10
32.080023429
 20
34.3832484021
 11
32.080023429
 21
73.7659857345
  0
LINE
  5
224
100
AcDbEntity
  8
0
100
AcDbLine
 62
7
  6
BYLAYER
 10
34.080023429
 20
73.7659857354
 11
34.080023429
 21
67.9746170678
  0
LINE
  5
225
100
AcDbEntity
  8
0
100
AcDbLine
 62
7
  6
BYLAYER
 10
34.080023429
 20
67.5746170678
 11
34.080023429
 21
34.3832484003
  0
LINE
  5
226
100
AcDbEntity
  8
0
100
AcDbLine
 62
7
  6
BYLAYER
 10
36.180023429
 20
37.3746170678
 11
36.180023429
 21
67.5746170678
  0
LINE
  5
227
100
AcDbEntity
  8
0
100
AcDbLine
 62
7
  6
BYLAYER
 10
36.380023429
 20
67.9746170678
 11
36.380023429
 21
37.3746170678
  0
LINE
  5
228
100
AcDbEntity
  8
0
100
AcDbLine
 62
7
  6
BYLAYER
 10
34.492523429
 20
33.8909641836
 11
34.142523429
 21
31.9218273169
  0
LINE
  5
229
100
AcDbEntity
  8
0
100
AcDbLine
 62
7
  6
BYLAYER
 10
41.667523429
 20
74.258269952
 11
42.017523429
 21
76.2274068188
  0
LINE
  5
22A
100
AcDbEntity
  8
0
100
AcDbLine
 62
7
  6
BYLAYER
 10
58.3300234386
 20
63.8821396711
 11
56.0800234375
 21
62.7924149374
  0
LINE
  5
22B
100
AcDbEntity
  8
0
100
AcDbLine
 62
7
  6
BYLAYER
 10
17.8300234175
 20
44.2670944688
 11
20.0800234188
 21
45.356819202
  0
LINE
  5
22C
100
AcDbEntity
  8
0
100
AcDbLine
 62
7
  6
BYLAYER
 10
20.0800234299
 20
62.7924149567
 11
17.83002343
 21
63.8821396928
  0
LINE
  5
22D
100
AcDbEntity
  8
0
100
AcDbLine
 62
7
  6
BYLAYER
 10
56.0800233006
 20
45.3568189155
 11
58.3300232845
 21
44.2670941464
  0
LINE
  5
22E
100
AcDbEntity
  8
0
100
AcDbLine
 62
7
  6
BYLAYER
 10
34.142523429
 20
76.2274068188
 11
34.492523429
 21
74.258269952
  0
LINE
  5
22F
100
AcDbEntity
  8
0
100
AcDbLine
 62
7
  6
BYLAYER
 10
42.017523429
 20
31.9218273169
 11
41.667523429
 21
33.8909641836
  0
LINE
  5
230
100
AcDbEntity
  8
0
100
AcDbLine
 62
7
  6
BYLAYER
 10
39.780023429
 20
37.3746170678
 11
39.780023429
 21
67.9746170678
  0
LINE
  5
231
100
AcDbEntity
  8
0
100
AcDbLine
 62
7
  6
BYLAYER
 10
39.980023429
 20
67.5746170678
 11
39.980023429
 21
37.3746170678
  0
LINE
  5
232
100
AcDbEntity
  8
0
100
AcDbLine
 62
7
  6
BYLAYER
 10
42.080023429
 20
34.3832484003
 11
42.080023429
 21
67.5746170678
  0
LINE
  5
233
100
AcDbEntity
  8
0
100
AcDbLine
 62
7
  6
BYLAYER
 10
42.080023429
 20
67.9746170678
 11
42.080023429
 21
73.7659857354
  0
LINE
  5
234
100
AcDbEntity
  8
0
100
AcDbLine
 62
7
  6
BYLAYER
 10
44.080023429
 20
73.7659857336
 11
44.080023429
 21
34.3832484012
  0
LINE
  5
235
100
AcDbEntity
  8
0
100
AcDbLine
 62
7
  6
BYLAYER
 10
40.2859940109
 20
69.508596578
 11
38.5209852278
 21
72.8418517064
  0
LINE
  5
236
100
AcDbEntity
  8
0
100
AcDbLine
 62
7
  6
BYLAYER
 10
32.080023429
 20
67.5746170678
 11
36.180023429
 21
67.5746170678
  0
LINE
  5
237
100
AcDbEntity
  8
0
100
AcDbLine
 62
7
  6
BYLAYER
 10
39.980023429
 20
67.5746170678
 11
44.080023429
 21
67.5746170678
  0
LINE
  5
238
100
AcDbEntity
  8
0
100
AcDbLine
 62
7
  6
BYLAYER
 10
32.080023429
 20
67.9746170678
 11
36.380023429
 21
67.9746170678
  0
LINE
  5
239
100
AcDbEntity
  8
0
100
AcDbLine
 62
7
  6
BYLAYER
 10
39.780023429
 20
67.9746170678
 11
44.080023429
 21
67.9746170678
  0
LINE
  5
23A
100
AcDbEntity
  8
0
100
AcDbLine
 62
7
  6
BYLAYER
 10
39.8441189281
 20
68.7746170678
 11
36.3067869551
 21
68.7746170678
  0
LINE
  5
23B
100
AcDbEntity
  8
0
100
AcDbLine
 62
7
  6
BYLAYER
 10
56.080023429
 20
62.7924149549
 11
56.0800234291
 21
45.3568191808
  0
LINE
  5
23C
100
AcDbEntity
  8
0
100
AcDbLine
 62
7
  6
BYLAYER
 10
44.080023429
 20
73.7659857354
 11
42.080023429
 21
73.7659857354
  0
LINE
  5
23D
100
AcDbEntity
  8
0
100
AcDbLine
 62
7
  6
BYLAYER
 10
34.080023429
 20
73.7659857354
 11
32.080023429
 21
73.7659857354
  0
LINE
  5
23E
100
AcDbEntity
  8
0
100
AcDbLine
 62
7
  6
BYLAYER
 10
65.080023429
 20
24.0746170678
 11
65.080023429
 21
25.0746170678
  0
LINE
  5
23F
100
AcDbEntity
  8
0
100
AcDbLine
 62
7
  6
BYLAYER
 10
65.080023429
 20
83.0746170678
 11
65.080023429
 21
84.0746170678
  0
LINE
  5
240
100
AcDbEntity
  8
0
100
AcDbLine
 62
7
  6
BYLAYER
 10
68.080023429
 20
81.0746170678
 11
67.080023429
 21
81.0746170678
  0
LINE
  5
241
100
AcDbEntity
  8
0
100
AcDbLine
 62
7
  6
BYLAYER
 10
9.080023429
 20
81.0746170678
 11
8.080023429
 21
81.0746170678
  0
LINE
  5
242
100
AcDbEntity
  8
0
100
AcDbLine
 62
7
  6
BYLAYER
 10
67.080023429
 20
27.0746170678
 11
67.080023429
 21
81.0746170678
  0
LINE
  5
243
100
AcDbEntity
  8
0
100
AcDbLine
 62
7
  6
BYLAYER
 10
68.080023429
 20
81.0746170632
 11
68.080023429
 21
27.0746170724
  0
LINE
  5
244
100
AcDbEntity
  8
0
100
AcDbLine
 62
7
  6
BYLAYER
 10
68.280023429
 20
46.7212050432
 11
68.280023429
 21
61.4280290925
  0
LINE
  5
245
100
AcDbEntity
  8
0
100
AcDbLine
 62
7
  6
BYLAYER
 10
68.280023429
 20
46.7212050432
 11
68.080023429
 21
45.5412050432
  0
LINE
  5
246
100
AcDbEntity
  8
0
100
AcDbLine
 62
7
  6
BYLAYER
 10
65.080023429
 20
83.0746170678
 11
11.080023429
 21
83.0746170678
  0
LINE
  5
247
100
AcDbEntity
  8
0
100
AcDbLine
 62
7
  6
BYLAYER
 10
11.0800234336
 20
84.0746170678
 11
65.0800234245
 21
84.0746170678
  0
LINE
  5
248
100
AcDbEntity
  8
0
100
AcDbLine
 62
7
  6
BYLAYER
 10
68.080023429
 20
62.6080290925
 11
68.280023429
 21
61.4280290925
  0
ARC
  5
249
100
AcDbEntity
  8
0
100
AcDbCircle
 62
7
  6
BYLAYER
 10
11.080023429
 20
27.0746170678
 40
3.0
100
AcDbArc
 50
179.999999956
 51
270.0
  0
ARC
  5
24A
100
AcDbEntity
  8
0
100
AcDbCircle
 62
7
  6
BYLAYER
 10
21.330023429
 20
44.0746170678
 40
2.994922912
100
AcDbArc
 50
212.561296822
 51
270.0
  0
ARC
  5
24B
100
AcDbEntity
  8
0
100
AcDbCircle
 62
7
  6
BYLAYER
 10
34.580023429
 20
34.3832484003
 40
2.5
100
AcDbArc
 50
179.9999999794
 51
259.9213418922
  0
ARC
  5
24C
100
AcDbEntity
  8
0
100
AcDbCircle
 62
7
  6
BYLAYER
 10
11.080023429
 20
27.0746170678
 40
2.0
100
AcDbArc
 50
180.0
 51
270.0
  0
ARC
  5
24D
100
AcDbEntity
  8
0
100
AcDbCircle
 62
7
  6
BYLAYER
 10
34.580023429
 20
34.3832484003
 40
0.5
100
AcDbArc
 50
180.0000000008
 51
259.9213418897
  0
ARC
  5
24E
100
AcDbEntity
  8
0
100
AcDbCircle
 62
7
  6
BYLAYER
 10
11.080023429
 20
81.0746170678
 40
3.0
100
AcDbArc
 50
89.999999956
 51
180.0
  0
ARC
  5
24F
100
AcDbEntity
  8
0
100
AcDbCircle
 62
7
  6
BYLAYER
 10
21.330023429
 20
64.0746170678
 40
2.994922912
100
AcDbArc
 50
90.0
 51
147.6894804033
  0
ARC
  5
250
100
AcDbEntity
  8
0
100
AcDbCircle
 62
7
  6
BYLAYER
 10
34.580023429
 20
73.7659857353
 40
2.5
100
AcDbArc
 50
100.0786581078
 51
180.0000000102
  0
ARC
  5
251
100
AcDbEntity
  8
0
100
AcDbCircle
 62
7
  6
BYLAYER
 10
11.080023429
 20
81.0746170678
 40
2.0
100
AcDbArc
 50
90.0
 51
180.0
  0
ARC
  5
252
100
AcDbEntity
  8
0
100
AcDbCircle
 62
7
  6
BYLAYER
 10
38.079110145
 20
72.6078721962
 40
0.5
100
AcDbArc
 50
27.9018934881
 51
151.9999999996
  0
ARC
  5
253
100
AcDbEntity
  8
0
100
AcDbCircle
 62
7
  6
BYLAYER
 10
36.3067869551
 20
69.2746170678
 40
0.5
100
AcDbArc
 50
152.0
 51
270.0
  0
ARC
  5
254
100
AcDbEntity
  8
0
100
AcDbCircle
 62
7
  6
BYLAYER
 10
34.580023429
 20
73.7659857353
 40
0.5
100
AcDbArc
 50
100.0786581107
 51
179.9999999991
  0
ARC
  5
255
100
AcDbEntity
  8
0
100
AcDbCircle
 62
7
  6
BYLAYER
 10
65.080023429
 20
27.0746170678
 40
3.0
100
AcDbArc
 50
269.999999956
 51
360.0
  0
ARC
  5
256
100
AcDbEntity
  8
0
100
AcDbCircle
 62
7
  6
BYLAYER
 10
54.830023429
 20
44.0746170678
 40
2.994922912
100
AcDbArc
 50
270.0
 51
324.5339231931
  0
ARC
  5
257
100
AcDbEntity
  8
0
100
AcDbCircle
 62
7
  6
BYLAYER
 10
41.580023429
 20
34.3832484003
 40
2.5
100
AcDbArc
 50
280.0786581078
 51
360.0
  0
ARC
  5
258
100
AcDbEntity
  8
0
100
AcDbCircle
 62
7
  6
BYLAYER
 10
65.080023429
 20
27.0746170678
 40
2.0
100
AcDbArc
 50
270.0
 51
360.0
  0
ARC
  5
259
100
AcDbEntity
  8
0
100
AcDbCircle
 62
7
  6
BYLAYER
 10
38.080023429
 20
37.3746170678
 40
1.9
100
AcDbArc
 50
180.0
 51
360.0
  0
ARC
  5
25A
100
AcDbEntity
  8
0
100
AcDbCircle
 62
7
  6
BYLAYER
 10
38.080023429
 20
37.3746170678
 40
1.7
100
AcDbArc
 50
180.0
 51
360.0
  0
ARC
  5
25B
100
AcDbEntity
  8
0
100
AcDbCircle
 62
7
  6
BYLAYER
 10
41.580023429
 20
34.3832484003
 40
0.5
100
AcDbArc
 50
280.0786581107
 51
359.9999999991
  0
CIRCLE
  5
25C
100
AcDbEntity
  8
0
100
AcDbCircle
 62
7
  6
BYLAYER
 10
38.080023429
 20
54.0746170678
 40
22.5
  0
ARC
  5
25D
100
AcDbEntity
  8
0
100
AcDbCircle
 62
7
  6
BYLAYER
 10
38.080023429
 20
54.0746170678
 40
20.5
100
AcDbArc
 50
259.9213418922
 51
280.0786581078
  0
ARC
  5
25E
100
AcDbEntity
  8
0
100
AcDbCircle
 62
7
  6
BYLAYER
 10
38.080023429
 20
54.0746170678
 40
20.5
100
AcDbArc
 50
79.9213418922
 51
100.0786581078
  0
ARC
  5
25F
100
AcDbEntity
  8
0
100
AcDbCircle
 62
7
  6
BYLAYER
 10
38.080023429
 20
54.0746170678
 40
20.0
100
AcDbArc
 50
334.1580672369
 51
25.8419327632
  0
ARC
  5
260
100
AcDbEntity
  8
0
100
AcDbCircle
 62
7
  6
BYLAYER
 10
38.080023429
 20
54.0746170678
 40
20.0
100
AcDbArc
 50
154.1580672368
 51
205.8419327632
  0
ARC
  5
261
100
AcDbEntity
  8
0
100
AcDbCircle
 62
7
  6
BYLAYER
 10
65.080023429
 20
81.0746170678
 40
3.0
100
AcDbArc
 50
0.0
 51
90.0
  0
ARC
  5
262
100
AcDbEntity
  8
0
100
AcDbCircle
 62
7
  6
BYLAYER
 10
54.830023429
 20
64.0746170678
 40
2.994922912
100
AcDbArc
 50
35.4617797558
 51
90.0
  0
ARC
  5
263
100
AcDbEntity
  8
0
100
AcDbCircle
 62
7
  6
BYLAYER
 10
41.580023429
 20
73.7659857353
 40
2.5
100
AcDbArc
 50
0.0
 51
79.9213418922
  0
ARC
  5
264
100
AcDbEntity
  8
0
100
AcDbCircle
 62
7
  6
BYLAYER
 10
65.080023429
 20
81.0746170678
 40
2.0
100
AcDbArc
 50
0.0
 51
90.0
  0
ARC
  5
265
100
AcDbEntity
  8
0
100
AcDbCircle
 62
7
  6
BYLAYER
 10
39.8441189281
 20
69.2746170678
 40
0.5
100
AcDbArc
 50
270.0
 51
27.9018934882
  0
ARC
  5
266
100
AcDbEntity
  8
0
100
AcDbCircle
 62
7
  6
BYLAYER
 10
41.580023429
 20
73.7659857353
 40
0.5
100
AcDbArc
 50
0.0000000008
 51
79.9213418897
  0
SPLINE
  5
267
100
AcDbEntity
  8
0
100
AcDbSpline
 62
7
  6
BYLAYER
 70
0
 71
3
 72
31
 73
27
 74
0
 42
0.0000001
 43
0.0000001
 44
0.0000000001
 40
0.0
 40
0.0
 40
0.0
 40
0.0
 40
0.1823128928
 40
0.3600923371
 40
0.4463456126
 40
0.529872988
 40
0.609781656
 40
0.6849786454
 40
0.7542880773
 40
0.8166472743
 40
0.8709910193
 40
0.8949238656
 40
0.9165715699
 40
0.9358404715
 40
0.9526757579
 40
0.967028418
 40
0.9788441284
 40
0.9837832868
 40
0.9880713604
 40
0.9917061402
 40
0.9946853695
 40
0.9970067444
 40
0.9986679137
 40
0.9992501743
 40
0.9996664807
 40
1.0
 40
1.0
 40
1.0
 40
1.0
 10
56.0800236899
 20
45.3568190762
 30
0.0
 10
55.6975076139
 20
44.4024913664
 30
0.0
 10
54.8087207424
 20
42.5676809387
 30
0.0
 10
53.3824429119
 20
40.4809024356
 30
0.0
 10
52.0907785957
 20
39.0043136607
 30
0.0
 10
51.081888598
 20
38.0197616722
 30
0.0
 10
50.0441282442
 20
37.1607291478
 30
0.0
 10
49.0081730991
 20
36.4314992654
 30
0.0
 10
48.0034647893
 20
35.8364064739
 30
0.0
 10
47.0642161019
 20
35.3674319739
 30
0.0
 10
46.3320653105
 20
35.0610498981
 30
0.0
 10
45.8027800468
 20
34.8674785595
 30
0.0
 10
45.4560633339
 20
34.75102281
 30
0.0
 10
45.1449538258
 20
34.6545883054
 30
0.0
 10
44.871377607
 20
34.5762671695
 30
0.0
 10
44.6369622605
 20
34.5140641125
 30
0.0
 10
44.4666899993
 20
34.4718260017
 30
0.0
 10
44.3512820481
 20
34.4441941144
 30
0.0
 10
44.2806620487
 20
34.4276410329
 30
0.0
 10
44.2207324037
 20
34.4139122706
 30
0.0
 10
44.1715697081
 20
34.4028660735
 30
0.0
 10
44.1332009358
 20
34.3945212804
 30
0.0
 10
44.1080682412
 20
34.3890028153
 30
0.0
 10
44.0933374671
 20
34.3860856317
 30
0.0
 10
44.0860740933
 20
34.3842621021
 30
0.0
 10
44.0817542139
 20
34.3839843038
 30
0.0
 10
44.080023429
 20
34.3832481186
 30
0.0
  0
SPLINE
  5
268
100
AcDbEntity
  8
0
100
AcDbSpline
 62
7
  6
BYLAYER
 70
0
 71
3
 72
29
 73
25
 74
0
 42
0.0000001
 43
0.0000001
 44
0.0000000001
 40
0.0
 40
0.0
 40
0.0
 40
0.0
 40
0.0003333576
 40
0.0013315575
 40
0.0029921917
 40
0.0053128986
 40
0.008291363
 40
0.0119253167
 40
0.0211508283
 40
0.0329649792
 40
0.0473162526
 40
0.0641503164
 40
0.0834181517
 40
0.1050649204
 40
0.1289968609
 40
0.18333839
 40
0.245694584
 40
0.3150022187
 40
0.3902001599
 40
0.4701098056
 40
0.5536357367
 40
0.6398878491
 40
0.8176751267
 40
1.0
 40
1.0
 40
1.0
 40
1.0
 10
44.080023429
 20
73.7659863495
 30
0.0
 10
44.0817804501
 20
73.7653177452
 30
0.0
 10
44.0893444021
 20
73.7645271692
 30
0.0
 10
44.1056592412
 20
73.7603729453
 30
0.0
 10
44.1332319827
 20
73.7548846
 30
0.0
 10
44.1715207218
 20
73.7463072476
 30
0.0
 10
44.2206977381
 20
73.7353546229
 30
0.0
 10
44.3077465011
 20
73.7153635106
 30
0.0
 10
44.4431373507
 20
73.6832491918
 30
0.0
 10
44.6368547218
 20
73.6351958246
 30
0.0
 10
44.871248587
 20
73.5730021866
 30
0.0
 10
45.1448057683
 20
73.4946903363
 30
0.0
 10
45.4558992047
 20
73.3982653239
 30
0.0
 10
45.8026017227
 20
73.2818189029
 30
0.0
 10
46.3318678911
 20
73.0882620529
 30
0.0
 10
47.0639914235
 20
72.7819046821
 30
0.0
 10
48.0032132852
 20
72.312965175
 30
0.0
 10
49.0079119342
 20
71.7178987443
 30
0.0
 10
50.0438810754
 20
70.9886879498
 30
0.0
 10
51.0816651291
 20
70.1296799154
 30
0.0
 10
52.0905681409
 20
69.1451539921
 30
0.0
 10
53.3822696749
 20
67.6685588169
 30
0.0
 10
54.8086401486
 20
65.5817151515
 30
0.0
 10
55.6974820115
 20
63.7468052433
 30
0.0
 10
56.0800239977
 20
62.7924151828
 30
0.0
  0
SPLINE
  5
269
100
AcDbEntity
  8
0
100
AcDbSpline
 62
7
  6
BYLAYER
 70
0
 71
3
 72
30
 73
26
 74
0
 42
0.0000001
 43
0.0000001
 44
0.0000000001
 40
0.0
 40
0.0
 40
0.0
 40
0.0
 40
0.0003333912
 40
0.0007495737
 40
0.0013316766
 40
0.0029924479
 40
0.0053133455
 40
0.0082920552
 40
0.0119263102
 40
0.0211525971
 40
0.0329677573
 40
0.0473202609
 40
0.0641557587
 40
0.0834252165
 40
0.1050737845
 40
0.1290077008
 40
0.1833537269
 40
0.2457149856
 40
0.3150273028
 40
0.3902288258
 40
0.4701417856
 40
0.5536714732
 40
0.6399267857
 40
0.8177065383
 40
1.0
 40
1.0
 40
1.0
 40
1.0
 10
32.0800234291
 20
34.3832394819
 30
0.0
 10
32.0782682472
 20
34.3839134322
 30
0.0
 10
32.0739892954
 20
34.3842886354
 30
0.0
 10
32.0667077531
 20
34.3860612238
 30
0.0
 10
32.0519923563
 20
34.3890063907
 30
0.0
 10
32.026856731
 20
34.3945024185
 30
0.0
 10
31.9884998365
 20
34.4028560674
 30
0.0
 10
31.9393438005
 20
34.4138961518
 30
0.0
 10
31.8522757505
 20
34.4338476007
 30
0.0
 10
31.7168811645
 20
34.4659915901
 30
0.0
 10
31.5231438866
 20
34.5140378304
 30
0.0
 10
31.2887313232
 20
34.5762420292
 30
0.0
 10
31.0151508007
 20
34.6545608968
 30
0.0
 10
30.7040319489
 20
34.7509971837
 30
0.0
 10
30.3573015377
 20
34.8674569232
 30
0.0
 10
29.8279936636
 20
35.0610366814
 30
0.0
 10
29.0958142956
 20
35.3674307927
 30
0.0
 10
28.1565285027
 20
35.8364238957
 30
0.0
 10
27.1517772731
 20
36.4315510372
 30
0.0
 10
26.1157754762
 20
37.1608309082
 30
0.0
 10
25.0779739582
 20
38.0199134533
 30
0.0
 10
24.0690589635
 20
39.0045114357
 30
0.0
 10
22.7774100957
 20
40.4811504008
 30
0.0
 10
21.3512157196
 20
42.5678694352
 30
0.0
 10
20.462488306
 20
44.4025883302
 30
0.0
 10
20.080015171
 20
45.3568158708
 30
0.0
  0
SPLINE
  5
26A
100
AcDbEntity
  8
0
100
AcDbSpline
 62
7
  6
BYLAYER
 70
0
 71
3
 72
31
 73
27
 74
0
 42
0.0000001
 43
0.0000001
 44
0.0000000001
 40
0.0
 40
0.0
 40
0.0
 40
0.0
 40
0.1822885258
 40
0.3600669064
 40
0.4463220098
 40
0.5298505225
 40
0.6097608739
 40
0.6849604662
 40
0.7542734614
 40
0.8166363951
 40
0.8709832598
 40
0.8949174349
 40
0.916566349
 40
0.9358363592
 40
0.9526726472
 40
0.9670261906
 40
0.9788426548
 40
0.9837821377
 40
0.9880704988
 40
0.9917055276
 40
0.9946849659
 40
0.9970065081
 40
0.9986678016
 40
0.9992501075
 40
0.9996664479
 40
1.0
 40
1.0
 40
1.0
 40
1.0
 10
20.0800283373
 20
62.7924129876
 30
0.0
 10
20.4624903294
 20
63.7466139608
 30
0.0
 10
21.3511995111
 20
65.5812989695
 30
0.0
 10
22.7773560012
 20
67.667996401
 30
0.0
 10
24.0689895034
 20
69.144625907
 30
0.0
 10
25.0778820801
 20
70.1292122936
 30
0.0
 10
26.1156469989
 20
70.9882862772
 30
0.0
 10
27.1516219624
 20
71.7175644186
 30
0.0
 10
28.156366922
 20
72.312704403
 30
0.0
 10
29.095660217
 20
72.7817206379
 30
0.0
 10
29.8278502199
 20
73.0881282643
 30
0.0
 10
30.3571639712
 20
73.2817140932
 30
0.0
 10
30.7038994564
 20
73.3981781818
 30
0.0
 10
31.0150262696
 20
73.494619732
 30
0.0
 10
31.288618266
 20
73.572946753
 30
0.0
 10
31.52304766
 20
73.6351545806
 30
0.0
 10
31.693330452
 20
73.6773959413
 30
0.0
 10
31.8087457901
 20
73.7050298897
 30
0.0
 10
31.8793704534
 20
73.7215842263
 30
0.0
 10
31.9393041888
 20
73.7353139292
 30
0.0
 10
31.9884702213
 20
73.7463611165
 30
0.0
 10
32.0268419435
 20
73.7547060329
 30
0.0
 10
32.0519760567
 20
73.7602259009
 30
0.0
 10
32.0667085291
 20
73.7631419584
 30
0.0
 10
32.0739714988
 20
73.7649680099
 30
0.0
 10
32.0782937218
 20
73.7652412515
 30
0.0
 10
32.080023429
 20
73.7659804346
 30
0.0
  0
ENDSEC
  0
SECTION
  2
OBJECTS
  0
DICTIONARY
  5
C
100
AcDbDictionary
280
0
281
1
  3
ACAD_GROUP
350
D
  3
ACAD_MLINESTYLE
350
17
  3
ACAD_LAYOUT
350
1A
  3
ACAD_PLOTSETTINGS
350
19
  3
ACAD_PLOTSTYLENAME
350
E
  0
DICTIONARY
  5
D
102
{ACAD_REACTORS
330
C
102
}
100
AcDbDictionary
280
0
281
1
  0
ACDBDICTIONARYWDFLT
  5
E
102
{ACAD_REACTORS
330
C
102
}
100
AcDbDictionary
281
1
  3
Normal
350
F
100
AcDbDictionaryWithDefault
340
F
  0
DICTIONARY
  5
17
102
{ACAD_REACTORS
330
C
102
}
100
AcDbDictionary
280
0
281
1
  3
Standard
350
18
  0
DICTIONARY
  5
19
102
{ACAD_REACTORS
330
C
102
}
100
AcDbDictionary
281
1
  0
DICTIONARY
  5
1A
102
{ACAD_REACTORS
330
C
102
}
100
AcDbDictionary
281
1
  3
Model
350
26B
  3
Layout1
350
26C
  0
ACDBPLACEHOLDER
  5
F
102
{ACAD_REACTORS
330
E
102
}
  0
MLINESTYLE
  5
18
102
{ACAD_REACTORS
330
17
102
}
100
AcDbMlineStyle
  2
STANDARD
 70
0
  3

 62
256
 51
90.0
 52
90.0
 71
2
 49
0.5
 62
256
  6
BYLAYER
 49
-0.5
 62
256
  6
BYLAYER
  0
LAYOUT
  5
26B
102
{ACAD_REACTORS
330
1A
102
}
100
AcDbPlotSettings
  1

  2
none_device
  4

  6

 40
0.0
 41
0.0
 42
0.0
 43
0.0
 44
210.0
 45
297.0
 46
0.0
 47
0.0
 48
0.0
 49
0.0
140
0.0
141
0.0
142
1.0
143
1.0
 70
1024
 72
1
 73
0
 74
0
  7

 75
0
147
1.0
148
0.0
149
0.0
100
AcDbLayout
  1
Model
 70
0
 71
0
 10
0.0
 20
0.0
 11
210.0
 21
297.0
 12
0.0
 22
0.0
 32
0.0
 14
0.0
 24
0.0
 34
0.0
 15
0.0
 25
0.0
 35
0.0
146
0.0
 13
0.0
 23
0.0
 33
0.0
 16
1.0
 26
0.0
 36
0.0
 17
0.0
 27
1.0
 37
0.0
 76
0
330
210
345
0
346
0
  0
LAYOUT
  5
26C
102
{ACAD_REACTORS
330
1A
102
}
100
AcDbPlotSettings
  1

  2
none_device
  4

  6

 40
0.0
 41
0.0
 42
0.0
 43
0.0
 44
210.0
 45
297.0
 46
0.0
 47
0.0
 48
0.0
 49
0.0
140
0.0
141
0.0
142
1.0
143
1.0
 70
0
 72
1
 73
0
 74
0
  7

 75
0
147
1.0
148
0.0
149
0.0
100
AcDbLayout
  1
Layout1
 70
0
 71
1
 10
0.0
 20
0.0
 11
210.0
 21
297.0
 12
0.0
 22
0.0
 32
0.0
 14
0.0
 24
0.0
 34
0.0
 15
0.0
 25
0.0
 35
0.0
146
0.0
 13
0.0
 23
0.0
 33
0.0
 16
1.0
 26
0.0
 36
0.0
 17
0.0
 27
1.0
 37
0.0
 76
0
330
211
345
0
346
0
  0
ENDSEC
  0
EOF
