999
DXF file: C:\Users\sesa63760\Dev\_Creo\CAD\MCADID0001897_3D-CAD\drw0001_4.dxf
999
Pro/ENGINEER 2019471 by Parametric Technology Corporation
  0
SECTION
  2
HEADER
  9
$ACADVER
  1
AC1024
  9
$DWGCODEPAGE
  3
ANSI_1252
  9
$EXTMAX
 10
98.3544496691
 20
139.1012931035
 30
0.0
  9
$EXTMIN
 10
0.0
 20
0.0
 30
0.0
  9
$LIMMIN
 10
0.0
 20
0.0
  9
$LIMMAX
 10
98.3544496691
 20
139.1012931035
  9
$VIEWCTR
 10
49.1772248346
 20
69.5506465517
  9
$VIEWSIZE
 40
139.1012931035
  9
$CLAYER
  8
0
  9
$LTSCALE
 40
9.0673435504
  9
$CELTYPE
  6
BYLAYER
  9
$DIMSCALE
 40
1.0
  9
$DIMASZ
 40
1.1708863056
  9
$DIMEXO
 40
1.0
  9
$DIMDLI
 40
6.2647100894
  9
$DIMEXE
 40
1.0
  9
$DIMCEN
 40
1.4837471264
  9
$DIMLFAC
 40
1.0
  9
$DIMBLK
  1
_FILLED
  9
$DIMALT
 70
0
  9
$DIMALTF
 40
0.0393700787
  9
$DIMTXT
 40
1.6392408278
  9
$DIMTOL
 70
1
  9
$DIMLIM
 70
0
  9
$DIMTFAC
 40
1.0
  9
$DIMTP
 40
0.01
  9
$DIMTM
 40
0.01
  9
$DIMGAP
 40
0.625
  9
$DIMDSEP
 70
46
  9
$AUNITS
 70
0
  9
$PDMODE
 70
3
  9
$PDSIZE
 40
0.3125
  9
$HANDSEED
  5
4AA
  9
$TILEMODE
 70
1
  9
$MEASUREMENT
 70
1
  9
$INSUNITS
 70
4
  0
ENDSEC
  0
SECTION
  2
CLASSES
  0
CLASS
  1
ACDBDICTIONARYWDFLT
  2
AcDbDictionaryWithDefault
  3
AutoCAD 2000
 90
0
 91
1
280
0
281
0
  0
CLASS
  1
ACDBPLACEHOLDER
  2
AcDbPlaceHolder
  3
AutoCAD 2000
 90
0
 91
1
280
0
281
0
  0
CLASS
  1
LAYOUT
  2
AcDbLayout
  3
AutoCAD 2000
 90
0
 91
0
280
0
281
0
  0
ENDSEC
  0
SECTION
  2
TABLES
  0
TABLE
  2
VPORT
  5
8
100
AcDbSymbolTable
 70
2
  0
VPORT
  5
1F4
100
AcDbSymbolTableRecord
100
AcDbViewportTableRecord
  2
*ACTIVE
 70
0
 10
0.0
 20
0.0
 11
1.0
 21
1.0
 12
49.1772248346
 22
69.5506465517
 13
0.0
 23
0.0
 14
1.0
 24
1.0
 15
0.0
 25
0.0
 16
0.0
 26
0.0
 36
1.0
 17
0.0
 27
0.0
 37
0.0
 40
139.1012931035
 41
0.7070707071
 42
50.0
 43
0.0
 44
0.0
 50
0.0
 51
0.0
 71
0
 72
100
 73
1
 74
1
 75
0
 76
0
 77
0
 78
0
  0
ENDTAB
  0
TABLE
  2
LTYPE
  5
5
100
AcDbSymbolTable
 70
6
  0
LTYPE
  5
14
100
AcDbSymbolTableRecord
100
AcDbLinetypeTableRecord
  2
BYBLOCK
 70
0
  3

 72
65
 73
0
 40
0.0
  0
LTYPE
  5
15
100
AcDbSymbolTableRecord
100
AcDbLinetypeTableRecord
  2
BYLAYER
 70
0
  3

 72
65
 73
0
 40
0.0
  0
LTYPE
  5
16
100
AcDbSymbolTableRecord
100
AcDbLinetypeTableRecord
  2
CONTINUOUS
 70
64
  3
Solid line
 72
65
 73
0
 40
0.0
  0
LTYPE
  5
1F5
100
AcDbSymbolTableRecord
100
AcDbLinetypeTableRecord
  2
CENTER
 70
64
  3
____ _ ____ _ ____ _ ____ _ ____ _ ____ _ ____
 72
65
 73
4
 40
0.6
 49
0.375
 74
0
 49
-0.075
 74
0
 49
0.075
 74
0
 49
-0.075
 74
0
  0
LTYPE
  5
1F6
100
AcDbSymbolTableRecord
100
AcDbLinetypeTableRecord
  2
HIDDEN
 70
64
  3
- - - - - - - - - - - - - - - - - - - -
 72
65
 73
2
 40
0.2
 49
0.1
 74
0
 49
-0.1
 74
0
  0
LTYPE
  5
1F7
100
AcDbSymbolTableRecord
100
AcDbLinetypeTableRecord
  2
PHANTOM
 70
64
  3
_____ _ _ _____ _ _ _____ _ _ _____
 72
65
 73
6
 40
0.8
 49
0.45
 74
0
 49
-0.05
 74
0
 49
0.1
 74
0
 49
-0.05
 74
0
 49
0.1
 74
0
 49
-0.05
 74
0
  0
LTYPE
  5
1F8
100
AcDbSymbolTableRecord
100
AcDbLinetypeTableRecord
  2
DOT
 70
64
  3
. . . . . . . . . . . . . . . . . . . .
 72
65
 73
2
 40
0.2
 49
0.1
 74
0
 49
-0.1
 74
0
  0
LTYPE
  5
1F9
100
AcDbSymbolTableRecord
100
AcDbLinetypeTableRecord
  2
DASHED
 70
64
  3
- - - - - - - - - - - - - - - - - - - -
 72
65
 73
2
 40
0.2
 49
0.1
 74
0
 49
-0.1
 74
0
  0
ENDTAB
  0
TABLE
  2
LAYER
  5
2
100
AcDbSymbolTable
 70
36
  0
LAYER
  5
10
100
AcDbSymbolTableRecord
100
AcDbLayerTableRecord
  2
0
 70
0
 62
7
  6
CONTINUOUS
370
-3
390
F
  0
LAYER
  5
1FA
100
AcDbSymbolTableRecord
100
AcDbLayerTableRecord
  2
DEFAULT_1
 70
0
 62
7
  6
CENTER
370
-3
390
F
  0
LAYER
  5
1FB
100
AcDbSymbolTableRecord
100
AcDbLayerTableRecord
  2
DEFAULT_2
 70
0
 62
8
  6
HIDDEN
370
-3
390
F
  0
LAYER
  5
1FC
100
AcDbSymbolTableRecord
100
AcDbLayerTableRecord
  2
DEFAULT_3
 70
0
 62
7
  6
PHANTOM
370
-3
390
F
  0
LAYER
  5
1FD
100
AcDbSymbolTableRecord
100
AcDbLayerTableRecord
  2
00_COMPONENTS
 70
0
 62
7
  6
CONTINUOUS
370
-3
390
F
  0
LAYER
  5
1FE
100
AcDbSymbolTableRecord
100
AcDbLayerTableRecord
  2
01_1_DEFAULT_DATUMS
 70
0
 62
7
  6
CONTINUOUS
370
-3
390
F
  0
LAYER
  5
1FF
100
AcDbSymbolTableRecord
100
AcDbLayerTableRecord
  2
01_PLANES
 70
0
 62
7
  6
CONTINUOUS
370
-3
390
F
  0
LAYER
  5
200
100
AcDbSymbolTableRecord
100
AcDbLayerTableRecord
  2
02_COORD_SYS
 70
0
 62
7
  6
CONTINUOUS
370
-3
390
F
  0
LAYER
  5
201
100
AcDbSymbolTableRecord
100
AcDbLayerTableRecord
  2
03_AXES
 70
0
 62
7
  6
CONTINUOUS
370
-3
390
F
  0
LAYER
  5
202
100
AcDbSymbolTableRecord
100
AcDbLayerTableRecord
  2
04_POINTS
 70
0
 62
7
  6
CONTINUOUS
370
-3
390
F
  0
LAYER
  5
203
100
AcDbSymbolTableRecord
100
AcDbLayerTableRecord
  2
05_CURVES
 70
0
 62
7
  6
CONTINUOUS
370
-3
390
F
  0
LAYER
  5
204
100
AcDbSymbolTableRecord
100
AcDbLayerTableRecord
  2
06_SURFS
 70
0
 62
7
  6
CONTINUOUS
370
-3
390
F
  0
LAYER
  5
205
100
AcDbSymbolTableRecord
100
AcDbLayerTableRecord
  2
07_COSMETICS
 70
0
 62
7
  6
CONTINUOUS
370
-3
390
F
  0
LAYER
  5
206
100
AcDbSymbolTableRecord
100
AcDbLayerTableRecord
  2
10_NOTES
 70
0
 62
7
  6
CONTINUOUS
370
-3
390
F
  0
LAYER
  5
207
100
AcDbSymbolTableRecord
100
AcDbLayerTableRecord
  2
11_NOTES_PUB
 70
0
 62
7
  6
CONTINUOUS
370
-3
390
F
  0
LAYER
  5
208
100
AcDbSymbolTableRecord
100
AcDbLayerTableRecord
  2
13_REF_GTOL
 70
0
 62
7
  6
CONTINUOUS
370
-3
390
F
  0
LAYER
  5
209
100
AcDbSymbolTableRecord
100
AcDbLayerTableRecord
  2
16_MISC
 70
0
 62
7
  6
CONTINUOUS
370
-3
390
F
  0
LAYER
  5
20A
100
AcDbSymbolTableRecord
100
AcDbLayerTableRecord
  2
17_NO_PRINT
 70
0
 62
7
  6
CONTINUOUS
370
-3
390
F
  0
LAYER
  5
20B
100
AcDbSymbolTableRecord
100
AcDbLayerTableRecord
  2
18_DATUM_CAMS_JOINTS
 70
0
 62
7
  6
CONTINUOUS
370
-3
390
F
  0
LAYER
  5
20C
100
AcDbSymbolTableRecord
100
AcDbLayerTableRecord
  2
19_DATUM_FUNCTIONAL
 70
0
 62
7
  6
CONTINUOUS
370
-3
390
F
  0
LAYER
  5
20D
100
AcDbSymbolTableRecord
100
AcDbLayerTableRecord
  2
20_DATUM_KINEMATIC_SCHEME
 70
0
 62
7
  6
CONTINUOUS
370
-3
390
F
  0
ENDTAB
  0
TABLE
  2
STYLE
  5
3
100
AcDbSymbolTable
 70
1
  0
STYLE
  5
11
100
AcDbSymbolTableRecord
100
AcDbTextStyleTableRecord
  2
STANDARD
 70
0
 40
0.0
 41
0.8
 50
0.0
 71
0
 42
0.2
  3
txt
  4

  0
STYLE
  5
20E
100
AcDbSymbolTableRecord
100
AcDbTextStyleTableRecord
  2
TEXTSTYLE_1
 70
0
 40
0.0
 41
0.8
 50
0.0
 71
0
 42
0.2
  3
gdt
  4

  0
ENDTAB
  0
TABLE
  2
VIEW
  5
6
100
AcDbSymbolTable
 70
0
  0
ENDTAB
  0
TABLE
  2
UCS
  5
7
100
AcDbSymbolTable
 70
0
  0
ENDTAB
  0
TABLE
  2
APPID
  5
9
100
AcDbSymbolTable
 70
1
  0
APPID
  5
20F
100
AcDbSymbolTableRecord
100
AcDbRegAppTableRecord
  2
ACAD
 70
0
  0
ENDTAB
  0
TABLE
  2
BLOCK_RECORD
  5
1
100
AcDbSymbolTable
 70
0
  0
BLOCK_RECORD
  5
210
100
AcDbSymbolTableRecord
100
AcDbBlockTableRecord
  2
*Model_Space
  0
BLOCK_RECORD
  5
211
100
AcDbSymbolTableRecord
100
AcDbBlockTableRecord
  2
*Paper_Space
  0
BLOCK_RECORD
  5
212
100
AcDbSymbolTableRecord
100
AcDbBlockTableRecord
  2
_FILLED
  0
ENDTAB
  0
TABLE
  2
DIMSTYLE
  5
A
100
AcDbSymbolTable
 70
1
100
AcDbDimStyleTable
 71
0
  0
DIMSTYLE
105
213
100
AcDbSymbolTableRecord
100
AcDbDimStyleTableRecord
  2
STANDARD
 70
0
  3

  4

 40
1.0
 41
1.1708863056
 42
1.0
 43
0.38
 44
1.0
 45
0.0
 46
0.0
 47
0.01
 48
0.01
140
1.6392408278
141
0.09
142
0.0
143
25.4
144
1.0
145
0.0
146
1.0
147
0.625
 71
1
 72
0
 73
0
 74
0
 75
0
 76
0
 77
1
 78
8
 79
2
170
0
171
1
172
0
173
0
174
0
175
0
176
0
177
0
178
0
270
2
179
2
271
2
272
2
273
2
274
2
275
0
280
0
281
0
282
0
283
1
284
8
285
0
286
0
287
3
288
0
340
11
278
46
341
212
342
212
343
212
344
212
  0
ENDTAB
  0
ENDSEC
  0
SECTION
  2
BLOCKS
  0
BLOCK
  5
20
100
AcDbEntity
  8
0
100
AcDbBlockBegin
  2
*Model_Space
 70
0
 10
0.0
 20
0.0
 30
0.0
  3
*Model_Space
  1

  0
ENDBLK
  5
21
100
AcDbEntity
  8
0
100
AcDbBlockEnd
  0
BLOCK
  5
1C
100
AcDbEntity
  8
0
100
AcDbBlockBegin
  2
*Paper_Space
 70
0
 10
0.0
 20
0.0
 30
0.0
  3
*Paper_Space
  1

  0
ENDBLK
  5
1D
100
AcDbEntity
  8
0
100
AcDbBlockEnd
  0
BLOCK
  5
214
100
AcDbEntity
  8
0
100
AcDbBlockBegin
  2
_FILLED
 70
64
 10
0.0
 20
0.0
  3
_FILLED
  1

  0
SOLID
  5
215
100
AcDbEntity
  8
0
  6
BYBLOCK
 62
0
100
AcDbTrace
 10
0.0
 20
0.0
 11
-1.0
 21
0.25
 12
-1.0
 22
-0.25
 13
-1.0
 23
-0.25
  0
ENDBLK
  5
216
100
AcDbEntity
  8
0
  6
BYBLOCK
 62
0
100
AcDbBlockEnd
  0
ENDSEC
  0
SECTION
  2
ENTITIES
  0
LINE
  5
217
100
AcDbEntity
  8
0
100
AcDbLine
 62
7
  6
CONTINUOUS
 10
10.9541644897
 20
53.65
 11
10.9541644897
 21
29.95
  0
LINE
  5
218
100
AcDbEntity
  8
0
100
AcDbLine
 62
7
  6
CONTINUOUS
 10
11.2541644897
 20
29.95
 11
11.2541644897
 21
53.95
  0
LINE
  5
219
100
AcDbEntity
  8
0
100
AcDbLine
 62
7
  6
CONTINUOUS
 10
66.7541644897
 20
32.15
 11
65.5541644897
 21
31.95
  0
LINE
  5
21A
100
AcDbEntity
  8
0
100
AcDbLine
 62
7
  6
CONTINUOUS
 10
10.9541644897
 20
29.95
 11
31.1541644897
 21
29.95
  0
LINE
  5
21B
100
AcDbEntity
  8
0
100
AcDbLine
 62
7
  6
CONTINUOUS
 10
47.8041644925
 20
29.95
 11
53.1041644925
 21
29.95
  0
LINE
  5
21C
100
AcDbEntity
  8
0
100
AcDbLine
 62
7
  6
CONTINUOUS
 10
66.7541644897
 20
29.95
 11
89.9541644897
 21
29.95
  0
LINE
  5
21D
100
AcDbEntity
  8
0
100
AcDbLine
 62
7
  6
CONTINUOUS
 10
18.3541644952
 20
31.75
 11
22.5541644952
 21
31.75
  0
LINE
  5
21E
100
AcDbEntity
  8
0
100
AcDbLine
 62
7
  6
CONTINUOUS
 10
78.3541644897
 20
31.75
 11
82.5541644897
 21
31.75
  0
LINE
  5
21F
100
AcDbEntity
  8
0
100
AcDbLine
 62
7
  6
CONTINUOUS
 10
28.9541644897
 20
32.25
 11
31.4041644897
 21
32.25
  0
LINE
  5
220
100
AcDbEntity
  8
0
100
AcDbLine
 62
7
  6
CONTINUOUS
 10
28.4541644897
 20
32.45
 11
32.4492739964
 21
32.45
  0
LINE
  5
221
100
AcDbEntity
  8
0
100
AcDbLine
 62
7
  6
CONTINUOUS
 10
32.6541644897
 20
32.05
 11
31.4041644897
 21
32.25
  0
LINE
  5
222
100
AcDbEntity
  8
0
100
AcDbLine
 62
7
  6
CONTINUOUS
 10
82.3541644897
 20
32.65
 11
78.7541644897
 21
32.65
  0
LINE
  5
223
100
AcDbEntity
  8
0
100
AcDbLine
 62
7
  6
CONTINUOUS
 10
22.1541644897
 20
32.65
 11
18.5541644897
 21
32.65
  0
LINE
  5
224
100
AcDbEntity
  8
0
100
AcDbLine
 62
7
  6
CONTINUOUS
 10
29.6431987994
 20
32.95
 11
28.4541644897
 21
32.95
  0
LINE
  5
225
100
AcDbEntity
  8
0
100
AcDbLine
 62
7
  6
CONTINUOUS
 10
28.4541644897
 20
33.45
 11
48.8041644916
 21
33.45
  0
LINE
  5
226
100
AcDbEntity
  8
0
100
AcDbLine
 62
7
  6
CONTINUOUS
 10
52.1041644916
 20
33.45
 11
67.9541644897
 21
33.45
  0
LINE
  5
227
100
AcDbEntity
  8
0
100
AcDbLine
 62
7
  6
CONTINUOUS
 10
82.5541644897
 20
34.15
 11
78.3541644897
 21
34.15
  0
LINE
  5
228
100
AcDbEntity
  8
0
100
AcDbLine
 62
7
  6
CONTINUOUS
 10
22.5541644952
 20
34.15
 11
18.3541644952
 21
34.15
  0
LINE
  5
229
100
AcDbEntity
  8
0
100
AcDbLine
 62
7
  6
CONTINUOUS
 10
37.2041644952
 20
35.25
 11
41.7041644952
 21
35.25
  0
LINE
  5
22A
100
AcDbEntity
  8
0
100
AcDbLine
 62
7
  6
CONTINUOUS
 10
59.2041644842
 20
35.25
 11
63.7041644842
 21
35.25
  0
LINE
  5
22B
100
AcDbEntity
  8
0
100
AcDbLine
 62
7
  6
CONTINUOUS
 10
63.4541644842
 20
36.05
 11
59.4541644842
 21
36.05
  0
LINE
  5
22C
100
AcDbEntity
  8
0
100
AcDbLine
 62
7
  6
CONTINUOUS
 10
41.4541644952
 20
36.05
 11
37.4541644952
 21
36.05
  0
LINE
  5
22D
100
AcDbEntity
  8
0
100
AcDbLine
 62
7
  6
CONTINUOUS
 10
18.3541644952
 20
34.15
 11
18.3541644952
 21
31.75
  0
LINE
  5
22E
100
AcDbEntity
  8
0
100
AcDbLine
 62
7
  6
CONTINUOUS
 10
18.5541644897
 20
31.75
 11
18.5541644897
 21
34.15
  0
LINE
  5
22F
100
AcDbEntity
  8
0
100
AcDbLine
 62
7
  6
CONTINUOUS
 10
19.8541644897
 20
72.15
 11
19.8541644897
 21
53.95
  0
LINE
  5
230
100
AcDbEntity
  8
0
100
AcDbLine
 62
7
  6
CONTINUOUS
 10
20.1541644897
 20
53.65
 11
20.1541644897
 21
72.45
  0
LINE
  5
231
100
AcDbEntity
  8
0
100
AcDbLine
 62
7
  6
CONTINUOUS
 10
63.7041644842
 20
37.55
 11
59.2041644842
 21
37.55
  0
LINE
  5
232
100
AcDbEntity
  8
0
100
AcDbLine
 62
7
  6
CONTINUOUS
 10
41.7041644952
 20
37.55
 11
37.2041644952
 21
37.55
  0
LINE
  5
233
100
AcDbEntity
  8
0
100
AcDbLine
 62
7
  6
CONTINUOUS
 10
19.8541644897
 20
53.95
 11
20.1541644897
 21
53.65
  0
LINE
  5
234
100
AcDbEntity
  8
0
100
AcDbLine
 62
7
  6
CONTINUOUS
 10
22.1541644897
 20
31.75
 11
22.1541644897
 21
34.15
  0
LINE
  5
235
100
AcDbEntity
  8
0
100
AcDbLine
 62
7
  6
CONTINUOUS
 10
22.5541644952
 20
31.75
 11
22.5541644952
 21
34.15
  0
LINE
  5
236
100
AcDbEntity
  8
0
100
AcDbLine
 62
7
  6
CONTINUOUS
 10
47.3041644925
 20
33.45
 11
47.8041644925
 21
32.95
  0
LINE
  5
237
100
AcDbEntity
  8
0
100
AcDbLine
 62
7
  6
CONTINUOUS
 10
28.4541644897
 20
29.95
 11
28.4541644897
 21
33.45
  0
LINE
  5
238
100
AcDbEntity
  8
0
100
AcDbLine
 62
7
  6
CONTINUOUS
 10
47.3541644897
 20
46.55
 11
48.5041644897
 21
46.55
  0
LINE
  5
239
100
AcDbEntity
  8
0
100
AcDbLine
 62
7
  6
CONTINUOUS
 10
52.4041644897
 20
46.55
 11
53.5541644897
 21
46.55
  0
LINE
  5
23A
100
AcDbEntity
  8
0
100
AcDbLine
 62
7
  6
CONTINUOUS
 10
47.6541644897
 20
46.85
 11
53.2541644897
 21
46.85
  0
LINE
  5
23B
100
AcDbEntity
  8
0
100
AcDbLine
 62
7
  6
CONTINUOUS
 10
29.7541644897
 20
72.45
 11
29.7541644897
 21
49.75
  0
LINE
  5
23C
100
AcDbEntity
  8
0
100
AcDbLine
 62
7
  6
CONTINUOUS
 10
30.0541644897
 20
50.05
 11
30.0541644897
 21
72.15
  0
LINE
  5
23D
100
AcDbEntity
  8
0
100
AcDbLine
 62
7
  6
CONTINUOUS
 10
29.7541644897
 20
49.75
 11
47.7373459351
 21
49.75
  0
LINE
  5
23E
100
AcDbEntity
  8
0
100
AcDbLine
 62
7
  6
CONTINUOUS
 10
53.1709830457
 20
49.75
 11
68.8541644897
 21
49.75
  0
LINE
  5
23F
100
AcDbEntity
  8
0
100
AcDbLine
 62
7
  6
CONTINUOUS
 10
47.3541644897
 20
50.05
 11
30.0541644897
 21
50.05
  0
LINE
  5
240
100
AcDbEntity
  8
0
100
AcDbLine
 62
7
  6
CONTINUOUS
 10
53.5213293043
 20
50.05
 11
68.5541644897
 21
50.05
  0
LINE
  5
241
100
AcDbEntity
  8
0
100
AcDbLine
 62
7
  6
CONTINUOUS
 10
43.9580274111
 20
50.4
 11
59.2060959504
 21
50.4
  0
LINE
  5
242
100
AcDbEntity
  8
0
100
AcDbLine
 62
7
  6
CONTINUOUS
 10
43.9580274111
 20
50.4
 11
38.7164011409
 21
52.3602764786
  0
LINE
  5
243
100
AcDbEntity
  8
0
100
AcDbLine
 62
7
  6
CONTINUOUS
 10
65.5541644897
 20
31.0
 11
66.7541644897
 21
29.95
  0
LINE
  5
244
100
AcDbEntity
  8
0
100
AcDbLine
 62
7
  6
CONTINUOUS
 10
38.7164011408
 20
52.3602764786
 11
36.9297844899
 21
54.5161987737
  0
LINE
  5
245
100
AcDbEntity
  8
0
100
AcDbLine
 62
7
  6
CONTINUOUS
 10
32.6541644897
 20
32.05
 11
32.6541644897
 21
30.799609054
  0
LINE
  5
246
100
AcDbEntity
  8
0
100
AcDbLine
 62
7
  6
CONTINUOUS
 10
34.414164267
 20
93.8500000014
 11
34.4141644701
 21
62.1123068566
  0
LINE
  5
247
100
AcDbEntity
  8
0
100
AcDbLine
 62
7
  6
CONTINUOUS
 10
34.414164473
 20
61.6609553052
 11
34.4141644897
 21
56.85
  0
LINE
  5
248
100
AcDbEntity
  8
0
100
AcDbLine
 62
7
  6
CONTINUOUS
 10
34.5888674554
 20
93.85
 11
34.5888674554
 21
62.8610897141
  0
LINE
  5
249
100
AcDbEntity
  8
0
100
AcDbLine
 62
7
  6
CONTINUOUS
 10
34.5888674554
 20
61.164771356
 11
34.5888674554
 21
59.05
  0
LINE
  5
24A
100
AcDbEntity
  8
0
100
AcDbLine
 62
7
  6
CONTINUOUS
 10
35.088791303
 20
59.05
 11
35.0887913935
 21
59.7449087386
  0
LINE
  5
24B
100
AcDbEntity
  8
0
100
AcDbLine
 62
7
  6
CONTINUOUS
 10
35.0887920778
 20
65.0037834209
 11
35.0887958314
 21
93.8499986632
  0
LINE
  5
24C
100
AcDbEntity
  8
0
100
AcDbLine
 62
7
  6
CONTINUOUS
 10
35.16116463
 20
96.653490491
 11
35.16116463
 21
96.85
  0
LINE
  5
24D
100
AcDbEntity
  8
0
100
AcDbLine
 62
7
  6
CONTINUOUS
 10
35.4141644897
 20
56.85
 11
35.4141644897
 21
58.8207979671
  0
LINE
  5
24E
100
AcDbEntity
  8
0
100
AcDbLine
 62
7
  6
CONTINUOUS
 10
34.4123361353
 20
93.8500000151
 11
34.4612712437
 21
96.6534904981
  0
LINE
  5
24F
100
AcDbEntity
  8
0
100
AcDbLine
 62
7
  6
CONTINUOUS
 10
35.1611646301
 20
96.6534904958
 11
35.1122300282
 21
93.8500000049
  0
LINE
  5
250
100
AcDbEntity
  8
0
100
AcDbLine
 62
7
  6
CONTINUOUS
 10
57.0077159336
 20
98.75
 11
56.0077159336
 21
97.75
  0
LINE
  5
251
100
AcDbEntity
  8
0
100
AcDbLine
 62
7
  6
CONTINUOUS
 10
10.9541644897
 20
53.65
 11
20.1541644897
 21
53.65
  0
LINE
  5
252
100
AcDbEntity
  8
0
100
AcDbLine
 62
7
  6
CONTINUOUS
 10
78.4541644897
 20
53.65
 11
89.9541644897
 21
53.65
  0
LINE
  5
253
100
AcDbEntity
  8
0
100
AcDbLine
 62
7
  6
CONTINUOUS
 10
56.1041644897
 20
53.9
 11
59.2060959504
 21
53.9
  0
LINE
  5
254
100
AcDbEntity
  8
0
100
AcDbLine
 62
7
  6
CONTINUOUS
 10
89.6541644897
 20
53.95
 11
78.7541644897
 21
53.95
  0
LINE
  5
255
100
AcDbEntity
  8
0
100
AcDbLine
 62
7
  6
CONTINUOUS
 10
19.8541644897
 20
53.95
 11
11.2541644897
 21
53.95
  0
LINE
  5
256
100
AcDbEntity
  8
0
100
AcDbLine
 62
7
  6
CONTINUOUS
 10
59.4541644897
 20
54.25
 11
56.4541644897
 21
54.25
  0
LINE
  5
257
100
AcDbEntity
  8
0
100
AcDbLine
 62
7
  6
CONTINUOUS
 10
56.4541644897
 20
54.5375
 11
59.4541644897
 21
54.5375
  0
LINE
  5
258
100
AcDbEntity
  8
0
100
AcDbLine
 62
7
  6
CONTINUOUS
 10
52.1041644897
 20
46.85
 11
52.4041644897
 21
46.55
  0
LINE
  5
259
100
AcDbEntity
  8
0
100
AcDbLine
 62
7
  6
CONTINUOUS
 10
36.9297844899
 20
54.5161987737
 11
34.350827471
 21
61.8408423532
  0
LINE
  5
25A
100
AcDbEntity
  8
0
100
AcDbLine
 62
7
  6
CONTINUOUS
 10
34.7733585434
 20
63.651824708
 11
38.7539844659
 21
52.3462209729
  0
LINE
  5
25B
100
AcDbEntity
  8
0
100
AcDbLine
 62
7
  6
CONTINUOUS
 10
37.2041644952
 20
37.55
 11
37.2041644952
 21
35.25
  0
LINE
  5
25C
100
AcDbEntity
  8
0
100
AcDbLine
 62
7
  6
CONTINUOUS
 10
37.4541644952
 20
35.25
 11
37.4541644952
 21
37.55
  0
LINE
  5
25D
100
AcDbEntity
  8
0
100
AcDbLine
 62
7
  6
CONTINUOUS
 10
38.4541644897
 20
107.5
 11
38.4541644897
 21
108.3
  0
LINE
  5
25E
100
AcDbEntity
  8
0
100
AcDbLine
 62
7
  6
CONTINUOUS
 10
37.2789274086
 20
74.3907769413
 11
38.2541644897
 21
107.5
  0
LINE
  5
25F
100
AcDbEntity
  8
0
100
AcDbLine
 62
7
  6
CONTINUOUS
 10
34.350827471
 20
61.8408423532
 11
37.2789274086
 21
74.3907769413
  0
LINE
  5
260
100
AcDbEntity
  8
0
100
AcDbLine
 62
7
  6
CONTINUOUS
 10
59.4541644897
 20
55.25
 11
56.4541644897
 21
55.25
  0
LINE
  5
261
100
AcDbEntity
  8
0
100
AcDbLine
 62
7
  6
CONTINUOUS
 10
30.0541644897
 20
56.55
 11
36.2136969574
 21
56.55
  0
LINE
  5
262
100
AcDbEntity
  8
0
100
AcDbLine
 62
7
  6
CONTINUOUS
 10
54.168436428
 20
56.55
 11
68.5541644897
 21
56.55
  0
LINE
  5
263
100
AcDbEntity
  8
0
100
AcDbLine
 62
7
  6
CONTINUOUS
 10
68.5541644897
 20
56.85
 11
54.1065270741
 21
56.85
  0
LINE
  5
264
100
AcDbEntity
  8
0
100
AcDbLine
 62
7
  6
CONTINUOUS
 10
36.1080690046
 20
56.85
 11
30.0541644897
 21
56.85
  0
LINE
  5
265
100
AcDbEntity
  8
0
100
AcDbLine
 62
7
  6
CONTINUOUS
 10
53.2541644897
 20
46.85
 11
53.5541644897
 21
46.55
  0
LINE
  5
266
100
AcDbEntity
  8
0
100
AcDbLine
 62
7
  6
CONTINUOUS
 10
39.8541644897
 20
93.689992803
 11
39.8541644897
 21
85.9496268483
  0
LINE
  5
267
100
AcDbEntity
  8
0
100
AcDbLine
 62
7
  6
CONTINUOUS
 10
40.1541644897
 20
85.9496268483
 11
40.1541644897
 21
93.6307642345
  0
LINE
  5
268
100
AcDbEntity
  8
0
100
AcDbLine
 62
7
  6
CONTINUOUS
 10
41.4541644952
 20
35.25
 11
41.4541644952
 21
37.55
  0
LINE
  5
269
100
AcDbEntity
  8
0
100
AcDbLine
 62
7
  6
CONTINUOUS
 10
41.7041644952
 20
35.25
 11
41.7041644952
 21
37.55
  0
LINE
  5
26A
100
AcDbEntity
  8
0
100
AcDbLine
 62
7
  6
CONTINUOUS
 10
43.2541644897
 20
107.5
 11
43.2541644897
 21
108.3
  0
LINE
  5
26B
100
AcDbEntity
  8
0
100
AcDbLine
 62
7
  6
CONTINUOUS
 10
34.4141644897
 20
59.05
 11
35.3334640181
 21
59.05
  0
LINE
  5
26C
100
AcDbEntity
  8
0
100
AcDbLine
 62
7
  6
CONTINUOUS
 10
53.6525251455
 20
59.05
 11
61.6141644897
 21
59.05
  0
LINE
  5
26D
100
AcDbEntity
  8
0
100
AcDbLine
 62
7
  6
CONTINUOUS
 10
61.5720615795
 20
60.85
 11
61.6141644897
 21
60.85
  0
LINE
  5
26E
100
AcDbEntity
  8
0
100
AcDbLine
 62
7
  6
CONTINUOUS
 10
61.6141644897
 20
61.35
 11
61.5807875091
 21
61.35
  0
LINE
  5
26F
100
AcDbEntity
  8
0
100
AcDbLine
 62
7
  6
CONTINUOUS
 10
61.610538246
 20
61.45
 11
61.5807875091
 21
61.45
  0
LINE
  5
270
100
AcDbEntity
  8
0
100
AcDbLine
 62
7
  6
CONTINUOUS
 10
44.3541644897
 20
93.6307642345
 11
44.3541644897
 21
85.9496268483
  0
LINE
  5
271
100
AcDbEntity
  8
0
100
AcDbLine
 62
7
  6
CONTINUOUS
 10
44.6541644897
 20
85.9496268483
 11
44.6541644897
 21
93.689992803
  0
LINE
  5
272
100
AcDbEntity
  8
0
100
AcDbLine
 62
7
  6
CONTINUOUS
 10
53.5807888039
 20
63.55
 11
57.5807888039
 21
63.55
  0
LINE
  5
273
100
AcDbEntity
  8
0
100
AcDbLine
 62
7
  6
CONTINUOUS
 10
61.4447150898
 20
65.751856958
 11
61.610538246
 21
65.7500061797
  0
LINE
  5
274
100
AcDbEntity
  8
0
100
AcDbLine
 62
7
  6
CONTINUOUS
 10
47.3541644897
 20
50.05
 11
47.3541644897
 21
46.55
  0
LINE
  5
275
100
AcDbEntity
  8
0
100
AcDbLine
 62
7
  6
CONTINUOUS
 10
47.4462582412
 20
50.4
 11
47.4462582412
 21
50.0442173413
  0
LINE
  5
276
100
AcDbEntity
  8
0
100
AcDbLine
 62
7
  6
CONTINUOUS
 10
47.6541644897
 20
46.85
 11
47.6541644897
 21
49.75
  0
LINE
  5
277
100
AcDbEntity
  8
0
100
AcDbLine
 62
7
  6
CONTINUOUS
 10
47.7373459351
 20
50.4
 11
47.7373459351
 21
49.75
  0
LINE
  5
278
100
AcDbEntity
  8
0
100
AcDbLine
 62
7
  6
CONTINUOUS
 10
47.8041644925
 20
33.45
 11
47.8041644925
 21
29.95
  0
LINE
  5
279
100
AcDbEntity
  8
0
100
AcDbLine
 62
7
  6
CONTINUOUS
 10
48.5041644897
 20
46.55
 11
48.5041644897
 21
33.45
  0
LINE
  5
27A
100
AcDbEntity
  8
0
100
AcDbLine
 62
7
  6
CONTINUOUS
 10
48.8041644916
 20
29.95
 11
48.8041644897
 21
46.85
  0
LINE
  5
27B
100
AcDbEntity
  8
0
100
AcDbLine
 62
7
  6
CONTINUOUS
 10
50.6795086554
 20
96.85
 11
50.6795086554
 21
96.653490491
  0
LINE
  5
27C
100
AcDbEntity
  8
0
100
AcDbLine
 62
7
  6
CONTINUOUS
 10
30.0541644897
 20
50.05
 11
29.7541644897
 21
49.75
  0
LINE
  5
27D
100
AcDbEntity
  8
0
100
AcDbLine
 62
7
  6
CONTINUOUS
 10
53.5807888039
 20
69.55
 11
57.5807888039
 21
69.55
  0
LINE
  5
27E
100
AcDbEntity
  8
0
100
AcDbLine
 62
7
  6
CONTINUOUS
 10
68.5541644897
 20
50.05
 11
68.8541644897
 21
49.75
  0
LINE
  5
27F
100
AcDbEntity
  8
0
100
AcDbLine
 62
7
  6
CONTINUOUS
 10
52.1041644897
 20
46.85
 11
52.1041644916
 21
29.95
  0
LINE
  5
280
100
AcDbEntity
  8
0
100
AcDbLine
 62
7
  6
CONTINUOUS
 10
52.4041644897
 20
33.45
 11
52.4041644897
 21
46.55
  0
LINE
  5
281
100
AcDbEntity
  8
0
100
AcDbLine
 62
7
  6
CONTINUOUS
 10
53.0807888039
 20
69.05
 11
53.0807888039
 21
64.05
  0
LINE
  5
282
100
AcDbEntity
  8
0
100
AcDbLine
 62
7
  6
CONTINUOUS
 10
53.1041644925
 20
29.95
 11
53.1041644925
 21
33.45
  0
LINE
  5
283
100
AcDbEntity
  8
0
100
AcDbLine
 62
7
  6
CONTINUOUS
 10
53.1709830457
 20
49.75
 11
53.1709830457
 21
50.4
  0
LINE
  5
284
100
AcDbEntity
  8
0
100
AcDbLine
 62
7
  6
CONTINUOUS
 10
53.2541644897
 20
49.75
 11
53.2541644897
 21
46.85
  0
LINE
  5
285
100
AcDbEntity
  8
0
100
AcDbLine
 62
7
  6
CONTINUOUS
 10
53.4620707383
 20
50.0442173413
 11
53.4620707383
 21
50.4
  0
LINE
  5
286
100
AcDbEntity
  8
0
100
AcDbLine
 62
7
  6
CONTINUOUS
 10
53.5541644897
 20
46.55
 11
53.5541644897
 21
50.05
  0
LINE
  5
287
100
AcDbEntity
  8
0
100
AcDbLine
 62
7
  6
CONTINUOUS
 10
61.610538246
 20
70.2499938203
 11
61.4447150898
 21
70.2481430652
  0
LINE
  5
288
100
AcDbEntity
  8
0
100
AcDbLine
 62
7
  6
CONTINUOUS
 10
61.4626014531
 20
71.325
 11
61.610538246
 21
71.325
  0
LINE
  5
289
100
AcDbEntity
  8
0
100
AcDbLine
 62
7
  6
CONTINUOUS
 10
61.610538246
 20
71.575
 11
61.4626014531
 21
71.575
  0
LINE
  5
28A
100
AcDbEntity
  8
0
100
AcDbLine
 62
7
  6
CONTINUOUS
 10
61.4626014531
 20
71.825
 11
61.610538246
 21
71.825
  0
LINE
  5
28B
100
AcDbEntity
  8
0
100
AcDbLine
 62
7
  6
CONTINUOUS
 10
51.0110593788
 20
71.85
 11
55.627238246
 21
71.85
  0
LINE
  5
28C
100
AcDbEntity
  8
0
100
AcDbLine
 62
7
  6
CONTINUOUS
 10
61.610538246
 20
72.075
 11
61.4626014531
 21
72.075
  0
LINE
  5
28D
100
AcDbEntity
  8
0
100
AcDbLine
 62
7
  6
CONTINUOUS
 10
19.8541644897
 20
72.15
 11
30.0541644897
 21
72.15
  0
LINE
  5
28E
100
AcDbEntity
  8
0
100
AcDbLine
 62
7
  6
CONTINUOUS
 10
68.5541644897
 20
72.15
 11
78.7541644897
 21
72.15
  0
LINE
  5
28F
100
AcDbEntity
  8
0
100
AcDbLine
 62
7
  6
CONTINUOUS
 10
61.4626014531
 20
72.325
 11
61.610538246
 21
72.325
  0
LINE
  5
290
100
AcDbEntity
  8
0
100
AcDbLine
 62
7
  6
CONTINUOUS
 10
78.4541644897
 20
72.45
 11
68.8541644897
 21
72.45
  0
LINE
  5
291
100
AcDbEntity
  8
0
100
AcDbLine
 62
7
  6
CONTINUOUS
 10
29.7541644897
 20
72.45
 11
20.1541644897
 21
72.45
  0
LINE
  5
292
100
AcDbEntity
  8
0
100
AcDbLine
 62
7
  6
CONTINUOUS
 10
61.610538246
 20
72.575
 11
61.4626014531
 21
72.575
  0
LINE
  5
293
100
AcDbEntity
  8
0
100
AcDbLine
 62
7
  6
CONTINUOUS
 10
61.4626014531
 20
72.825
 11
61.610538246
 21
72.825
  0
LINE
  5
294
100
AcDbEntity
  8
0
100
AcDbLine
 62
7
  6
CONTINUOUS
 10
61.610538246
 20
73.075
 11
61.4626014531
 21
73.075
  0
LINE
  5
295
100
AcDbEntity
  8
0
100
AcDbLine
 62
7
  6
CONTINUOUS
 10
61.4626014531
 20
73.325
 11
61.610538246
 21
73.325
  0
LINE
  5
296
100
AcDbEntity
  8
0
100
AcDbLine
 62
7
  6
CONTINUOUS
 10
44.5361506617
 20
103.2260763538
 11
54.3541644897
 21
55.65
  0
LINE
  5
297
100
AcDbEntity
  8
0
100
AcDbLine
 62
7
  6
CONTINUOUS
 10
56.3088311564
 20
59.05
 11
56.5141644897
 21
56.85
  0
LINE
  5
298
100
AcDbEntity
  8
0
100
AcDbLine
 62
7
  6
CONTINUOUS
 10
55.5560970163
 20
53.9880366898
 11
55.5560970163
 21
50.4
  0
LINE
  5
299
100
AcDbEntity
  8
0
100
AcDbLine
 62
7
  6
CONTINUOUS
 10
55.627238246
 20
71.85
 11
55.627238246
 21
74.05
  0
LINE
  5
29A
100
AcDbEntity
  8
0
100
AcDbLine
 62
7
  6
CONTINUOUS
 10
55.627238246
 20
80.65
 11
55.627238246
 21
82.85
  0
LINE
  5
29B
100
AcDbEntity
  8
0
100
AcDbLine
 62
7
  6
CONTINUOUS
 10
56.0077159336
 20
96.85
 11
56.0077159336
 21
97.75
  0
LINE
  5
29C
100
AcDbEntity
  8
0
100
AcDbLine
 62
7
  6
CONTINUOUS
 10
56.4541644897
 20
53.9
 11
56.4541644897
 21
55.25
  0
LINE
  5
29D
100
AcDbEntity
  8
0
100
AcDbLine
 62
7
  6
CONTINUOUS
 10
56.9141644897
 20
59.05
 11
56.9141644897
 21
56.85
  0
LINE
  5
29E
100
AcDbEntity
  8
0
100
AcDbLine
 62
7
  6
CONTINUOUS
 10
57.9141644897
 20
56.85
 11
57.9141644897
 21
59.05
  0
LINE
  5
29F
100
AcDbEntity
  8
0
100
AcDbLine
 62
7
  6
CONTINUOUS
 10
58.0807888039
 20
69.05
 11
58.0807888039
 21
64.05
  0
LINE
  5
2A0
100
AcDbEntity
  8
0
100
AcDbLine
 62
7
  6
CONTINUOUS
 10
54.5613026731
 20
54.8241202177
 11
54.4892313205
 21
50.4
  0
LINE
  5
2A1
100
AcDbEntity
  8
0
100
AcDbLine
 62
7
  6
CONTINUOUS
 10
61.610538246
 20
73.575
 11
61.4626014531
 21
73.575
  0
LINE
  5
2A2
100
AcDbEntity
  8
0
100
AcDbLine
 62
7
  6
CONTINUOUS
 10
61.4626014531
 20
73.825
 11
61.610538246
 21
73.825
  0
LINE
  5
2A3
100
AcDbEntity
  8
0
100
AcDbLine
 62
7
  6
CONTINUOUS
 10
55.627238246
 20
74.05
 11
50.5570574502
 21
74.05
  0
LINE
  5
2A4
100
AcDbEntity
  8
0
100
AcDbLine
 62
7
  6
CONTINUOUS
 10
61.610538246
 20
74.075
 11
61.4626014531
 21
74.075
  0
LINE
  5
2A5
100
AcDbEntity
  8
0
100
AcDbLine
 62
7
  6
CONTINUOUS
 10
61.4626014531
 20
74.325
 11
61.610538246
 21
74.325
  0
LINE
  5
2A6
100
AcDbEntity
  8
0
100
AcDbLine
 62
7
  6
CONTINUOUS
 10
61.610538246
 20
74.575
 11
61.4626014531
 21
74.575
  0
LINE
  5
2A7
100
AcDbEntity
  8
0
100
AcDbLine
 62
7
  6
CONTINUOUS
 10
61.4626014531
 20
74.825
 11
61.610538246
 21
74.825
  0
LINE
  5
2A8
100
AcDbEntity
  8
0
100
AcDbLine
 62
7
  6
CONTINUOUS
 10
61.610538246
 20
75.075
 11
61.4626014531
 21
75.075
  0
LINE
  5
2A9
100
AcDbEntity
  8
0
100
AcDbLine
 62
7
  6
CONTINUOUS
 10
61.4626014531
 20
75.325
 11
61.610538246
 21
75.325
  0
LINE
  5
2AA
100
AcDbEntity
  8
0
100
AcDbLine
 62
7
  6
CONTINUOUS
 10
61.610538246
 20
75.575
 11
61.4626014531
 21
75.575
  0
LINE
  5
2AB
100
AcDbEntity
  8
0
100
AcDbLine
 62
7
  6
CONTINUOUS
 10
61.4626014531
 20
75.825
 11
61.610538246
 21
75.825
  0
LINE
  5
2AC
100
AcDbEntity
  8
0
100
AcDbLine
 62
7
  6
CONTINUOUS
 10
61.610538246
 20
76.075
 11
61.4626014531
 21
76.075
  0
LINE
  5
2AD
100
AcDbEntity
  8
0
100
AcDbLine
 62
7
  6
CONTINUOUS
 10
61.4626014531
 20
76.325
 11
61.610538246
 21
76.325
  0
LINE
  5
2AE
100
AcDbEntity
  8
0
100
AcDbLine
 62
7
  6
CONTINUOUS
 10
61.610538246
 20
76.575
 11
61.4626014531
 21
76.575
  0
LINE
  5
2AF
100
AcDbEntity
  8
0
100
AcDbLine
 62
7
  6
CONTINUOUS
 10
61.4626014531
 20
76.825
 11
61.610538246
 21
76.825
  0
LINE
  5
2B0
100
AcDbEntity
  8
0
100
AcDbLine
 62
7
  6
CONTINUOUS
 10
61.3896264837
 20
95.2501623651
 11
61.3788567973
 21
95.7671572875
  0
LINE
  5
2B1
100
AcDbEntity
  8
0
100
AcDbLine
 62
7
  6
CONTINUOUS
 10
60.9124590919
 20
93.8500000049
 11
60.8914512266
 21
95.0534904974
  0
LINE
  5
2B2
100
AcDbEntity
  8
0
100
AcDbLine
 62
7
  6
CONTINUOUS
 10
61.3788567973
 20
95.9085786438
 11
61.3634467204
 21
96.7914213562
  0
LINE
  5
2B3
100
AcDbEntity
  8
0
100
AcDbLine
 62
7
  6
CONTINUOUS
 10
61.6123513678
 20
93.8500000014
 11
61.5634162594
 21
96.6534904861
  0
LINE
  5
2B4
100
AcDbEntity
  8
0
100
AcDbLine
 62
7
  6
CONTINUOUS
 10
59.2041644842
 20
37.55
 11
59.2041644842
 21
35.25
  0
LINE
  5
2B5
100
AcDbEntity
  8
0
100
AcDbLine
 62
7
  6
CONTINUOUS
 10
59.4541644842
 20
35.25
 11
59.4541644842
 21
37.55
  0
LINE
  5
2B6
100
AcDbEntity
  8
0
100
AcDbLine
 62
7
  6
CONTINUOUS
 10
59.4541644897
 20
53.8823284907
 11
59.4541644897
 21
55.25
  0
LINE
  5
2B7
100
AcDbEntity
  8
0
100
AcDbLine
 62
7
  6
CONTINUOUS
 10
60.2077159336
 20
96.85
 11
60.2077159336
 21
98.75
  0
LINE
  5
2B8
100
AcDbEntity
  8
0
100
AcDbLine
 62
7
  6
CONTINUOUS
 10
60.6141644897
 20
59.05
 11
60.6141644897
 21
56.85
  0
LINE
  5
2B9
100
AcDbEntity
  8
0
100
AcDbLine
 62
7
  6
CONTINUOUS
 10
60.9358976781
 20
93.8499990263
 11
60.9359114327
 21
59.05
  0
LINE
  5
2BA
100
AcDbEntity
  8
0
100
AcDbLine
 62
7
  6
CONTINUOUS
 10
61.3634467204
 20
96.85
 11
61.3634467204
 21
96.7914213562
  0
LINE
  5
2BB
100
AcDbEntity
  8
0
100
AcDbLine
 62
7
  6
CONTINUOUS
 10
61.3788567973
 20
95.9085786438
 11
61.3788567973
 21
95.7671572875
  0
LINE
  5
2BC
100
AcDbEntity
  8
0
100
AcDbLine
 62
7
  6
CONTINUOUS
 10
61.4358352802
 20
59.05
 11
61.4358352802
 21
93.85
  0
LINE
  5
2BD
100
AcDbEntity
  8
0
100
AcDbLine
 62
7
  6
CONTINUOUS
 10
61.4626014531
 20
71.325
 11
61.4626014531
 21
71.575
  0
LINE
  5
2BE
100
AcDbEntity
  8
0
100
AcDbLine
 62
7
  6
CONTINUOUS
 10
61.4626014531
 20
71.825
 11
61.4626014531
 21
72.075
  0
LINE
  5
2BF
100
AcDbEntity
  8
0
100
AcDbLine
 62
7
  6
CONTINUOUS
 10
61.4626014531
 20
72.325
 11
61.4626014531
 21
72.575
  0
LINE
  5
2C0
100
AcDbEntity
  8
0
100
AcDbLine
 62
7
  6
CONTINUOUS
 10
61.4626014531
 20
72.825
 11
61.4626014531
 21
73.075
  0
LINE
  5
2C1
100
AcDbEntity
  8
0
100
AcDbLine
 62
7
  6
CONTINUOUS
 10
61.4626014531
 20
73.325
 11
61.4626014531
 21
73.575
  0
LINE
  5
2C2
100
AcDbEntity
  8
0
100
AcDbLine
 62
7
  6
CONTINUOUS
 10
61.4626014531
 20
73.825
 11
61.4626014531
 21
74.075
  0
LINE
  5
2C3
100
AcDbEntity
  8
0
100
AcDbLine
 62
7
  6
CONTINUOUS
 10
61.4626014531
 20
74.325
 11
61.4626014531
 21
74.575
  0
LINE
  5
2C4
100
AcDbEntity
  8
0
100
AcDbLine
 62
7
  6
CONTINUOUS
 10
61.4626014531
 20
74.825
 11
61.4626014531
 21
75.075
  0
LINE
  5
2C5
100
AcDbEntity
  8
0
100
AcDbLine
 62
7
  6
CONTINUOUS
 10
61.4626014531
 20
75.325
 11
61.4626014531
 21
75.575
  0
LINE
  5
2C6
100
AcDbEntity
  8
0
100
AcDbLine
 62
7
  6
CONTINUOUS
 10
61.4626014531
 20
75.825
 11
61.4626014531
 21
76.075
  0
LINE
  5
2C7
100
AcDbEntity
  8
0
100
AcDbLine
 62
7
  6
CONTINUOUS
 10
61.4626014531
 20
76.325
 11
61.4626014531
 21
76.575
  0
LINE
  5
2C8
100
AcDbEntity
  8
0
100
AcDbLine
 62
7
  6
CONTINUOUS
 10
61.4626014531
 20
76.825
 11
61.4626014531
 21
77.075
  0
LINE
  5
2C9
100
AcDbEntity
  8
0
100
AcDbLine
 62
7
  6
CONTINUOUS
 10
61.4626014531
 20
77.325
 11
61.4626014531
 21
77.575
  0
LINE
  5
2CA
100
AcDbEntity
  8
0
100
AcDbLine
 62
7
  6
CONTINUOUS
 10
61.4626014531
 20
77.825
 11
61.4626014531
 21
78.075
  0
LINE
  5
2CB
100
AcDbEntity
  8
0
100
AcDbLine
 62
7
  6
CONTINUOUS
 10
61.4626014531
 20
78.325
 11
61.4626014531
 21
78.575
  0
LINE
  5
2CC
100
AcDbEntity
  8
0
100
AcDbLine
 62
7
  6
CONTINUOUS
 10
61.4626014531
 20
78.825
 11
61.4626014531
 21
79.075
  0
LINE
  5
2CD
100
AcDbEntity
  8
0
100
AcDbLine
 62
7
  6
CONTINUOUS
 10
61.4626014531
 20
79.325
 11
61.4626014531
 21
79.575
  0
LINE
  5
2CE
100
AcDbEntity
  8
0
100
AcDbLine
 62
7
  6
CONTINUOUS
 10
61.4626014531
 20
79.825
 11
61.4626014531
 21
80.075
  0
LINE
  5
2CF
100
AcDbEntity
  8
0
100
AcDbLine
 62
7
  6
CONTINUOUS
 10
61.4626014531
 20
80.325
 11
61.4626014531
 21
80.575
  0
LINE
  5
2D0
100
AcDbEntity
  8
0
100
AcDbLine
 62
7
  6
CONTINUOUS
 10
61.4626014531
 20
80.825
 11
61.4626014531
 21
81.075
  0
LINE
  5
2D1
100
AcDbEntity
  8
0
100
AcDbLine
 62
7
  6
CONTINUOUS
 10
61.4626014531
 20
81.325
 11
61.4626014531
 21
81.575
  0
LINE
  5
2D2
100
AcDbEntity
  8
0
100
AcDbLine
 62
7
  6
CONTINUOUS
 10
61.4626014531
 20
81.825
 11
61.4626014531
 21
82.075
  0
LINE
  5
2D3
100
AcDbEntity
  8
0
100
AcDbLine
 62
7
  6
CONTINUOUS
 10
61.4626014531
 20
82.325
 11
61.4626014531
 21
82.575
  0
LINE
  5
2D4
100
AcDbEntity
  8
0
100
AcDbLine
 62
7
  6
CONTINUOUS
 10
61.4626014531
 20
82.825
 11
61.4626014531
 21
83.075
  0
LINE
  5
2D5
100
AcDbEntity
  8
0
100
AcDbLine
 62
7
  6
CONTINUOUS
 10
61.4626014531
 20
83.325
 11
61.4626014531
 21
83.575
  0
LINE
  5
2D6
100
AcDbEntity
  8
0
100
AcDbLine
 62
7
  6
CONTINUOUS
 10
61.4626014531
 20
83.825
 11
61.4626014531
 21
84.075
  0
LINE
  5
2D7
100
AcDbEntity
  8
0
100
AcDbLine
 62
7
  6
CONTINUOUS
 10
61.4626014531
 20
84.325
 11
61.4626014531
 21
84.575
  0
LINE
  5
2D8
100
AcDbEntity
  8
0
100
AcDbLine
 62
7
  6
CONTINUOUS
 10
61.4626014531
 20
84.825
 11
61.4626014531
 21
85.075
  0
LINE
  5
2D9
100
AcDbEntity
  8
0
100
AcDbLine
 62
7
  6
CONTINUOUS
 10
61.4626014531
 20
85.325
 11
61.4626014531
 21
85.575
  0
LINE
  5
2DA
100
AcDbEntity
  8
0
100
AcDbLine
 62
7
  6
CONTINUOUS
 10
61.4626014531
 20
85.825
 11
61.4626014531
 21
86.075
  0
LINE
  5
2DB
100
AcDbEntity
  8
0
100
AcDbLine
 62
7
  6
CONTINUOUS
 10
61.4626014531
 20
86.325
 11
61.4626014531
 21
86.575
  0
LINE
  5
2DC
100
AcDbEntity
  8
0
100
AcDbLine
 62
7
  6
CONTINUOUS
 10
61.4626014531
 20
86.825
 11
61.4626014531
 21
87.075
  0
LINE
  5
2DD
100
AcDbEntity
  8
0
100
AcDbLine
 62
7
  6
CONTINUOUS
 10
61.4626014531
 20
87.325
 11
61.4626014531
 21
87.575
  0
LINE
  5
2DE
100
AcDbEntity
  8
0
100
AcDbLine
 62
7
  6
CONTINUOUS
 10
61.4626014531
 20
87.825
 11
61.4626014531
 21
88.075
  0
LINE
  5
2DF
100
AcDbEntity
  8
0
100
AcDbLine
 62
7
  6
CONTINUOUS
 10
61.6105384669
 20
93.8500000008
 11
61.610538246
 21
92.7499938203
  0
LINE
  5
2E0
100
AcDbEntity
  8
0
100
AcDbLine
 62
7
  6
CONTINUOUS
 10
61.610538246
 20
61.45
 11
61.610538246
 21
65.7500061797
  0
LINE
  5
2E1
100
AcDbEntity
  8
0
100
AcDbLine
 62
7
  6
CONTINUOUS
 10
61.610538246
 20
70.2499938203
 11
61.610538246
 21
71.325
  0
LINE
  5
2E2
100
AcDbEntity
  8
0
100
AcDbLine
 62
7
  6
CONTINUOUS
 10
61.610538246
 20
71.575
 11
61.610538246
 21
71.825
  0
LINE
  5
2E3
100
AcDbEntity
  8
0
100
AcDbLine
 62
7
  6
CONTINUOUS
 10
61.610538246
 20
72.075
 11
61.610538246
 21
72.325
  0
LINE
  5
2E4
100
AcDbEntity
  8
0
100
AcDbLine
 62
7
  6
CONTINUOUS
 10
61.610538246
 20
72.575
 11
61.610538246
 21
72.825
  0
LINE
  5
2E5
100
AcDbEntity
  8
0
100
AcDbLine
 62
7
  6
CONTINUOUS
 10
61.610538246
 20
73.075
 11
61.610538246
 21
73.325
  0
LINE
  5
2E6
100
AcDbEntity
  8
0
100
AcDbLine
 62
7
  6
CONTINUOUS
 10
61.610538246
 20
73.575
 11
61.610538246
 21
73.825
  0
LINE
  5
2E7
100
AcDbEntity
  8
0
100
AcDbLine
 62
7
  6
CONTINUOUS
 10
61.610538246
 20
74.075
 11
61.610538246
 21
74.325
  0
LINE
  5
2E8
100
AcDbEntity
  8
0
100
AcDbLine
 62
7
  6
CONTINUOUS
 10
61.610538246
 20
74.575
 11
61.610538246
 21
74.825
  0
LINE
  5
2E9
100
AcDbEntity
  8
0
100
AcDbLine
 62
7
  6
CONTINUOUS
 10
61.610538246
 20
75.075
 11
61.610538246
 21
75.325
  0
LINE
  5
2EA
100
AcDbEntity
  8
0
100
AcDbLine
 62
7
  6
CONTINUOUS
 10
61.610538246
 20
75.575
 11
61.610538246
 21
75.825
  0
LINE
  5
2EB
100
AcDbEntity
  8
0
100
AcDbLine
 62
7
  6
CONTINUOUS
 10
61.610538246
 20
76.075
 11
61.610538246
 21
76.325
  0
LINE
  5
2EC
100
AcDbEntity
  8
0
100
AcDbLine
 62
7
  6
CONTINUOUS
 10
61.610538246
 20
76.575
 11
61.610538246
 21
76.825
  0
LINE
  5
2ED
100
AcDbEntity
  8
0
100
AcDbLine
 62
7
  6
CONTINUOUS
 10
61.610538246
 20
77.075
 11
61.610538246
 21
77.325
  0
LINE
  5
2EE
100
AcDbEntity
  8
0
100
AcDbLine
 62
7
  6
CONTINUOUS
 10
61.610538246
 20
77.575
 11
61.610538246
 21
77.825
  0
LINE
  5
2EF
100
AcDbEntity
  8
0
100
AcDbLine
 62
7
  6
CONTINUOUS
 10
61.610538246
 20
78.075
 11
61.610538246
 21
78.325
  0
LINE
  5
2F0
100
AcDbEntity
  8
0
100
AcDbLine
 62
7
  6
CONTINUOUS
 10
61.610538246
 20
78.575
 11
61.610538246
 21
78.825
  0
LINE
  5
2F1
100
AcDbEntity
  8
0
100
AcDbLine
 62
7
  6
CONTINUOUS
 10
61.610538246
 20
79.075
 11
61.610538246
 21
79.325
  0
LINE
  5
2F2
100
AcDbEntity
  8
0
100
AcDbLine
 62
7
  6
CONTINUOUS
 10
61.610538246
 20
79.575
 11
61.610538246
 21
79.825
  0
LINE
  5
2F3
100
AcDbEntity
  8
0
100
AcDbLine
 62
7
  6
CONTINUOUS
 10
61.610538246
 20
80.075
 11
61.610538246
 21
80.325
  0
LINE
  5
2F4
100
AcDbEntity
  8
0
100
AcDbLine
 62
7
  6
CONTINUOUS
 10
61.610538246
 20
80.575
 11
61.610538246
 21
80.825
  0
LINE
  5
2F5
100
AcDbEntity
  8
0
100
AcDbLine
 62
7
  6
CONTINUOUS
 10
61.610538246
 20
81.075
 11
61.610538246
 21
81.325
  0
LINE
  5
2F6
100
AcDbEntity
  8
0
100
AcDbLine
 62
7
  6
CONTINUOUS
 10
61.610538246
 20
81.575
 11
61.610538246
 21
81.825
  0
LINE
  5
2F7
100
AcDbEntity
  8
0
100
AcDbLine
 62
7
  6
CONTINUOUS
 10
61.610538246
 20
82.075
 11
61.610538246
 21
82.325
  0
LINE
  5
2F8
100
AcDbEntity
  8
0
100
AcDbLine
 62
7
  6
CONTINUOUS
 10
61.610538246
 20
82.575
 11
61.610538246
 21
82.825
  0
LINE
  5
2F9
100
AcDbEntity
  8
0
100
AcDbLine
 62
7
  6
CONTINUOUS
 10
61.610538246
 20
83.075
 11
61.610538246
 21
83.325
  0
LINE
  5
2FA
100
AcDbEntity
  8
0
100
AcDbLine
 62
7
  6
CONTINUOUS
 10
61.610538246
 20
83.575
 11
61.610538246
 21
83.825
  0
LINE
  5
2FB
100
AcDbEntity
  8
0
100
AcDbLine
 62
7
  6
CONTINUOUS
 10
61.610538246
 20
84.075
 11
61.610538246
 21
84.325
  0
LINE
  5
2FC
100
AcDbEntity
  8
0
100
AcDbLine
 62
7
  6
CONTINUOUS
 10
61.610538246
 20
84.575
 11
61.610538246
 21
84.825
  0
LINE
  5
2FD
100
AcDbEntity
  8
0
100
AcDbLine
 62
7
  6
CONTINUOUS
 10
61.610538246
 20
85.075
 11
61.610538246
 21
85.325
  0
LINE
  5
2FE
100
AcDbEntity
  8
0
100
AcDbLine
 62
7
  6
CONTINUOUS
 10
61.610538246
 20
85.575
 11
61.610538246
 21
85.825
  0
LINE
  5
2FF
100
AcDbEntity
  8
0
100
AcDbLine
 62
7
  6
CONTINUOUS
 10
61.610538246
 20
86.075
 11
61.610538246
 21
86.325
  0
LINE
  5
300
100
AcDbEntity
  8
0
100
AcDbLine
 62
7
  6
CONTINUOUS
 10
61.610538246
 20
86.575
 11
61.610538246
 21
86.825
  0
LINE
  5
301
100
AcDbEntity
  8
0
100
AcDbLine
 62
7
  6
CONTINUOUS
 10
61.610538246
 20
87.075
 11
61.610538246
 21
87.325
  0
LINE
  5
302
100
AcDbEntity
  8
0
100
AcDbLine
 62
7
  6
CONTINUOUS
 10
61.610538246
 20
87.575
 11
61.610538246
 21
87.825
  0
LINE
  5
303
100
AcDbEntity
  8
0
100
AcDbLine
 62
7
  6
CONTINUOUS
 10
61.610538246
 20
88.075
 11
61.610538246
 21
88.2500061797
  0
LINE
  5
304
100
AcDbEntity
  8
0
100
AcDbLine
 62
7
  6
CONTINUOUS
 10
61.6141644897
 20
56.85
 11
61.6141644897
 21
61.35
  0
LINE
  5
305
100
AcDbEntity
  8
0
100
AcDbLine
 62
7
  6
CONTINUOUS
 10
61.5717715158
 20
59.05
 11
61.5720615795
 21
60.9543894738
  0
LINE
  5
306
100
AcDbEntity
  8
0
100
AcDbLine
 62
7
  6
CONTINUOUS
 10
61.610538246
 20
77.075
 11
61.4626014531
 21
77.075
  0
LINE
  5
307
100
AcDbEntity
  8
0
100
AcDbLine
 62
7
  6
CONTINUOUS
 10
61.4626014531
 20
77.325
 11
61.610538246
 21
77.325
  0
LINE
  5
308
100
AcDbEntity
  8
0
100
AcDbLine
 62
7
  6
CONTINUOUS
 10
61.610538246
 20
77.575
 11
61.4626014531
 21
77.575
  0
LINE
  5
309
100
AcDbEntity
  8
0
100
AcDbLine
 62
7
  6
CONTINUOUS
 10
61.4626014531
 20
77.825
 11
61.610538246
 21
77.825
  0
LINE
  5
30A
100
AcDbEntity
  8
0
100
AcDbLine
 62
7
  6
CONTINUOUS
 10
61.610538246
 20
78.075
 11
61.4626014531
 21
78.075
  0
LINE
  5
30B
100
AcDbEntity
  8
0
100
AcDbLine
 62
7
  6
CONTINUOUS
 10
61.4626014531
 20
78.325
 11
61.610538246
 21
78.325
  0
LINE
  5
30C
100
AcDbEntity
  8
0
100
AcDbLine
 62
7
  6
CONTINUOUS
 10
61.610538246
 20
78.575
 11
61.4626014531
 21
78.575
  0
LINE
  5
30D
100
AcDbEntity
  8
0
100
AcDbLine
 62
7
  6
CONTINUOUS
 10
61.4626014531
 20
78.825
 11
61.610538246
 21
78.825
  0
LINE
  5
30E
100
AcDbEntity
  8
0
100
AcDbLine
 62
7
  6
CONTINUOUS
 10
61.610538246
 20
79.075
 11
61.4626014531
 21
79.075
  0
LINE
  5
30F
100
AcDbEntity
  8
0
100
AcDbLine
 62
7
  6
CONTINUOUS
 10
61.4626014531
 20
79.325
 11
61.610538246
 21
79.325
  0
LINE
  5
310
100
AcDbEntity
  8
0
100
AcDbLine
 62
7
  6
CONTINUOUS
 10
61.610538246
 20
79.575
 11
61.4626014531
 21
79.575
  0
LINE
  5
311
100
AcDbEntity
  8
0
100
AcDbLine
 62
7
  6
CONTINUOUS
 10
61.4626014531
 20
79.825
 11
61.610538246
 21
79.825
  0
LINE
  5
312
100
AcDbEntity
  8
0
100
AcDbLine
 62
7
  6
CONTINUOUS
 10
61.610538246
 20
80.075
 11
61.4626014531
 21
80.075
  0
LINE
  5
313
100
AcDbEntity
  8
0
100
AcDbLine
 62
7
  6
CONTINUOUS
 10
61.4626014531
 20
80.325
 11
61.610538246
 21
80.325
  0
LINE
  5
314
100
AcDbEntity
  8
0
100
AcDbLine
 62
7
  6
CONTINUOUS
 10
61.610538246
 20
80.575
 11
61.4626014531
 21
80.575
  0
LINE
  5
315
100
AcDbEntity
  8
0
100
AcDbLine
 62
7
  6
CONTINUOUS
 10
49.1950516643
 20
80.65
 11
55.627238246
 21
80.65
  0
LINE
  5
316
100
AcDbEntity
  8
0
100
AcDbLine
 62
7
  6
CONTINUOUS
 10
63.4541644842
 20
35.25
 11
63.4541644842
 21
37.55
  0
LINE
  5
317
100
AcDbEntity
  8
0
100
AcDbLine
 62
7
  6
CONTINUOUS
 10
63.7041644842
 20
35.25
 11
63.7041644842
 21
37.55
  0
LINE
  5
318
100
AcDbEntity
  8
0
100
AcDbLine
 62
7
  6
CONTINUOUS
 10
65.5541644897
 20
31.0
 11
65.5541644897
 21
31.95
  0
LINE
  5
319
100
AcDbEntity
  8
0
100
AcDbLine
 62
7
  6
CONTINUOUS
 10
47.6541644897
 20
46.85
 11
47.3541644897
 21
46.55
  0
LINE
  5
31A
100
AcDbEntity
  8
0
100
AcDbLine
 62
7
  6
CONTINUOUS
 10
48.8041644897
 20
46.85
 11
48.5041644897
 21
46.55
  0
LINE
  5
31B
100
AcDbEntity
  8
0
100
AcDbLine
 62
7
  6
CONTINUOUS
 10
61.4626014531
 20
80.825
 11
61.610538246
 21
80.825
  0
LINE
  5
31C
100
AcDbEntity
  8
0
100
AcDbLine
 62
7
  6
CONTINUOUS
 10
61.610538246
 20
81.075
 11
61.4626014531
 21
81.075
  0
LINE
  5
31D
100
AcDbEntity
  8
0
100
AcDbLine
 62
7
  6
CONTINUOUS
 10
61.4626014531
 20
81.325
 11
61.610538246
 21
81.325
  0
LINE
  5
31E
100
AcDbEntity
  8
0
100
AcDbLine
 62
7
  6
CONTINUOUS
 10
61.610538246
 20
81.575
 11
61.4626014531
 21
81.575
  0
LINE
  5
31F
100
AcDbEntity
  8
0
100
AcDbLine
 62
7
  6
CONTINUOUS
 10
61.4626014531
 20
81.825
 11
61.610538246
 21
81.825
  0
LINE
  5
320
100
AcDbEntity
  8
0
100
AcDbLine
 62
7
  6
CONTINUOUS
 10
61.610538246
 20
82.075
 11
61.4626014531
 21
82.075
  0
LINE
  5
321
100
AcDbEntity
  8
0
100
AcDbLine
 62
7
  6
CONTINUOUS
 10
61.4626014531
 20
82.325
 11
61.610538246
 21
82.325
  0
LINE
  5
322
100
AcDbEntity
  8
0
100
AcDbLine
 62
7
  6
CONTINUOUS
 10
61.610538246
 20
82.575
 11
61.4626014531
 21
82.575
  0
LINE
  5
323
100
AcDbEntity
  8
0
100
AcDbLine
 62
7
  6
CONTINUOUS
 10
61.4626014531
 20
82.825
 11
61.610538246
 21
82.825
  0
LINE
  5
324
100
AcDbEntity
  8
0
100
AcDbLine
 62
7
  6
CONTINUOUS
 10
55.627238246
 20
82.85
 11
48.7410497356
 21
82.85
  0
LINE
  5
325
100
AcDbEntity
  8
0
100
AcDbLine
 62
7
  6
CONTINUOUS
 10
61.610538246
 20
83.075
 11
61.4626014531
 21
83.075
  0
LINE
  5
326
100
AcDbEntity
  8
0
100
AcDbLine
 62
7
  6
CONTINUOUS
 10
61.4626014531
 20
83.325
 11
61.610538246
 21
83.325
  0
LINE
  5
327
100
AcDbEntity
  8
0
100
AcDbLine
 62
7
  6
CONTINUOUS
 10
61.610538246
 20
83.575
 11
61.4626014531
 21
83.575
  0
LINE
  5
328
100
AcDbEntity
  8
0
100
AcDbLine
 62
7
  6
CONTINUOUS
 10
61.4626014531
 20
83.825
 11
61.610538246
 21
83.825
  0
LINE
  5
329
100
AcDbEntity
  8
0
100
AcDbLine
 62
7
  6
CONTINUOUS
 10
61.610538246
 20
84.075
 11
61.4626014531
 21
84.075
  0
LINE
  5
32A
100
AcDbEntity
  8
0
100
AcDbLine
 62
7
  6
CONTINUOUS
 10
61.4626014531
 20
84.325
 11
61.610538246
 21
84.325
  0
LINE
  5
32B
100
AcDbEntity
  8
0
100
AcDbLine
 62
7
  6
CONTINUOUS
 10
66.7541644897
 20
33.45
 11
66.7541644897
 21
32.15
  0
LINE
  5
32C
100
AcDbEntity
  8
0
100
AcDbLine
 62
7
  6
CONTINUOUS
 10
67.9541644897
 20
33.45
 11
67.9541644897
 21
29.95
  0
LINE
  5
32D
100
AcDbEntity
  8
0
100
AcDbLine
 62
7
  6
CONTINUOUS
 10
68.5541644897
 20
72.15
 11
68.5541644897
 21
50.05
  0
LINE
  5
32E
100
AcDbEntity
  8
0
100
AcDbLine
 62
7
  6
CONTINUOUS
 10
68.8541644897
 20
49.75
 11
68.8541644897
 21
72.45
  0
LINE
  5
32F
100
AcDbEntity
  8
0
100
AcDbLine
 62
7
  6
CONTINUOUS
 10
61.610538246
 20
84.575
 11
61.4626014531
 21
84.575
  0
LINE
  5
330
100
AcDbEntity
  8
0
100
AcDbLine
 62
7
  6
CONTINUOUS
 10
61.4626014531
 20
84.825
 11
61.610538246
 21
84.825
  0
LINE
  5
331
100
AcDbEntity
  8
0
100
AcDbLine
 62
7
  6
CONTINUOUS
 10
61.610538246
 20
85.075
 11
61.4626014531
 21
85.075
  0
LINE
  5
332
100
AcDbEntity
  8
0
100
AcDbLine
 62
7
  6
CONTINUOUS
 10
61.4626014531
 20
85.325
 11
61.610538246
 21
85.325
  0
LINE
  5
333
100
AcDbEntity
  8
0
100
AcDbLine
 62
7
  6
CONTINUOUS
 10
61.610538246
 20
85.575
 11
61.4626014531
 21
85.575
  0
LINE
  5
334
100
AcDbEntity
  8
0
100
AcDbLine
 62
7
  6
CONTINUOUS
 10
61.4626014531
 20
85.825
 11
61.610538246
 21
85.825
  0
LINE
  5
335
100
AcDbEntity
  8
0
100
AcDbLine
 62
7
  6
CONTINUOUS
 10
39.8541644897
 20
85.9496268483
 11
44.6541644897
 21
85.9496268483
  0
LINE
  5
336
100
AcDbEntity
  8
0
100
AcDbLine
 62
7
  6
CONTINUOUS
 10
61.610538246
 20
86.075
 11
61.4626014531
 21
86.075
  0
LINE
  5
337
100
AcDbEntity
  8
0
100
AcDbLine
 62
7
  6
CONTINUOUS
 10
61.4626014531
 20
86.325
 11
61.610538246
 21
86.325
  0
LINE
  5
338
100
AcDbEntity
  8
0
100
AcDbLine
 62
7
  6
CONTINUOUS
 10
61.610538246
 20
86.575
 11
61.4626014531
 21
86.575
  0
LINE
  5
339
100
AcDbEntity
  8
0
100
AcDbLine
 62
7
  6
CONTINUOUS
 10
61.4626014531
 20
86.825
 11
61.610538246
 21
86.825
  0
LINE
  5
33A
100
AcDbEntity
  8
0
100
AcDbLine
 62
7
  6
CONTINUOUS
 10
61.610538246
 20
87.075
 11
61.4626014531
 21
87.075
  0
LINE
  5
33B
100
AcDbEntity
  8
0
100
AcDbLine
 62
7
  6
CONTINUOUS
 10
61.4626014531
 20
87.325
 11
61.610538246
 21
87.325
  0
LINE
  5
33C
100
AcDbEntity
  8
0
100
AcDbLine
 62
7
  6
CONTINUOUS
 10
61.610538246
 20
87.575
 11
61.4626014531
 21
87.575
  0
LINE
  5
33D
100
AcDbEntity
  8
0
100
AcDbLine
 62
7
  6
CONTINUOUS
 10
61.4626014531
 20
87.825
 11
61.610538246
 21
87.825
  0
LINE
  5
33E
100
AcDbEntity
  8
0
100
AcDbLine
 62
7
  6
CONTINUOUS
 10
61.610538246
 20
88.075
 11
61.4626014531
 21
88.075
  0
LINE
  5
33F
100
AcDbEntity
  8
0
100
AcDbLine
 62
7
  6
CONTINUOUS
 10
61.4447150898
 20
88.251856958
 11
61.610538246
 21
88.2500061797
  0
LINE
  5
340
100
AcDbEntity
  8
0
100
AcDbLine
 62
7
  6
CONTINUOUS
 10
52.2795086534
 20
95.053490488
 11
50.679508653
 21
96.6534904861
  0
LINE
  5
341
100
AcDbEntity
  8
0
100
AcDbLine
 62
7
  6
CONTINUOUS
 10
50.8209300116
 20
96.7914213562
 11
52.3623443478
 21
95.2500070201
  0
LINE
  5
342
100
AcDbEntity
  8
0
100
AcDbLine
 62
7
  6
CONTINUOUS
 10
31.1541644897
 20
29.95
 11
32.6541644897
 21
30.799609054
  0
LINE
  5
343
100
AcDbEntity
  8
0
100
AcDbLine
 62
7
  6
CONTINUOUS
 10
61.3788567973
 20
95.7671572875
 11
61.5788263363
 21
95.7706477688
  0
LINE
  5
344
100
AcDbEntity
  8
0
100
AcDbLine
 62
7
  6
CONTINUOUS
 10
61.610538246
 20
92.7499938203
 11
61.4447150898
 21
92.7481430652
  0
LINE
  5
345
100
AcDbEntity
  8
0
100
AcDbLine
 62
7
  6
CONTINUOUS
 10
61.6123513678
 20
93.85
 11
61.0619779327
 21
93.85
  0
LINE
  5
346
100
AcDbEntity
  8
0
100
AcDbLine
 62
7
  6
CONTINUOUS
 10
34.9628042566
 20
93.85
 11
34.4123361353
 21
93.85
  0
LINE
  5
347
100
AcDbEntity
  8
0
100
AcDbLine
 62
7
  6
CONTINUOUS
 10
35.1122300282
 20
93.8500000049
 11
37.8521017132
 21
93.8500000049
  0
LINE
  5
348
100
AcDbEntity
  8
0
100
AcDbLine
 62
7
  6
CONTINUOUS
 10
39.9848575744
 20
93.8500000049
 11
40.3118434899
 21
93.8500000049
  0
LINE
  5
349
100
AcDbEntity
  8
0
100
AcDbLine
 62
7
  6
CONTINUOUS
 10
44.210105557
 20
93.8500000039
 11
44.5234683157
 21
93.8500000039
  0
LINE
  5
34A
100
AcDbEntity
  8
0
100
AcDbLine
 62
7
  6
CONTINUOUS
 10
46.4710400916
 20
93.8500000041
 11
60.9124590919
 21
93.8500000049
  0
LINE
  5
34B
100
AcDbEntity
  8
0
100
AcDbLine
 62
7
  6
CONTINUOUS
 10
52.2795086534
 20
95.053490488
 11
60.8914512266
 21
95.0534904974
  0
LINE
  5
34C
100
AcDbEntity
  8
0
100
AcDbLine
 62
7
  6
CONTINUOUS
 10
52.3623406097
 20
95.25
 11
61.3913748225
 21
95.25
  0
LINE
  5
34D
100
AcDbEntity
  8
0
100
AcDbLine
 62
7
  6
CONTINUOUS
 10
78.3541644897
 20
34.15
 11
78.3541644897
 21
31.75
  0
LINE
  5
34E
100
AcDbEntity
  8
0
100
AcDbLine
 62
7
  6
CONTINUOUS
 10
78.4541644897
 20
72.45
 11
78.4541644897
 21
53.65
  0
LINE
  5
34F
100
AcDbEntity
  8
0
100
AcDbLine
 62
7
  6
CONTINUOUS
 10
78.7541644897
 20
31.75
 11
78.7541644897
 21
34.15
  0
LINE
  5
350
100
AcDbEntity
  8
0
100
AcDbLine
 62
7
  6
CONTINUOUS
 10
78.7541644897
 20
53.95
 11
78.7541644897
 21
72.15
  0
LINE
  5
351
100
AcDbEntity
  8
0
100
AcDbLine
 62
7
  6
CONTINUOUS
 10
53.1041644925
 20
32.95
 11
53.6041644925
 21
33.45
  0
LINE
  5
352
100
AcDbEntity
  8
0
100
AcDbLine
 62
7
  6
CONTINUOUS
 10
51.8451940803
 20
95.7671572875
 11
61.3788567973
 21
95.7671572875
  0
LINE
  5
353
100
AcDbEntity
  8
0
100
AcDbLine
 62
7
  6
CONTINUOUS
 10
61.3788567973
 20
95.9085786438
 11
51.7037727241
 21
95.9085786438
  0
LINE
  5
354
100
AcDbEntity
  8
0
100
AcDbLine
 62
7
  6
CONTINUOUS
 10
35.1611646301
 20
96.6534904958
 11
37.9346789418
 21
96.6534904941
  0
LINE
  5
355
100
AcDbEntity
  8
0
100
AcDbLine
 62
7
  6
CONTINUOUS
 10
45.8924991429
 20
96.6534904891
 11
50.679508653
 21
96.6534904861
  0
LINE
  5
356
100
AcDbEntity
  8
0
100
AcDbLine
 62
7
  6
CONTINUOUS
 10
50.8209300116
 20
96.7914213562
 11
61.3634467204
 21
96.7914213562
  0
LINE
  5
357
100
AcDbEntity
  8
0
100
AcDbLine
 62
7
  6
CONTINUOUS
 10
61.3634467204
 20
96.85
 11
45.8519465534
 21
96.85
  0
LINE
  5
358
100
AcDbEntity
  8
0
100
AcDbLine
 62
7
  6
CONTINUOUS
 10
34.6612407825
 20
96.85
 11
37.9404671585
 21
96.85
  0
LINE
  5
359
100
AcDbEntity
  8
0
100
AcDbLine
 62
7
  6
CONTINUOUS
 10
37.9557796912
 20
97.369859294
 11
35.250225344
 21
97.369859294
  0
LINE
  5
35A
100
AcDbEntity
  8
0
100
AcDbLine
 62
7
  6
CONTINUOUS
 10
60.2077159336
 20
98.75
 11
57.0077159336
 21
98.75
  0
LINE
  5
35B
100
AcDbEntity
  8
0
100
AcDbLine
 62
7
  6
CONTINUOUS
 10
82.3541644897
 20
31.75
 11
82.3541644897
 21
34.15
  0
LINE
  5
35C
100
AcDbEntity
  8
0
100
AcDbLine
 62
7
  6
CONTINUOUS
 10
82.5541644897
 20
31.75
 11
82.5541644897
 21
34.15
  0
LINE
  5
35D
100
AcDbEntity
  8
0
100
AcDbLine
 62
7
  6
CONTINUOUS
 10
78.7541644897
 20
53.95
 11
78.4541644897
 21
53.65
  0
LINE
  5
35E
100
AcDbEntity
  8
0
100
AcDbLine
 62
7
  6
CONTINUOUS
 10
89.6541644897
 20
53.95
 11
89.6541644897
 21
29.95
  0
LINE
  5
35F
100
AcDbEntity
  8
0
100
AcDbLine
 62
7
  6
CONTINUOUS
 10
89.9541644897
 20
29.95
 11
89.9541644897
 21
53.65
  0
LINE
  5
360
100
AcDbEntity
  8
0
100
AcDbLine
 62
7
  6
CONTINUOUS
 10
38.2541644897
 20
107.5
 11
43.6041190629
 21
107.5
  0
LINE
  5
361
100
AcDbEntity
  8
0
100
AcDbLine
 62
7
  6
CONTINUOUS
 10
43.2541644897
 20
107.7
 11
38.4541644897
 21
107.7
  0
LINE
  5
362
100
AcDbEntity
  8
0
100
AcDbLine
 62
7
  6
CONTINUOUS
 10
38.4541644897
 20
108.3
 11
43.2541644897
 21
108.3
  0
ARC
  5
363
100
AcDbEntity
  8
0
100
AcDbCircle
 62
7
  6
CONTINUOUS
 10
28.9541644897
 20
32.75
 40
0.5
100
AcDbArc
 50
180.0000000057
 51
270.0
  0
ARC
  5
364
100
AcDbEntity
  8
0
100
AcDbCircle
 62
7
  6
CONTINUOUS
 10
27.898038246
 20
68.0
 40
33.7875
100
AcDbArc
 50
356.1817056018
 51
3.8182943983
  0
ARC
  5
365
100
AcDbEntity
  8
0
100
AcDbCircle
 62
7
  6
CONTINUOUS
 10
27.898038246
 20
68.0
 40
33.6216768832
100
AcDbArc
 50
356.1660206559
 51
3.8324202687
  0
CIRCLE
  5
366
100
AcDbEntity
  8
0
100
AcDbCircle
 62
7
  6
CONTINUOUS
 10
21.1541644897
 20
69.85
 40
0.75
  0
CIRCLE
  5
367
100
AcDbEntity
  8
0
100
AcDbCircle
 62
7
  6
CONTINUOUS
 10
12.2541644897
 20
51.35
 40
0.75
  0
ARC
  5
368
100
AcDbEntity
  8
0
100
AcDbCircle
 62
7
  6
CONTINUOUS
 10
11.2541644897
 20
53.65
 40
0.3
100
AcDbArc
 50
89.9999999999
 51
180.0
  0
ARC
  5
369
100
AcDbEntity
  8
0
100
AcDbCircle
 62
7
  6
CONTINUOUS
 10
47.3640406008
 20
49.6640344905
 40
0.3830756049
100
AcDbArc
 50
12.9680917155
 51
18.7362801848
  0
ARC
  5
36A
100
AcDbEntity
  8
0
100
AcDbCircle
 62
7
  6
CONTINUOUS
 10
47.3869863385
 20
49.7433913499
 40
0.3066095817
100
AcDbArc
 50
78.8537552194
 51
89.9960547944
  0
ARC
  5
36B
100
AcDbEntity
  8
0
100
AcDbCircle
 62
7
  6
CONTINUOUS
 10
47.3541644897
 20
49.75
 40
0.3
100
AcDbArc
 50
0.0
 51
90.0000000019
  0
CIRCLE
  5
36C
100
AcDbEntity
  8
0
100
AcDbCircle
 62
7
  6
CONTINUOUS
 10
39.8541644897
 20
54.95
 40
1.1
  0
CIRCLE
  5
36D
100
AcDbEntity
  8
0
100
AcDbCircle
 62
7
  6
CONTINUOUS
 10
39.8541644897
 20
54.95
 40
1.0
  0
CIRCLE
  5
36E
100
AcDbEntity
  8
0
100
AcDbCircle
 62
7
  6
CONTINUOUS
 10
39.8541644897
 20
54.95
 40
0.8
  0
ARC
  5
36F
100
AcDbEntity
  8
0
100
AcDbCircle
 62
7
  6
CONTINUOUS
 10
29.7541644897
 20
72.15
 40
0.3
100
AcDbArc
 50
0.0
 51
90.0
  0
ARC
  5
370
100
AcDbEntity
  8
0
100
AcDbCircle
 62
7
  6
CONTINUOUS
 10
20.1541644897
 20
72.15
 40
0.3
100
AcDbArc
 50
90.0000000018
 51
180.0
  0
ARC
  5
371
100
AcDbEntity
  8
0
100
AcDbCircle
 62
7
  6
CONTINUOUS
 10
27.898038246
 20
90.5
 40
33.7875
100
AcDbArc
 50
356.1817056018
 51
3.8182943983
  0
ARC
  5
372
100
AcDbEntity
  8
0
100
AcDbCircle
 62
7
  6
CONTINUOUS
 10
27.898038246
 20
90.5
 40
33.6216768832
100
AcDbArc
 50
356.1660206559
 51
3.8324202687
  0
ARC
  5
373
100
AcDbEntity
  8
0
100
AcDbCircle
 62
7
  6
CONTINUOUS
 10
35.163604065
 20
96.8281390258
 40
0.5486019433
100
AcDbArc
 50
80.9152882698
 51
178.2763441439
  0
ARC
  5
374
100
AcDbEntity
  8
0
100
AcDbCircle
 62
7
  6
CONTINUOUS
 10
34.6612407825
 20
96.65
 40
0.2
100
AcDbArc
 50
90.0
 51
178.9999951925
  0
ARC
  5
375
100
AcDbEntity
  8
0
100
AcDbCircle
 62
7
  6
CONTINUOUS
 10
42.2541644897
 20
92.5861541467
 40
2.6416804628
100
AcDbArc
 50
24.6992452848
 51
155.3007547152
  0
ARC
  5
376
100
AcDbEntity
  8
0
100
AcDbCircle
 62
7
  6
CONTINUOUS
 10
42.2541088947
 20
92.5953988371
 40
2.3413731097
100
AcDbArc
 50
26.8554401496
 51
153.1447141999
  0
ARC
  5
377
100
AcDbEntity
  8
0
100
AcDbCircle
 62
7
  6
CONTINUOUS
 10
42.2339361128
 20
92.6049299967
 40
2.3189760701
100
AcDbArc
 50
153.1284113805
 51
153.7469387627
  0
ARC
  5
378
100
AcDbEntity
  8
0
100
AcDbCircle
 62
7
  6
CONTINUOUS
 10
42.2743928803
 20
92.6049300004
 40
2.3189760563
100
AcDbArc
 50
26.2530613069
 51
26.8717442674
  0
ARC
  5
379
100
AcDbEntity
  8
0
100
AcDbCircle
 62
7
  6
CONTINUOUS
 10
43.5623025294
 20
107.059928977
 40
0.1834675753
100
AcDbArc
 50
321.1433380713
 51
62.1769296085
  0
ARC
  5
37A
100
AcDbEntity
  8
0
100
AcDbCircle
 62
7
  6
CONTINUOUS
 10
43.663355483
 20
106.570247141
 40
0.1834675753
100
AcDbArc
 50
321.1433380732
 51
62.1769296085
  0
ARC
  5
37B
100
AcDbEntity
  8
0
100
AcDbCircle
 62
7
  6
CONTINUOUS
 10
43.7644084366
 20
106.0805653049
 40
0.1834675753
100
AcDbArc
 50
321.1433380751
 51
62.1769296057
  0
ARC
  5
37C
100
AcDbEntity
  8
0
100
AcDbCircle
 62
7
  6
CONTINUOUS
 10
43.8654613902
 20
105.5908834688
 40
0.1834675753
100
AcDbArc
 50
321.1433380708
 51
62.1769296085
  0
ARC
  5
37D
100
AcDbEntity
  8
0
100
AcDbCircle
 62
7
  6
CONTINUOUS
 10
43.9665143439
 20
105.1012016328
 40
0.1834675753
100
AcDbArc
 50
321.1433380732
 51
62.1769296085
  0
ARC
  5
37E
100
AcDbEntity
  8
0
100
AcDbCircle
 62
7
  6
CONTINUOUS
 10
44.0675672975
 20
104.6115197967
 40
0.1834675753
100
AcDbArc
 50
321.1433380732
 51
62.1769296085
  0
ARC
  5
37F
100
AcDbEntity
  8
0
100
AcDbCircle
 62
7
  6
CONTINUOUS
 10
44.1686202511
 20
104.1218379607
 40
0.1834675753
100
AcDbArc
 50
321.1433380708
 51
62.1769296085
  0
ARC
  5
380
100
AcDbEntity
  8
0
100
AcDbCircle
 62
7
  6
CONTINUOUS
 10
44.2696732047
 20
103.6321561246
 40
0.1834675753
100
AcDbArc
 50
321.1433380732
 51
62.1769296085
  0
ARC
  5
381
100
AcDbEntity
  8
0
100
AcDbCircle
 62
7
  6
CONTINUOUS
 10
43.6869912847
 20
107.3409281011
 40
0.125
100
AcDbArc
 50
131.5273941711
 51
251.7928954879
  0
ARC
  5
382
100
AcDbEntity
  8
0
100
AcDbCircle
 62
7
  6
CONTINUOUS
 10
43.7880442384
 20
106.851246265
 40
0.125
100
AcDbArc
 50
131.5273721885
 51
251.7928954923
  0
ARC
  5
383
100
AcDbEntity
  8
0
100
AcDbCircle
 62
7
  6
CONTINUOUS
 10
43.889097192
 20
106.361564429
 40
0.125
100
AcDbArc
 50
131.5273721862
 51
251.7928954923
  0
ARC
  5
384
100
AcDbEntity
  8
0
100
AcDbCircle
 62
7
  6
CONTINUOUS
 10
43.9901501456
 20
105.8718825929
 40
0.125
100
AcDbArc
 50
131.5273721893
 51
251.7928954879
  0
ARC
  5
385
100
AcDbEntity
  8
0
100
AcDbCircle
 62
7
  6
CONTINUOUS
 10
44.0912030992
 20
105.3822007569
 40
0.125
100
AcDbArc
 50
131.5273721893
 51
251.7928954923
  0
ARC
  5
386
100
AcDbEntity
  8
0
100
AcDbCircle
 62
7
  6
CONTINUOUS
 10
44.1922560529
 20
104.8925189208
 40
0.125
100
AcDbArc
 50
131.5273721862
 51
251.7928954879
  0
ARC
  5
387
100
AcDbEntity
  8
0
100
AcDbCircle
 62
7
  6
CONTINUOUS
 10
44.2933090065
 20
104.4028370848
 40
0.125
100
AcDbArc
 50
131.5273721893
 51
251.7928954923
  0
ARC
  5
388
100
AcDbEntity
  8
0
100
AcDbCircle
 62
7
  6
CONTINUOUS
 10
44.3943619601
 20
103.9131552487
 40
0.125
100
AcDbArc
 50
131.5273721893
 51
251.7928954879
  0
ARC
  5
389
100
AcDbEntity
  8
0
100
AcDbCircle
 62
7
  6
CONTINUOUS
 10
44.4954149137
 20
103.4234734127
 40
0.125
100
AcDbArc
 50
131.5273721927
 51
255.2723339243
  0
ARC
  5
38A
100
AcDbEntity
  8
0
100
AcDbCircle
 62
7
  6
CONTINUOUS
 10
44.4382142944
 20
103.2058657631
 40
0.1
100
AcDbArc
 50
11.6601338421
 51
75.2723338193
  0
ARC
  5
38B
100
AcDbEntity
  8
0
100
AcDbCircle
 62
7
  6
CONTINUOUS
 10
43.5751199423
 20
107.467253993
 40
0.0437407129
100
AcDbArc
 50
311.5273093813
 51
48.4726278088
  0
ARC
  5
38C
100
AcDbEntity
  8
0
100
AcDbCircle
 62
7
  6
CONTINUOUS
 10
59.2060959504
 20
52.15
 40
1.75
100
AcDbArc
 50
270.0
 51
90.0
  0
ARC
  5
38D
100
AcDbEntity
  8
0
100
AcDbCircle
 62
7
  6
CONTINUOUS
 10
56.1041644897
 20
55.65
 40
1.75
100
AcDbArc
 50
180.0
 51
270.0
  0
CIRCLE
  5
38E
100
AcDbEntity
  8
0
100
AcDbCircle
 62
7
  6
CONTINUOUS
 10
88.6541644897
 20
51.35
 40
0.75
  0
CIRCLE
  5
38F
100
AcDbEntity
  8
0
100
AcDbCircle
 62
7
  6
CONTINUOUS
 10
77.4541644897
 20
69.85
 40
0.75
  0
ARC
  5
390
100
AcDbEntity
  8
0
100
AcDbCircle
 62
7
  6
CONTINUOUS
 10
53.5441815928
 20
49.6640601659
 40
0.3829658524
100
AcDbArc
 50
161.2883083045
 51
167.032019008
  0
ARC
  5
391
100
AcDbEntity
  8
0
100
AcDbCircle
 62
7
  6
CONTINUOUS
 10
53.5213998545
 20
49.742755669
 40
0.3072443391
100
AcDbArc
 50
90.0131563973
 51
101.1337967556
  0
ARC
  5
392
100
AcDbEntity
  8
0
100
AcDbCircle
 62
7
  6
CONTINUOUS
 10
53.5541644897
 20
49.75
 40
0.3
100
AcDbArc
 50
90.0000000019
 51
180.0
  0
ARC
  5
393
100
AcDbEntity
  8
0
100
AcDbCircle
 62
7
  6
CONTINUOUS
 10
89.6541644897
 20
53.65
 40
0.3
100
AcDbArc
 50
0.0
 51
90.0000000002
  0
ARC
  5
394
100
AcDbEntity
  8
0
100
AcDbCircle
 62
7
  6
CONTINUOUS
 10
61.4626197774
 20
83.9500373582
 40
0.1249626432
100
AcDbArc
 50
269.9915982082
 51
90.0084017553
  0
ARC
  5
395
100
AcDbEntity
  8
0
100
AcDbCircle
 62
7
  6
CONTINUOUS
 10
61.4626197774
 20
83.4500373582
 40
0.1249626432
100
AcDbArc
 50
269.9915982082
 51
90.0084017553
  0
ARC
  5
396
100
AcDbEntity
  8
0
100
AcDbCircle
 62
7
  6
CONTINUOUS
 10
61.4626197774
 20
82.9500373582
 40
0.1249626432
100
AcDbArc
 50
269.9915982082
 51
90.0084017553
  0
ARC
  5
397
100
AcDbEntity
  8
0
100
AcDbCircle
 62
7
  6
CONTINUOUS
 10
61.4626197774
 20
82.4500373582
 40
0.1249626432
100
AcDbArc
 50
269.9915982082
 51
90.0084017553
  0
ARC
  5
398
100
AcDbEntity
  8
0
100
AcDbCircle
 62
7
  6
CONTINUOUS
 10
61.4626197774
 20
81.9500373582
 40
0.1249626432
100
AcDbArc
 50
269.9915982082
 51
90.0084017553
  0
ARC
  5
399
100
AcDbEntity
  8
0
100
AcDbCircle
 62
7
  6
CONTINUOUS
 10
61.4626197774
 20
81.4500373582
 40
0.1249626432
100
AcDbArc
 50
269.9915982082
 51
90.0084017553
  0
ARC
  5
39A
100
AcDbEntity
  8
0
100
AcDbCircle
 62
7
  6
CONTINUOUS
 10
61.4626197774
 20
80.9500373582
 40
0.1249626432
100
AcDbArc
 50
269.9915982082
 51
90.0084017553
  0
ARC
  5
39B
100
AcDbEntity
  8
0
100
AcDbCircle
 62
7
  6
CONTINUOUS
 10
61.4626197774
 20
80.4500373582
 40
0.1249626432
100
AcDbArc
 50
269.9915982082
 51
90.0084017553
  0
ARC
  5
39C
100
AcDbEntity
  8
0
100
AcDbCircle
 62
7
  6
CONTINUOUS
 10
61.4626197774
 20
79.9500373582
 40
0.1249626432
100
AcDbArc
 50
269.9915982082
 51
90.0084017553
  0
ARC
  5
39D
100
AcDbEntity
  8
0
100
AcDbCircle
 62
7
  6
CONTINUOUS
 10
61.4626197774
 20
79.4500373582
 40
0.1249626432
100
AcDbArc
 50
269.9915982082
 51
90.0084017553
  0
ARC
  5
39E
100
AcDbEntity
  8
0
100
AcDbCircle
 62
7
  6
CONTINUOUS
 10
61.4626197774
 20
78.9500373582
 40
0.1249626432
100
AcDbArc
 50
269.9915982082
 51
90.0084017553
  0
ARC
  5
39F
100
AcDbEntity
  8
0
100
AcDbCircle
 62
7
  6
CONTINUOUS
 10
61.4626197774
 20
78.4500373582
 40
0.1249626432
100
AcDbArc
 50
269.9915982082
 51
90.0084017553
  0
ARC
  5
3A0
100
AcDbEntity
  8
0
100
AcDbCircle
 62
7
  6
CONTINUOUS
 10
61.4626197774
 20
77.9500373582
 40
0.1249626432
100
AcDbArc
 50
269.9915982082
 51
90.0084017553
  0
ARC
  5
3A1
100
AcDbEntity
  8
0
100
AcDbCircle
 62
7
  6
CONTINUOUS
 10
61.4626197774
 20
77.4500373582
 40
0.1249626432
100
AcDbArc
 50
269.9915982082
 51
90.0084017553
  0
ARC
  5
3A2
100
AcDbEntity
  8
0
100
AcDbCircle
 62
7
  6
CONTINUOUS
 10
61.4626197774
 20
76.9500373582
 40
0.1249626432
100
AcDbArc
 50
269.9915982082
 51
90.0084017553
  0
ARC
  5
3A3
100
AcDbEntity
  8
0
100
AcDbCircle
 62
7
  6
CONTINUOUS
 10
61.4626197774
 20
76.4500373582
 40
0.1249626432
100
AcDbArc
 50
269.9915982082
 51
90.0084017553
  0
ARC
  5
3A4
100
AcDbEntity
  8
0
100
AcDbCircle
 62
7
  6
CONTINUOUS
 10
61.4626197774
 20
75.9500373582
 40
0.1249626432
100
AcDbArc
 50
269.9915982082
 51
90.0084017553
  0
ARC
  5
3A5
100
AcDbEntity
  8
0
100
AcDbCircle
 62
7
  6
CONTINUOUS
 10
61.4626197774
 20
75.4500373582
 40
0.1249626432
100
AcDbArc
 50
269.9915982082
 51
90.0084017553
  0
ARC
  5
3A6
100
AcDbEntity
  8
0
100
AcDbCircle
 62
7
  6
CONTINUOUS
 10
61.4626197774
 20
74.9500373582
 40
0.1249626432
100
AcDbArc
 50
269.9915982082
 51
90.0084017553
  0
ARC
  5
3A7
100
AcDbEntity
  8
0
100
AcDbCircle
 62
7
  6
CONTINUOUS
 10
61.4626197774
 20
74.4500373582
 40
0.1249626432
100
AcDbArc
 50
269.9915982082
 51
90.0084017553
  0
ARC
  5
3A8
100
AcDbEntity
  8
0
100
AcDbCircle
 62
7
  6
CONTINUOUS
 10
61.4626197774
 20
73.9500373582
 40
0.1249626432
100
AcDbArc
 50
269.9915982082
 51
90.0084017553
  0
ARC
  5
3A9
100
AcDbEntity
  8
0
100
AcDbCircle
 62
7
  6
CONTINUOUS
 10
61.4626197774
 20
73.4500373582
 40
0.1249626432
100
AcDbArc
 50
269.9915982082
 51
90.0084017553
  0
ARC
  5
3AA
100
AcDbEntity
  8
0
100
AcDbCircle
 62
7
  6
CONTINUOUS
 10
61.4626197774
 20
72.9500373582
 40
0.1249626432
100
AcDbArc
 50
269.9915982082
 51
90.0084017553
  0
ARC
  5
3AB
100
AcDbEntity
  8
0
100
AcDbCircle
 62
7
  6
CONTINUOUS
 10
61.4626197774
 20
72.4500373582
 40
0.1249626432
100
AcDbArc
 50
269.9915982082
 51
90.0084017553
  0
ARC
  5
3AC
100
AcDbEntity
  8
0
100
AcDbCircle
 62
7
  6
CONTINUOUS
 10
61.4626197774
 20
71.9500373582
 40
0.1249626432
100
AcDbArc
 50
269.9915982082
 51
90.0084017553
  0
ARC
  5
3AD
100
AcDbEntity
  8
0
100
AcDbCircle
 62
7
  6
CONTINUOUS
 10
61.4626197774
 20
71.4500373582
 40
0.1249626432
100
AcDbArc
 50
269.9915982082
 51
90.0084017553
  0
ARC
  5
3AE
100
AcDbEntity
  8
0
100
AcDbCircle
 62
7
  6
CONTINUOUS
 10
61.3913748243
 20
95.05
 40
0.2
100
AcDbArc
 50
1.0000029859
 51
90.0
  0
ARC
  5
3AF
100
AcDbEntity
  8
0
100
AcDbCircle
 62
7
  6
CONTINUOUS
 10
61.3634467204
 20
96.65
 40
0.2
100
AcDbArc
 50
1.0000023061
 51
90.0
  0
ARC
  5
3B0
100
AcDbEntity
  8
0
100
AcDbCircle
 62
7
  6
CONTINUOUS
 10
50.6795086554
 20
96.65
 40
0.2
100
AcDbArc
 50
44.9999999998
 51
90.0
  0
ARC
  5
3B1
100
AcDbEntity
  8
0
100
AcDbCircle
 62
7
  6
CONTINUOUS
 10
61.4626197774
 20
87.9500373582
 40
0.1249626432
100
AcDbArc
 50
269.9915982082
 51
90.0084017553
  0
ARC
  5
3B2
100
AcDbEntity
  8
0
100
AcDbCircle
 62
7
  6
CONTINUOUS
 10
61.4626197774
 20
87.4500373582
 40
0.1249626432
100
AcDbArc
 50
269.9915982082
 51
90.0084017553
  0
ARC
  5
3B3
100
AcDbEntity
  8
0
100
AcDbCircle
 62
7
  6
CONTINUOUS
 10
61.4626197774
 20
86.9500373582
 40
0.1249626432
100
AcDbArc
 50
269.9915982082
 51
90.0084017553
  0
ARC
  5
3B4
100
AcDbEntity
  8
0
100
AcDbCircle
 62
7
  6
CONTINUOUS
 10
61.4626197774
 20
86.4500373582
 40
0.1249626432
100
AcDbArc
 50
269.9915982082
 51
90.0084017553
  0
ARC
  5
3B5
100
AcDbEntity
  8
0
100
AcDbCircle
 62
7
  6
CONTINUOUS
 10
61.4626197774
 20
85.9500373582
 40
0.1249626432
100
AcDbArc
 50
269.9915982082
 51
90.0084017553
  0
ARC
  5
3B6
100
AcDbEntity
  8
0
100
AcDbCircle
 62
7
  6
CONTINUOUS
 10
61.4626197774
 20
85.4500373582
 40
0.1249626432
100
AcDbArc
 50
269.9915982082
 51
90.0084017553
  0
ARC
  5
3B7
100
AcDbEntity
  8
0
100
AcDbCircle
 62
7
  6
CONTINUOUS
 10
61.4626197774
 20
84.9500373582
 40
0.1249626432
100
AcDbArc
 50
269.9915982082
 51
90.0084017553
  0
ARC
  5
3B8
100
AcDbEntity
  8
0
100
AcDbCircle
 62
7
  6
CONTINUOUS
 10
61.4626197774
 20
84.4500373582
 40
0.1249626432
100
AcDbArc
 50
269.9915982082
 51
90.0084017553
  0
ARC
  5
3B9
100
AcDbEntity
  8
0
100
AcDbCircle
 62
7
  6
CONTINUOUS
 10
68.8541644897
 20
72.15
 40
0.3
100
AcDbArc
 50
89.9999999981
 51
180.0
  0
ARC
  5
3BA
100
AcDbEntity
  8
0
100
AcDbCircle
 62
7
  6
CONTINUOUS
 10
78.4541644897
 20
72.15
 40
0.3
100
AcDbArc
 50
0.0
 51
90.0000000001
  0
SPLINE
  5
3BB
100
AcDbEntity
  8
0
100
AcDbSpline
 62
7
  6
CONTINUOUS
 70
0
 71
3
 72
11
 73
7
 74
0
 42
0.0000001
 43
0.0000001
 44
0.0000000001
 40
0.0
 40
0.0
 40
0.0
 40
0.0
 40
0.2434301036
 40
0.4907413448
 40
0.7434908595
 40
1.0
 40
1.0
 40
1.0
 40
1.0
 10
32.4492739923
 20
32.4500136191
 30
0.0
 10
32.5108671996
 20
32.4500164718
 30
0.0
 10
32.6364924317
 20
32.4765714742
 30
0.0
 10
32.7935310365
 20
32.5888862311
 30
0.0
 10
32.8976645851
 20
32.7549441163
 30
0.0
 10
32.9218079448
 20
32.8850975066
 30
0.0
 10
32.9218079448
 20
32.95
 30
0.0
  0
SPLINE
  5
3BC
100
AcDbEntity
  8
0
100
AcDbSpline
 62
7
  6
CONTINUOUS
 70
0
 71
3
 72
17
 73
13
 74
0
 42
0.0000001
 43
0.0000001
 44
0.0000000001
 40
0.0
 40
0.0
 40
0.0
 40
0.0
 40
0.0050630016
 40
0.0177657292
 40
0.0384835988
 40
0.0672157715
 40
0.148505782
 40
0.261115842
 40
0.4042627406
 40
0.5763379499
 40
0.775523839
 40
1.0
 40
1.0
 40
1.0
 40
1.0
 10
61.5807891945
 20
61.45
 30
0.0
 10
61.5805440737
 20
61.45
 30
0.0
 10
61.5802053291
 20
61.4488905964
 30
0.0
 10
61.5798571934
 20
61.4473230017
 30
0.0
 10
61.5794501347
 20
61.4441970749
 30
0.0
 10
61.5788447274
 20
61.4379812665
 30
0.0
 10
61.5781431434
 20
61.4271609454
 30
0.0
 10
61.5773693772
 20
61.4108913301
 30
0.0
 10
61.5766213896
 20
61.3901798002
 30
0.0
 10
61.5759045652
 20
61.3652894791
 30
0.0
 10
61.5752298931
 20
61.3364537673
 30
0.0
 10
61.5748355937
 20
61.3159466374
 30
0.0
 10
61.5746442773
 20
61.3050805058
 30
0.0
  0
SPLINE
  5
3BD
100
AcDbEntity
  8
0
100
AcDbSpline
 62
7
  6
CONTINUOUS
 70
0
 71
3
 72
9
 73
5
 74
0
 42
0.0000001
 43
0.0000001
 44
0.0000000001
 40
0.0
 40
0.0
 40
0.0
 40
0.0
 40
0.2138814795
 40
1.0
 40
1.0
 40
1.0
 40
1.0
 10
61.5746442773
 20
61.3050805058
 30
0.0
 10
61.5742041267
 20
61.2800814252
 30
0.0
 10
61.5725762623
 20
61.1631911613
 30
0.0
 10
61.5720756011
 20
61.0462875001
 30
0.0
 10
61.5720615795
 20
60.9543894738
 30
0.0
  0
SPLINE
  5
3BE
100
AcDbEntity
  8
0
100
AcDbSpline
 62
7
  6
CONTINUOUS
 70
0
 71
3
 72
11
 73
7
 74
0
 42
0.0000001
 43
0.0000001
 44
0.0000000001
 40
0.0
 40
0.0
 40
0.0
 40
0.0
 40
0.2565102334
 40
0.5092390173
 40
0.7565517191
 40
1.0
 40
1.0
 40
1.0
 40
1.0
 10
32.9218079448
 20
32.95
 30
0.0
 10
32.9218079448
 20
33.0149028647
 30
0.0
 10
32.8976671316
 20
33.1450518667
 30
0.0
 10
32.7935367378
 20
33.3111062014
 30
0.0
 10
32.6365033023
 20
33.4234249224
 30
0.0
 10
32.5108718972
 20
33.4499892338
 30
0.0
 10
32.4492740006
 20
33.4499863809
 30
0.0
  0
SPLINE
  5
3BF
100
AcDbEntity
  8
0
100
AcDbSpline
 62
7
  6
CONTINUOUS
 70
0
 71
3
 72
8
 73
4
 74
0
 42
0.0000001
 43
0.0000001
 44
0.0000000001
 40
0.0
 40
0.0
 40
0.0
 40
0.0
 40
1.0
 40
1.0
 40
1.0
 40
1.0
 10
61.734543014
 20
87.9479113035
 30
0.0
 10
61.734543014
 20
87.9693479163
 30
0.0
 10
61.7299688826
 20
87.9916016712
 30
0.0
 10
61.7199183742
 20
88.0105361807
 30
0.0
  0
SPLINE
  5
3C0
100
AcDbEntity
  8
0
100
AcDbSpline
 62
7
  6
CONTINUOUS
 70
0
 71
3
 72
9
 73
5
 74
0
 42
0.0000001
 43
0.0000001
 44
0.0000000001
 40
0.0
 40
0.0
 40
0.0
 40
0.0
 40
0.500182216
 40
1.0
 40
1.0
 40
1.0
 40
1.0
 10
61.7199183742
 20
88.0105361807
 30
0.0
 10
61.7096308838
 20
88.0299171489
 30
0.0
 10
61.6769838305
 20
88.0629317545
 30
0.0
 10
61.6324643279
 20
88.075
 30
0.0
 10
61.610538246
 20
88.075
 30
0.0
  0
SPLINE
  5
3C1
100
AcDbEntity
  8
0
100
AcDbSpline
 62
7
  6
CONTINUOUS
 70
0
 71
3
 72
8
 73
4
 74
0
 42
0.0000001
 43
0.0000001
 44
0.0000000001
 40
0.0
 40
0.0
 40
0.0
 40
0.0
 40
1.0
 40
1.0
 40
1.0
 40
1.0
 10
61.7345084766
 20
87.9263556549
 30
0.0
 10
61.7345084766
 20
87.9042830266
 30
0.0
 10
61.7293593842
 20
87.8813396653
 30
0.0
 10
61.7185674108
 20
87.8620852053
 30
0.0
  0
SPLINE
  5
3C2
100
AcDbEntity
  8
0
100
AcDbSpline
 62
7
  6
CONTINUOUS
 70
0
 71
3
 72
9
 73
5
 74
0
 42
0.0000001
 43
0.0000001
 44
0.0000000001
 40
0.0
 40
0.0
 40
0.0
 40
0.0
 40
0.4999399336
 40
1.0
 40
1.0
 40
1.0
 40
1.0
 10
61.7185674108
 20
87.8620852053
 30
0.0
 10
61.7080599829
 20
87.8433384163
 30
0.0
 10
61.6756319328
 20
87.8115892963
 30
0.0
 10
61.6320340624
 20
87.8
 30
0.0
 10
61.610538246
 20
87.8
 30
0.0
  0
SPLINE
  5
3C3
100
AcDbEntity
  8
0
100
AcDbSpline
 62
7
  6
CONTINUOUS
 70
0
 71
3
 72
8
 73
4
 74
0
 42
0.0000001
 43
0.0000001
 44
0.0000000001
 40
0.0
 40
0.0
 40
0.0
 40
0.0
 40
1.0
 40
1.0
 40
1.0
 40
1.0
 10
61.734543014
 20
87.4479113035
 30
0.0
 10
61.734543014
 20
87.4693479163
 30
0.0
 10
61.7299688826
 20
87.4916016712
 30
0.0
 10
61.7199183742
 20
87.5105361807
 30
0.0
  0
SPLINE
  5
3C4
100
AcDbEntity
  8
0
100
AcDbSpline
 62
7
  6
CONTINUOUS
 70
0
 71
3
 72
9
 73
5
 74
0
 42
0.0000001
 43
0.0000001
 44
0.0000000001
 40
0.0
 40
0.0
 40
0.0
 40
0.0
 40
0.500182216
 40
1.0
 40
1.0
 40
1.0
 40
1.0
 10
61.7199183742
 20
87.5105361807
 30
0.0
 10
61.7096308838
 20
87.5299171489
 30
0.0
 10
61.6769838305
 20
87.5629317545
 30
0.0
 10
61.6324643279
 20
87.575
 30
0.0
 10
61.610538246
 20
87.575
 30
0.0
  0
SPLINE
  5
3C5
100
AcDbEntity
  8
0
100
AcDbSpline
 62
7
  6
CONTINUOUS
 70
0
 71
3
 72
8
 73
4
 74
0
 42
0.0000001
 43
0.0000001
 44
0.0000000001
 40
0.0
 40
0.0
 40
0.0
 40
0.0
 40
1.0
 40
1.0
 40
1.0
 40
1.0
 10
61.7345084766
 20
87.4263556549
 30
0.0
 10
61.7345084766
 20
87.4042830266
 30
0.0
 10
61.7293593842
 20
87.3813396653
 30
0.0
 10
61.7185674108
 20
87.3620852053
 30
0.0
  0
SPLINE
  5
3C6
100
AcDbEntity
  8
0
100
AcDbSpline
 62
7
  6
CONTINUOUS
 70
0
 71
3
 72
9
 73
5
 74
0
 42
0.0000001
 43
0.0000001
 44
0.0000000001
 40
0.0
 40
0.0
 40
0.0
 40
0.0
 40
0.4999399336
 40
1.0
 40
1.0
 40
1.0
 40
1.0
 10
61.7185674108
 20
87.3620852053
 30
0.0
 10
61.7080599829
 20
87.3433384163
 30
0.0
 10
61.6756319328
 20
87.3115892963
 30
0.0
 10
61.6320340624
 20
87.3
 30
0.0
 10
61.610538246
 20
87.3
 30
0.0
  0
SPLINE
  5
3C7
100
AcDbEntity
  8
0
100
AcDbSpline
 62
7
  6
CONTINUOUS
 70
0
 71
3
 72
8
 73
4
 74
0
 42
0.0000001
 43
0.0000001
 44
0.0000000001
 40
0.0
 40
0.0
 40
0.0
 40
0.0
 40
1.0
 40
1.0
 40
1.0
 40
1.0
 10
61.734543014
 20
86.9479113035
 30
0.0
 10
61.734543014
 20
86.9693479163
 30
0.0
 10
61.7299688826
 20
86.9916016712
 30
0.0
 10
61.7199183742
 20
87.0105361807
 30
0.0
  0
SPLINE
  5
3C8
100
AcDbEntity
  8
0
100
AcDbSpline
 62
7
  6
CONTINUOUS
 70
0
 71
3
 72
9
 73
5
 74
0
 42
0.0000001
 43
0.0000001
 44
0.0000000001
 40
0.0
 40
0.0
 40
0.0
 40
0.0
 40
0.500182216
 40
1.0
 40
1.0
 40
1.0
 40
1.0
 10
61.7199183742
 20
87.0105361807
 30
0.0
 10
61.7096308838
 20
87.0299171489
 30
0.0
 10
61.6769838305
 20
87.0629317545
 30
0.0
 10
61.6324643279
 20
87.075
 30
0.0
 10
61.610538246
 20
87.075
 30
0.0
  0
SPLINE
  5
3C9
100
AcDbEntity
  8
0
100
AcDbSpline
 62
7
  6
CONTINUOUS
 70
0
 71
3
 72
8
 73
4
 74
0
 42
0.0000001
 43
0.0000001
 44
0.0000000001
 40
0.0
 40
0.0
 40
0.0
 40
0.0
 40
1.0
 40
1.0
 40
1.0
 40
1.0
 10
61.7345084766
 20
86.9263556549
 30
0.0
 10
61.7345084766
 20
86.9042830266
 30
0.0
 10
61.7293593842
 20
86.8813396653
 30
0.0
 10
61.7185674108
 20
86.8620852053
 30
0.0
  0
SPLINE
  5
3CA
100
AcDbEntity
  8
0
100
AcDbSpline
 62
7
  6
CONTINUOUS
 70
0
 71
3
 72
9
 73
5
 74
0
 42
0.0000001
 43
0.0000001
 44
0.0000000001
 40
0.0
 40
0.0
 40
0.0
 40
0.0
 40
0.4999399336
 40
1.0
 40
1.0
 40
1.0
 40
1.0
 10
61.7185674108
 20
86.8620852053
 30
0.0
 10
61.7080599829
 20
86.8433384163
 30
0.0
 10
61.6756319328
 20
86.8115892963
 30
0.0
 10
61.6320340624
 20
86.8
 30
0.0
 10
61.610538246
 20
86.8
 30
0.0
  0
SPLINE
  5
3CB
100
AcDbEntity
  8
0
100
AcDbSpline
 62
7
  6
CONTINUOUS
 70
0
 71
3
 72
8
 73
4
 74
0
 42
0.0000001
 43
0.0000001
 44
0.0000000001
 40
0.0
 40
0.0
 40
0.0
 40
0.0
 40
1.0
 40
1.0
 40
1.0
 40
1.0
 10
61.734543014
 20
86.4479113035
 30
0.0
 10
61.734543014
 20
86.4693479163
 30
0.0
 10
61.7299688826
 20
86.4916016712
 30
0.0
 10
61.7199183742
 20
86.5105361807
 30
0.0
  0
SPLINE
  5
3CC
100
AcDbEntity
  8
0
100
AcDbSpline
 62
7
  6
CONTINUOUS
 70
0
 71
3
 72
9
 73
5
 74
0
 42
0.0000001
 43
0.0000001
 44
0.0000000001
 40
0.0
 40
0.0
 40
0.0
 40
0.0
 40
0.500182216
 40
1.0
 40
1.0
 40
1.0
 40
1.0
 10
61.7199183742
 20
86.5105361807
 30
0.0
 10
61.7096308838
 20
86.5299171489
 30
0.0
 10
61.6769838305
 20
86.5629317545
 30
0.0
 10
61.6324643279
 20
86.575
 30
0.0
 10
61.610538246
 20
86.575
 30
0.0
  0
SPLINE
  5
3CD
100
AcDbEntity
  8
0
100
AcDbSpline
 62
7
  6
CONTINUOUS
 70
0
 71
3
 72
8
 73
4
 74
0
 42
0.0000001
 43
0.0000001
 44
0.0000000001
 40
0.0
 40
0.0
 40
0.0
 40
0.0
 40
1.0
 40
1.0
 40
1.0
 40
1.0
 10
61.7345084766
 20
86.4263556549
 30
0.0
 10
61.7345084766
 20
86.4042830266
 30
0.0
 10
61.7293593842
 20
86.3813396653
 30
0.0
 10
61.7185674108
 20
86.3620852053
 30
0.0
  0
SPLINE
  5
3CE
100
AcDbEntity
  8
0
100
AcDbSpline
 62
7
  6
CONTINUOUS
 70
0
 71
3
 72
9
 73
5
 74
0
 42
0.0000001
 43
0.0000001
 44
0.0000000001
 40
0.0
 40
0.0
 40
0.0
 40
0.0
 40
0.4999399336
 40
1.0
 40
1.0
 40
1.0
 40
1.0
 10
61.7185674108
 20
86.3620852053
 30
0.0
 10
61.7080599829
 20
86.3433384163
 30
0.0
 10
61.6756319328
 20
86.3115892963
 30
0.0
 10
61.6320340624
 20
86.3
 30
0.0
 10
61.610538246
 20
86.3
 30
0.0
  0
SPLINE
  5
3CF
100
AcDbEntity
  8
0
100
AcDbSpline
 62
7
  6
CONTINUOUS
 70
0
 71
3
 72
8
 73
4
 74
0
 42
0.0000001
 43
0.0000001
 44
0.0000000001
 40
0.0
 40
0.0
 40
0.0
 40
0.0
 40
1.0
 40
1.0
 40
1.0
 40
1.0
 10
61.734543014
 20
85.9479113035
 30
0.0
 10
61.734543014
 20
85.9693479163
 30
0.0
 10
61.7299688826
 20
85.9916016712
 30
0.0
 10
61.7199183742
 20
86.0105361807
 30
0.0
  0
SPLINE
  5
3D0
100
AcDbEntity
  8
0
100
AcDbSpline
 62
7
  6
CONTINUOUS
 70
0
 71
3
 72
9
 73
5
 74
0
 42
0.0000001
 43
0.0000001
 44
0.0000000001
 40
0.0
 40
0.0
 40
0.0
 40
0.0
 40
0.500182216
 40
1.0
 40
1.0
 40
1.0
 40
1.0
 10
61.7199183742
 20
86.0105361807
 30
0.0
 10
61.7096308838
 20
86.0299171489
 30
0.0
 10
61.6769838305
 20
86.0629317545
 30
0.0
 10
61.6324643279
 20
86.075
 30
0.0
 10
61.610538246
 20
86.075
 30
0.0
  0
SPLINE
  5
3D1
100
AcDbEntity
  8
0
100
AcDbSpline
 62
7
  6
CONTINUOUS
 70
0
 71
3
 72
8
 73
4
 74
0
 42
0.0000001
 43
0.0000001
 44
0.0000000001
 40
0.0
 40
0.0
 40
0.0
 40
0.0
 40
1.0
 40
1.0
 40
1.0
 40
1.0
 10
61.7345084766
 20
85.9263556549
 30
0.0
 10
61.7345084766
 20
85.9042830266
 30
0.0
 10
61.7293593842
 20
85.8813396653
 30
0.0
 10
61.7185674108
 20
85.8620852053
 30
0.0
  0
SPLINE
  5
3D2
100
AcDbEntity
  8
0
100
AcDbSpline
 62
7
  6
CONTINUOUS
 70
0
 71
3
 72
9
 73
5
 74
0
 42
0.0000001
 43
0.0000001
 44
0.0000000001
 40
0.0
 40
0.0
 40
0.0
 40
0.0
 40
0.4999399336
 40
1.0
 40
1.0
 40
1.0
 40
1.0
 10
61.7185674108
 20
85.8620852053
 30
0.0
 10
61.7080599829
 20
85.8433384163
 30
0.0
 10
61.6756319328
 20
85.8115892963
 30
0.0
 10
61.6320340624
 20
85.8
 30
0.0
 10
61.610538246
 20
85.8
 30
0.0
  0
SPLINE
  5
3D3
100
AcDbEntity
  8
0
100
AcDbSpline
 62
7
  6
CONTINUOUS
 70
0
 71
3
 72
8
 73
4
 74
0
 42
0.0000001
 43
0.0000001
 44
0.0000000001
 40
0.0
 40
0.0
 40
0.0
 40
0.0
 40
1.0
 40
1.0
 40
1.0
 40
1.0
 10
61.734543014
 20
85.4479113035
 30
0.0
 10
61.734543014
 20
85.4693479163
 30
0.0
 10
61.7299688826
 20
85.4916016712
 30
0.0
 10
61.7199183742
 20
85.5105361807
 30
0.0
  0
SPLINE
  5
3D4
100
AcDbEntity
  8
0
100
AcDbSpline
 62
7
  6
CONTINUOUS
 70
0
 71
3
 72
9
 73
5
 74
0
 42
0.0000001
 43
0.0000001
 44
0.0000000001
 40
0.0
 40
0.0
 40
0.0
 40
0.0
 40
0.500182216
 40
1.0
 40
1.0
 40
1.0
 40
1.0
 10
61.7199183742
 20
85.5105361807
 30
0.0
 10
61.7096308838
 20
85.5299171489
 30
0.0
 10
61.6769838305
 20
85.5629317545
 30
0.0
 10
61.6324643279
 20
85.575
 30
0.0
 10
61.610538246
 20
85.575
 30
0.0
  0
SPLINE
  5
3D5
100
AcDbEntity
  8
0
100
AcDbSpline
 62
7
  6
CONTINUOUS
 70
0
 71
3
 72
8
 73
4
 74
0
 42
0.0000001
 43
0.0000001
 44
0.0000000001
 40
0.0
 40
0.0
 40
0.0
 40
0.0
 40
1.0
 40
1.0
 40
1.0
 40
1.0
 10
61.7345084766
 20
85.4263556549
 30
0.0
 10
61.7345084766
 20
85.4042830266
 30
0.0
 10
61.7293593842
 20
85.3813396653
 30
0.0
 10
61.7185674108
 20
85.3620852053
 30
0.0
  0
SPLINE
  5
3D6
100
AcDbEntity
  8
0
100
AcDbSpline
 62
7
  6
CONTINUOUS
 70
0
 71
3
 72
9
 73
5
 74
0
 42
0.0000001
 43
0.0000001
 44
0.0000000001
 40
0.0
 40
0.0
 40
0.0
 40
0.0
 40
0.4999399336
 40
1.0
 40
1.0
 40
1.0
 40
1.0
 10
61.7185674108
 20
85.3620852053
 30
0.0
 10
61.7080599829
 20
85.3433384163
 30
0.0
 10
61.6756319328
 20
85.3115892963
 30
0.0
 10
61.6320340624
 20
85.3
 30
0.0
 10
61.610538246
 20
85.3
 30
0.0
  0
SPLINE
  5
3D7
100
AcDbEntity
  8
0
100
AcDbSpline
 62
7
  6
CONTINUOUS
 70
0
 71
3
 72
8
 73
4
 74
0
 42
0.0000001
 43
0.0000001
 44
0.0000000001
 40
0.0
 40
0.0
 40
0.0
 40
0.0
 40
1.0
 40
1.0
 40
1.0
 40
1.0
 10
61.734543014
 20
84.9479113035
 30
0.0
 10
61.734543014
 20
84.9693479163
 30
0.0
 10
61.7299688826
 20
84.9916016712
 30
0.0
 10
61.7199183742
 20
85.0105361807
 30
0.0
  0
SPLINE
  5
3D8
100
AcDbEntity
  8
0
100
AcDbSpline
 62
7
  6
CONTINUOUS
 70
0
 71
3
 72
9
 73
5
 74
0
 42
0.0000001
 43
0.0000001
 44
0.0000000001
 40
0.0
 40
0.0
 40
0.0
 40
0.0
 40
0.500182216
 40
1.0
 40
1.0
 40
1.0
 40
1.0
 10
61.7199183742
 20
85.0105361807
 30
0.0
 10
61.7096308838
 20
85.0299171489
 30
0.0
 10
61.6769838305
 20
85.0629317545
 30
0.0
 10
61.6324643279
 20
85.075
 30
0.0
 10
61.610538246
 20
85.075
 30
0.0
  0
SPLINE
  5
3D9
100
AcDbEntity
  8
0
100
AcDbSpline
 62
7
  6
CONTINUOUS
 70
0
 71
3
 72
8
 73
4
 74
0
 42
0.0000001
 43
0.0000001
 44
0.0000000001
 40
0.0
 40
0.0
 40
0.0
 40
0.0
 40
1.0
 40
1.0
 40
1.0
 40
1.0
 10
61.7345084766
 20
84.9263556549
 30
0.0
 10
61.7345084766
 20
84.9042830266
 30
0.0
 10
61.7293593842
 20
84.8813396653
 30
0.0
 10
61.7185674108
 20
84.8620852053
 30
0.0
  0
SPLINE
  5
3DA
100
AcDbEntity
  8
0
100
AcDbSpline
 62
7
  6
CONTINUOUS
 70
0
 71
3
 72
9
 73
5
 74
0
 42
0.0000001
 43
0.0000001
 44
0.0000000001
 40
0.0
 40
0.0
 40
0.0
 40
0.0
 40
0.4999399336
 40
1.0
 40
1.0
 40
1.0
 40
1.0
 10
61.7185674108
 20
84.8620852053
 30
0.0
 10
61.7080599829
 20
84.8433384163
 30
0.0
 10
61.6756319328
 20
84.8115892963
 30
0.0
 10
61.6320340624
 20
84.8
 30
0.0
 10
61.610538246
 20
84.8
 30
0.0
  0
SPLINE
  5
3DB
100
AcDbEntity
  8
0
100
AcDbSpline
 62
7
  6
CONTINUOUS
 70
0
 71
3
 72
8
 73
4
 74
0
 42
0.0000001
 43
0.0000001
 44
0.0000000001
 40
0.0
 40
0.0
 40
0.0
 40
0.0
 40
1.0
 40
1.0
 40
1.0
 40
1.0
 10
61.734543014
 20
84.4479113035
 30
0.0
 10
61.734543014
 20
84.4693479163
 30
0.0
 10
61.7299688826
 20
84.4916016712
 30
0.0
 10
61.7199183742
 20
84.5105361807
 30
0.0
  0
SPLINE
  5
3DC
100
AcDbEntity
  8
0
100
AcDbSpline
 62
7
  6
CONTINUOUS
 70
0
 71
3
 72
9
 73
5
 74
0
 42
0.0000001
 43
0.0000001
 44
0.0000000001
 40
0.0
 40
0.0
 40
0.0
 40
0.0
 40
0.500182216
 40
1.0
 40
1.0
 40
1.0
 40
1.0
 10
61.7199183742
 20
84.5105361807
 30
0.0
 10
61.7096308838
 20
84.5299171489
 30
0.0
 10
61.6769838305
 20
84.5629317545
 30
0.0
 10
61.6324643279
 20
84.575
 30
0.0
 10
61.610538246
 20
84.575
 30
0.0
  0
SPLINE
  5
3DD
100
AcDbEntity
  8
0
100
AcDbSpline
 62
7
  6
CONTINUOUS
 70
0
 71
3
 72
8
 73
4
 74
0
 42
0.0000001
 43
0.0000001
 44
0.0000000001
 40
0.0
 40
0.0
 40
0.0
 40
0.0
 40
1.0
 40
1.0
 40
1.0
 40
1.0
 10
61.7345084766
 20
84.4263556549
 30
0.0
 10
61.7345084766
 20
84.4042830266
 30
0.0
 10
61.7293593842
 20
84.3813396653
 30
0.0
 10
61.7185674108
 20
84.3620852053
 30
0.0
  0
SPLINE
  5
3DE
100
AcDbEntity
  8
0
100
AcDbSpline
 62
7
  6
CONTINUOUS
 70
0
 71
3
 72
9
 73
5
 74
0
 42
0.0000001
 43
0.0000001
 44
0.0000000001
 40
0.0
 40
0.0
 40
0.0
 40
0.0
 40
0.4999399336
 40
1.0
 40
1.0
 40
1.0
 40
1.0
 10
61.7185674108
 20
84.3620852053
 30
0.0
 10
61.7080599829
 20
84.3433384163
 30
0.0
 10
61.6756319328
 20
84.3115892963
 30
0.0
 10
61.6320340624
 20
84.3
 30
0.0
 10
61.610538246
 20
84.3
 30
0.0
  0
SPLINE
  5
3DF
100
AcDbEntity
  8
0
100
AcDbSpline
 62
7
  6
CONTINUOUS
 70
0
 71
3
 72
8
 73
4
 74
0
 42
0.0000001
 43
0.0000001
 44
0.0000000001
 40
0.0
 40
0.0
 40
0.0
 40
0.0
 40
1.0
 40
1.0
 40
1.0
 40
1.0
 10
61.734543014
 20
83.9479113035
 30
0.0
 10
61.734543014
 20
83.9693479163
 30
0.0
 10
61.7299688826
 20
83.9916016712
 30
0.0
 10
61.7199183742
 20
84.0105361807
 30
0.0
  0
SPLINE
  5
3E0
100
AcDbEntity
  8
0
100
AcDbSpline
 62
7
  6
CONTINUOUS
 70
0
 71
3
 72
9
 73
5
 74
0
 42
0.0000001
 43
0.0000001
 44
0.0000000001
 40
0.0
 40
0.0
 40
0.0
 40
0.0
 40
0.500182216
 40
1.0
 40
1.0
 40
1.0
 40
1.0
 10
61.7199183742
 20
84.0105361807
 30
0.0
 10
61.7096308838
 20
84.0299171489
 30
0.0
 10
61.6769838305
 20
84.0629317545
 30
0.0
 10
61.6324643279
 20
84.075
 30
0.0
 10
61.610538246
 20
84.075
 30
0.0
  0
SPLINE
  5
3E1
100
AcDbEntity
  8
0
100
AcDbSpline
 62
7
  6
CONTINUOUS
 70
0
 71
3
 72
8
 73
4
 74
0
 42
0.0000001
 43
0.0000001
 44
0.0000000001
 40
0.0
 40
0.0
 40
0.0
 40
0.0
 40
1.0
 40
1.0
 40
1.0
 40
1.0
 10
61.7345084766
 20
83.9263556549
 30
0.0
 10
61.7345084766
 20
83.9042830266
 30
0.0
 10
61.7293593842
 20
83.8813396653
 30
0.0
 10
61.7185674108
 20
83.8620852053
 30
0.0
  0
SPLINE
  5
3E2
100
AcDbEntity
  8
0
100
AcDbSpline
 62
7
  6
CONTINUOUS
 70
0
 71
3
 72
9
 73
5
 74
0
 42
0.0000001
 43
0.0000001
 44
0.0000000001
 40
0.0
 40
0.0
 40
0.0
 40
0.0
 40
0.4999399336
 40
1.0
 40
1.0
 40
1.0
 40
1.0
 10
61.7185674108
 20
83.8620852053
 30
0.0
 10
61.7080599829
 20
83.8433384163
 30
0.0
 10
61.6756319328
 20
83.8115892963
 30
0.0
 10
61.6320340624
 20
83.8
 30
0.0
 10
61.610538246
 20
83.8
 30
0.0
  0
SPLINE
  5
3E3
100
AcDbEntity
  8
0
100
AcDbSpline
 62
7
  6
CONTINUOUS
 70
0
 71
3
 72
8
 73
4
 74
0
 42
0.0000001
 43
0.0000001
 44
0.0000000001
 40
0.0
 40
0.0
 40
0.0
 40
0.0
 40
1.0
 40
1.0
 40
1.0
 40
1.0
 10
61.734543014
 20
83.4479113035
 30
0.0
 10
61.734543014
 20
83.4693479163
 30
0.0
 10
61.7299688826
 20
83.4916016712
 30
0.0
 10
61.7199183742
 20
83.5105361807
 30
0.0
  0
SPLINE
  5
3E4
100
AcDbEntity
  8
0
100
AcDbSpline
 62
7
  6
CONTINUOUS
 70
0
 71
3
 72
9
 73
5
 74
0
 42
0.0000001
 43
0.0000001
 44
0.0000000001
 40
0.0
 40
0.0
 40
0.0
 40
0.0
 40
0.500182216
 40
1.0
 40
1.0
 40
1.0
 40
1.0
 10
61.7199183742
 20
83.5105361807
 30
0.0
 10
61.7096308838
 20
83.5299171489
 30
0.0
 10
61.6769838305
 20
83.5629317545
 30
0.0
 10
61.6324643279
 20
83.575
 30
0.0
 10
61.610538246
 20
83.575
 30
0.0
  0
SPLINE
  5
3E5
100
AcDbEntity
  8
0
100
AcDbSpline
 62
7
  6
CONTINUOUS
 70
0
 71
3
 72
8
 73
4
 74
0
 42
0.0000001
 43
0.0000001
 44
0.0000000001
 40
0.0
 40
0.0
 40
0.0
 40
0.0
 40
1.0
 40
1.0
 40
1.0
 40
1.0
 10
61.7345084766
 20
83.4263556549
 30
0.0
 10
61.7345084766
 20
83.4042830266
 30
0.0
 10
61.7293593842
 20
83.3813396653
 30
0.0
 10
61.7185674108
 20
83.3620852053
 30
0.0
  0
SPLINE
  5
3E6
100
AcDbEntity
  8
0
100
AcDbSpline
 62
7
  6
CONTINUOUS
 70
0
 71
3
 72
9
 73
5
 74
0
 42
0.0000001
 43
0.0000001
 44
0.0000000001
 40
0.0
 40
0.0
 40
0.0
 40
0.0
 40
0.4999399336
 40
1.0
 40
1.0
 40
1.0
 40
1.0
 10
61.7185674108
 20
83.3620852053
 30
0.0
 10
61.7080599829
 20
83.3433384163
 30
0.0
 10
61.6756319328
 20
83.3115892963
 30
0.0
 10
61.6320340624
 20
83.3
 30
0.0
 10
61.610538246
 20
83.3
 30
0.0
  0
SPLINE
  5
3E7
100
AcDbEntity
  8
0
100
AcDbSpline
 62
7
  6
CONTINUOUS
 70
0
 71
3
 72
8
 73
4
 74
0
 42
0.0000001
 43
0.0000001
 44
0.0000000001
 40
0.0
 40
0.0
 40
0.0
 40
0.0
 40
1.0
 40
1.0
 40
1.0
 40
1.0
 10
61.734543014
 20
82.9479113035
 30
0.0
 10
61.734543014
 20
82.9693479163
 30
0.0
 10
61.7299688826
 20
82.9916016712
 30
0.0
 10
61.7199183742
 20
83.0105361807
 30
0.0
  0
SPLINE
  5
3E8
100
AcDbEntity
  8
0
100
AcDbSpline
 62
7
  6
CONTINUOUS
 70
0
 71
3
 72
9
 73
5
 74
0
 42
0.0000001
 43
0.0000001
 44
0.0000000001
 40
0.0
 40
0.0
 40
0.0
 40
0.0
 40
0.500182216
 40
1.0
 40
1.0
 40
1.0
 40
1.0
 10
61.7199183742
 20
83.0105361807
 30
0.0
 10
61.7096308838
 20
83.0299171489
 30
0.0
 10
61.6769838305
 20
83.0629317545
 30
0.0
 10
61.6324643279
 20
83.075
 30
0.0
 10
61.610538246
 20
83.075
 30
0.0
  0
SPLINE
  5
3E9
100
AcDbEntity
  8
0
100
AcDbSpline
 62
7
  6
CONTINUOUS
 70
0
 71
3
 72
8
 73
4
 74
0
 42
0.0000001
 43
0.0000001
 44
0.0000000001
 40
0.0
 40
0.0
 40
0.0
 40
0.0
 40
1.0
 40
1.0
 40
1.0
 40
1.0
 10
61.7345084766
 20
82.9263556549
 30
0.0
 10
61.7345084766
 20
82.9042830266
 30
0.0
 10
61.7293593842
 20
82.8813396653
 30
0.0
 10
61.7185674108
 20
82.8620852053
 30
0.0
  0
SPLINE
  5
3EA
100
AcDbEntity
  8
0
100
AcDbSpline
 62
7
  6
CONTINUOUS
 70
0
 71
3
 72
9
 73
5
 74
0
 42
0.0000001
 43
0.0000001
 44
0.0000000001
 40
0.0
 40
0.0
 40
0.0
 40
0.0
 40
0.4999399336
 40
1.0
 40
1.0
 40
1.0
 40
1.0
 10
61.7185674108
 20
82.8620852053
 30
0.0
 10
61.7080599829
 20
82.8433384163
 30
0.0
 10
61.6756319328
 20
82.8115892963
 30
0.0
 10
61.6320340624
 20
82.8
 30
0.0
 10
61.610538246
 20
82.8
 30
0.0
  0
SPLINE
  5
3EB
100
AcDbEntity
  8
0
100
AcDbSpline
 62
7
  6
CONTINUOUS
 70
0
 71
3
 72
8
 73
4
 74
0
 42
0.0000001
 43
0.0000001
 44
0.0000000001
 40
0.0
 40
0.0
 40
0.0
 40
0.0
 40
1.0
 40
1.0
 40
1.0
 40
1.0
 10
61.734543014
 20
82.4479113035
 30
0.0
 10
61.734543014
 20
82.4693479163
 30
0.0
 10
61.7299688826
 20
82.4916016712
 30
0.0
 10
61.7199183742
 20
82.5105361807
 30
0.0
  0
SPLINE
  5
3EC
100
AcDbEntity
  8
0
100
AcDbSpline
 62
7
  6
CONTINUOUS
 70
0
 71
3
 72
9
 73
5
 74
0
 42
0.0000001
 43
0.0000001
 44
0.0000000001
 40
0.0
 40
0.0
 40
0.0
 40
0.0
 40
0.500182216
 40
1.0
 40
1.0
 40
1.0
 40
1.0
 10
61.7199183742
 20
82.5105361807
 30
0.0
 10
61.7096308838
 20
82.5299171489
 30
0.0
 10
61.6769838305
 20
82.5629317545
 30
0.0
 10
61.6324643279
 20
82.575
 30
0.0
 10
61.610538246
 20
82.575
 30
0.0
  0
SPLINE
  5
3ED
100
AcDbEntity
  8
0
100
AcDbSpline
 62
7
  6
CONTINUOUS
 70
0
 71
3
 72
8
 73
4
 74
0
 42
0.0000001
 43
0.0000001
 44
0.0000000001
 40
0.0
 40
0.0
 40
0.0
 40
0.0
 40
1.0
 40
1.0
 40
1.0
 40
1.0
 10
61.7345084766
 20
82.4263556549
 30
0.0
 10
61.7345084766
 20
82.4042830266
 30
0.0
 10
61.7293593842
 20
82.3813396653
 30
0.0
 10
61.7185674108
 20
82.3620852053
 30
0.0
  0
SPLINE
  5
3EE
100
AcDbEntity
  8
0
100
AcDbSpline
 62
7
  6
CONTINUOUS
 70
0
 71
3
 72
9
 73
5
 74
0
 42
0.0000001
 43
0.0000001
 44
0.0000000001
 40
0.0
 40
0.0
 40
0.0
 40
0.0
 40
0.4999399336
 40
1.0
 40
1.0
 40
1.0
 40
1.0
 10
61.7185674108
 20
82.3620852053
 30
0.0
 10
61.7080599829
 20
82.3433384163
 30
0.0
 10
61.6756319328
 20
82.3115892963
 30
0.0
 10
61.6320340624
 20
82.3
 30
0.0
 10
61.610538246
 20
82.3
 30
0.0
  0
SPLINE
  5
3EF
100
AcDbEntity
  8
0
100
AcDbSpline
 62
7
  6
CONTINUOUS
 70
0
 71
3
 72
8
 73
4
 74
0
 42
0.0000001
 43
0.0000001
 44
0.0000000001
 40
0.0
 40
0.0
 40
0.0
 40
0.0
 40
1.0
 40
1.0
 40
1.0
 40
1.0
 10
61.734543014
 20
81.9479113035
 30
0.0
 10
61.734543014
 20
81.9693479163
 30
0.0
 10
61.7299688826
 20
81.9916016712
 30
0.0
 10
61.7199183742
 20
82.0105361807
 30
0.0
  0
SPLINE
  5
3F0
100
AcDbEntity
  8
0
100
AcDbSpline
 62
7
  6
CONTINUOUS
 70
0
 71
3
 72
9
 73
5
 74
0
 42
0.0000001
 43
0.0000001
 44
0.0000000001
 40
0.0
 40
0.0
 40
0.0
 40
0.0
 40
0.500182216
 40
1.0
 40
1.0
 40
1.0
 40
1.0
 10
61.7199183742
 20
82.0105361807
 30
0.0
 10
61.7096308838
 20
82.0299171489
 30
0.0
 10
61.6769838305
 20
82.0629317545
 30
0.0
 10
61.6324643279
 20
82.075
 30
0.0
 10
61.610538246
 20
82.075
 30
0.0
  0
SPLINE
  5
3F1
100
AcDbEntity
  8
0
100
AcDbSpline
 62
7
  6
CONTINUOUS
 70
0
 71
3
 72
8
 73
4
 74
0
 42
0.0000001
 43
0.0000001
 44
0.0000000001
 40
0.0
 40
0.0
 40
0.0
 40
0.0
 40
1.0
 40
1.0
 40
1.0
 40
1.0
 10
61.7345084766
 20
81.9263556549
 30
0.0
 10
61.7345084766
 20
81.9042830266
 30
0.0
 10
61.7293593842
 20
81.8813396653
 30
0.0
 10
61.7185674108
 20
81.8620852053
 30
0.0
  0
SPLINE
  5
3F2
100
AcDbEntity
  8
0
100
AcDbSpline
 62
7
  6
CONTINUOUS
 70
0
 71
3
 72
9
 73
5
 74
0
 42
0.0000001
 43
0.0000001
 44
0.0000000001
 40
0.0
 40
0.0
 40
0.0
 40
0.0
 40
0.4999399336
 40
1.0
 40
1.0
 40
1.0
 40
1.0
 10
61.7185674108
 20
81.8620852053
 30
0.0
 10
61.7080599829
 20
81.8433384163
 30
0.0
 10
61.6756319328
 20
81.8115892963
 30
0.0
 10
61.6320340624
 20
81.8
 30
0.0
 10
61.610538246
 20
81.8
 30
0.0
  0
SPLINE
  5
3F3
100
AcDbEntity
  8
0
100
AcDbSpline
 62
7
  6
CONTINUOUS
 70
0
 71
3
 72
8
 73
4
 74
0
 42
0.0000001
 43
0.0000001
 44
0.0000000001
 40
0.0
 40
0.0
 40
0.0
 40
0.0
 40
1.0
 40
1.0
 40
1.0
 40
1.0
 10
61.734543014
 20
81.4479113035
 30
0.0
 10
61.734543014
 20
81.4693479163
 30
0.0
 10
61.7299688826
 20
81.4916016712
 30
0.0
 10
61.7199183742
 20
81.5105361807
 30
0.0
  0
SPLINE
  5
3F4
100
AcDbEntity
  8
0
100
AcDbSpline
 62
7
  6
CONTINUOUS
 70
0
 71
3
 72
9
 73
5
 74
0
 42
0.0000001
 43
0.0000001
 44
0.0000000001
 40
0.0
 40
0.0
 40
0.0
 40
0.0
 40
0.500182216
 40
1.0
 40
1.0
 40
1.0
 40
1.0
 10
61.7199183742
 20
81.5105361807
 30
0.0
 10
61.7096308838
 20
81.5299171489
 30
0.0
 10
61.6769838305
 20
81.5629317545
 30
0.0
 10
61.6324643279
 20
81.575
 30
0.0
 10
61.610538246
 20
81.575
 30
0.0
  0
SPLINE
  5
3F5
100
AcDbEntity
  8
0
100
AcDbSpline
 62
7
  6
CONTINUOUS
 70
0
 71
3
 72
8
 73
4
 74
0
 42
0.0000001
 43
0.0000001
 44
0.0000000001
 40
0.0
 40
0.0
 40
0.0
 40
0.0
 40
1.0
 40
1.0
 40
1.0
 40
1.0
 10
61.7345084766
 20
81.4263556549
 30
0.0
 10
61.7345084766
 20
81.4042830266
 30
0.0
 10
61.7293593842
 20
81.3813396653
 30
0.0
 10
61.7185674108
 20
81.3620852053
 30
0.0
  0
SPLINE
  5
3F6
100
AcDbEntity
  8
0
100
AcDbSpline
 62
7
  6
CONTINUOUS
 70
0
 71
3
 72
9
 73
5
 74
0
 42
0.0000001
 43
0.0000001
 44
0.0000000001
 40
0.0
 40
0.0
 40
0.0
 40
0.0
 40
0.4999399336
 40
1.0
 40
1.0
 40
1.0
 40
1.0
 10
61.7185674108
 20
81.3620852053
 30
0.0
 10
61.7080599829
 20
81.3433384163
 30
0.0
 10
61.6756319328
 20
81.3115892963
 30
0.0
 10
61.6320340624
 20
81.3
 30
0.0
 10
61.610538246
 20
81.3
 30
0.0
  0
SPLINE
  5
3F7
100
AcDbEntity
  8
0
100
AcDbSpline
 62
7
  6
CONTINUOUS
 70
0
 71
3
 72
8
 73
4
 74
0
 42
0.0000001
 43
0.0000001
 44
0.0000000001
 40
0.0
 40
0.0
 40
0.0
 40
0.0
 40
1.0
 40
1.0
 40
1.0
 40
1.0
 10
61.734543014
 20
80.9479113035
 30
0.0
 10
61.734543014
 20
80.9693479163
 30
0.0
 10
61.7299688826
 20
80.9916016712
 30
0.0
 10
61.7199183742
 20
81.0105361807
 30
0.0
  0
SPLINE
  5
3F8
100
AcDbEntity
  8
0
100
AcDbSpline
 62
7
  6
CONTINUOUS
 70
0
 71
3
 72
9
 73
5
 74
0
 42
0.0000001
 43
0.0000001
 44
0.0000000001
 40
0.0
 40
0.0
 40
0.0
 40
0.0
 40
0.500182216
 40
1.0
 40
1.0
 40
1.0
 40
1.0
 10
61.7199183742
 20
81.0105361807
 30
0.0
 10
61.7096308838
 20
81.0299171489
 30
0.0
 10
61.6769838305
 20
81.0629317545
 30
0.0
 10
61.6324643279
 20
81.075
 30
0.0
 10
61.610538246
 20
81.075
 30
0.0
  0
SPLINE
  5
3F9
100
AcDbEntity
  8
0
100
AcDbSpline
 62
7
  6
CONTINUOUS
 70
0
 71
3
 72
8
 73
4
 74
0
 42
0.0000001
 43
0.0000001
 44
0.0000000001
 40
0.0
 40
0.0
 40
0.0
 40
0.0
 40
1.0
 40
1.0
 40
1.0
 40
1.0
 10
61.7345084766
 20
80.9263556549
 30
0.0
 10
61.7345084766
 20
80.9042830266
 30
0.0
 10
61.7293593842
 20
80.8813396653
 30
0.0
 10
61.7185674108
 20
80.8620852053
 30
0.0
  0
SPLINE
  5
3FA
100
AcDbEntity
  8
0
100
AcDbSpline
 62
7
  6
CONTINUOUS
 70
0
 71
3
 72
9
 73
5
 74
0
 42
0.0000001
 43
0.0000001
 44
0.0000000001
 40
0.0
 40
0.0
 40
0.0
 40
0.0
 40
0.4999399336
 40
1.0
 40
1.0
 40
1.0
 40
1.0
 10
61.7185674108
 20
80.8620852053
 30
0.0
 10
61.7080599829
 20
80.8433384163
 30
0.0
 10
61.6756319328
 20
80.8115892963
 30
0.0
 10
61.6320340624
 20
80.8
 30
0.0
 10
61.610538246
 20
80.8
 30
0.0
  0
SPLINE
  5
3FB
100
AcDbEntity
  8
0
100
AcDbSpline
 62
7
  6
CONTINUOUS
 70
0
 71
3
 72
8
 73
4
 74
0
 42
0.0000001
 43
0.0000001
 44
0.0000000001
 40
0.0
 40
0.0
 40
0.0
 40
0.0
 40
1.0
 40
1.0
 40
1.0
 40
1.0
 10
61.734543014
 20
80.4479113035
 30
0.0
 10
61.734543014
 20
80.4693479163
 30
0.0
 10
61.7299688826
 20
80.4916016712
 30
0.0
 10
61.7199183742
 20
80.5105361807
 30
0.0
  0
SPLINE
  5
3FC
100
AcDbEntity
  8
0
100
AcDbSpline
 62
7
  6
CONTINUOUS
 70
0
 71
3
 72
9
 73
5
 74
0
 42
0.0000001
 43
0.0000001
 44
0.0000000001
 40
0.0
 40
0.0
 40
0.0
 40
0.0
 40
0.500182216
 40
1.0
 40
1.0
 40
1.0
 40
1.0
 10
61.7199183742
 20
80.5105361807
 30
0.0
 10
61.7096308838
 20
80.5299171489
 30
0.0
 10
61.6769838305
 20
80.5629317545
 30
0.0
 10
61.6324643279
 20
80.575
 30
0.0
 10
61.610538246
 20
80.575
 30
0.0
  0
SPLINE
  5
3FD
100
AcDbEntity
  8
0
100
AcDbSpline
 62
7
  6
CONTINUOUS
 70
0
 71
3
 72
8
 73
4
 74
0
 42
0.0000001
 43
0.0000001
 44
0.0000000001
 40
0.0
 40
0.0
 40
0.0
 40
0.0
 40
1.0
 40
1.0
 40
1.0
 40
1.0
 10
61.7345084766
 20
80.4263556549
 30
0.0
 10
61.7345084766
 20
80.4042830266
 30
0.0
 10
61.7293593842
 20
80.3813396653
 30
0.0
 10
61.7185674108
 20
80.3620852053
 30
0.0
  0
SPLINE
  5
3FE
100
AcDbEntity
  8
0
100
AcDbSpline
 62
7
  6
CONTINUOUS
 70
0
 71
3
 72
9
 73
5
 74
0
 42
0.0000001
 43
0.0000001
 44
0.0000000001
 40
0.0
 40
0.0
 40
0.0
 40
0.0
 40
0.4999399336
 40
1.0
 40
1.0
 40
1.0
 40
1.0
 10
61.7185674108
 20
80.3620852053
 30
0.0
 10
61.7080599829
 20
80.3433384163
 30
0.0
 10
61.6756319328
 20
80.3115892963
 30
0.0
 10
61.6320340624
 20
80.3
 30
0.0
 10
61.610538246
 20
80.3
 30
0.0
  0
SPLINE
  5
3FF
100
AcDbEntity
  8
0
100
AcDbSpline
 62
7
  6
CONTINUOUS
 70
0
 71
3
 72
8
 73
4
 74
0
 42
0.0000001
 43
0.0000001
 44
0.0000000001
 40
0.0
 40
0.0
 40
0.0
 40
0.0
 40
1.0
 40
1.0
 40
1.0
 40
1.0
 10
61.734543014
 20
79.9479113035
 30
0.0
 10
61.734543014
 20
79.9693479163
 30
0.0
 10
61.7299688826
 20
79.9916016712
 30
0.0
 10
61.7199183742
 20
80.0105361807
 30
0.0
  0
SPLINE
  5
400
100
AcDbEntity
  8
0
100
AcDbSpline
 62
7
  6
CONTINUOUS
 70
0
 71
3
 72
9
 73
5
 74
0
 42
0.0000001
 43
0.0000001
 44
0.0000000001
 40
0.0
 40
0.0
 40
0.0
 40
0.0
 40
0.500182216
 40
1.0
 40
1.0
 40
1.0
 40
1.0
 10
61.7199183742
 20
80.0105361807
 30
0.0
 10
61.7096308838
 20
80.0299171489
 30
0.0
 10
61.6769838305
 20
80.0629317545
 30
0.0
 10
61.6324643279
 20
80.075
 30
0.0
 10
61.610538246
 20
80.075
 30
0.0
  0
SPLINE
  5
401
100
AcDbEntity
  8
0
100
AcDbSpline
 62
7
  6
CONTINUOUS
 70
0
 71
3
 72
8
 73
4
 74
0
 42
0.0000001
 43
0.0000001
 44
0.0000000001
 40
0.0
 40
0.0
 40
0.0
 40
0.0
 40
1.0
 40
1.0
 40
1.0
 40
1.0
 10
61.7345084766
 20
79.9263556549
 30
0.0
 10
61.7345084766
 20
79.9042830266
 30
0.0
 10
61.7293593842
 20
79.8813396653
 30
0.0
 10
61.7185674108
 20
79.8620852053
 30
0.0
  0
SPLINE
  5
402
100
AcDbEntity
  8
0
100
AcDbSpline
 62
7
  6
CONTINUOUS
 70
0
 71
3
 72
9
 73
5
 74
0
 42
0.0000001
 43
0.0000001
 44
0.0000000001
 40
0.0
 40
0.0
 40
0.0
 40
0.0
 40
0.4999399336
 40
1.0
 40
1.0
 40
1.0
 40
1.0
 10
61.7185674108
 20
79.8620852053
 30
0.0
 10
61.7080599829
 20
79.8433384163
 30
0.0
 10
61.6756319328
 20
79.8115892963
 30
0.0
 10
61.6320340624
 20
79.8
 30
0.0
 10
61.610538246
 20
79.8
 30
0.0
  0
SPLINE
  5
403
100
AcDbEntity
  8
0
100
AcDbSpline
 62
7
  6
CONTINUOUS
 70
0
 71
3
 72
8
 73
4
 74
0
 42
0.0000001
 43
0.0000001
 44
0.0000000001
 40
0.0
 40
0.0
 40
0.0
 40
0.0
 40
1.0
 40
1.0
 40
1.0
 40
1.0
 10
61.734543014
 20
79.4479113035
 30
0.0
 10
61.734543014
 20
79.4693479163
 30
0.0
 10
61.7299688826
 20
79.4916016712
 30
0.0
 10
61.7199183742
 20
79.5105361807
 30
0.0
  0
SPLINE
  5
404
100
AcDbEntity
  8
0
100
AcDbSpline
 62
7
  6
CONTINUOUS
 70
0
 71
3
 72
9
 73
5
 74
0
 42
0.0000001
 43
0.0000001
 44
0.0000000001
 40
0.0
 40
0.0
 40
0.0
 40
0.0
 40
0.500182216
 40
1.0
 40
1.0
 40
1.0
 40
1.0
 10
61.7199183742
 20
79.5105361807
 30
0.0
 10
61.7096308838
 20
79.5299171489
 30
0.0
 10
61.6769838305
 20
79.5629317545
 30
0.0
 10
61.6324643279
 20
79.575
 30
0.0
 10
61.610538246
 20
79.575
 30
0.0
  0
SPLINE
  5
405
100
AcDbEntity
  8
0
100
AcDbSpline
 62
7
  6
CONTINUOUS
 70
0
 71
3
 72
8
 73
4
 74
0
 42
0.0000001
 43
0.0000001
 44
0.0000000001
 40
0.0
 40
0.0
 40
0.0
 40
0.0
 40
1.0
 40
1.0
 40
1.0
 40
1.0
 10
61.7345084766
 20
79.4263556549
 30
0.0
 10
61.7345084766
 20
79.4042830266
 30
0.0
 10
61.7293593842
 20
79.3813396653
 30
0.0
 10
61.7185674108
 20
79.3620852053
 30
0.0
  0
SPLINE
  5
406
100
AcDbEntity
  8
0
100
AcDbSpline
 62
7
  6
CONTINUOUS
 70
0
 71
3
 72
9
 73
5
 74
0
 42
0.0000001
 43
0.0000001
 44
0.0000000001
 40
0.0
 40
0.0
 40
0.0
 40
0.0
 40
0.4999399336
 40
1.0
 40
1.0
 40
1.0
 40
1.0
 10
61.7185674108
 20
79.3620852053
 30
0.0
 10
61.7080599829
 20
79.3433384163
 30
0.0
 10
61.6756319328
 20
79.3115892963
 30
0.0
 10
61.6320340624
 20
79.3
 30
0.0
 10
61.610538246
 20
79.3
 30
0.0
  0
SPLINE
  5
407
100
AcDbEntity
  8
0
100
AcDbSpline
 62
7
  6
CONTINUOUS
 70
0
 71
3
 72
8
 73
4
 74
0
 42
0.0000001
 43
0.0000001
 44
0.0000000001
 40
0.0
 40
0.0
 40
0.0
 40
0.0
 40
1.0
 40
1.0
 40
1.0
 40
1.0
 10
61.734543014
 20
78.9479113035
 30
0.0
 10
61.734543014
 20
78.9693479163
 30
0.0
 10
61.7299688826
 20
78.9916016712
 30
0.0
 10
61.7199183742
 20
79.0105361807
 30
0.0
  0
SPLINE
  5
408
100
AcDbEntity
  8
0
100
AcDbSpline
 62
7
  6
CONTINUOUS
 70
0
 71
3
 72
9
 73
5
 74
0
 42
0.0000001
 43
0.0000001
 44
0.0000000001
 40
0.0
 40
0.0
 40
0.0
 40
0.0
 40
0.500182216
 40
1.0
 40
1.0
 40
1.0
 40
1.0
 10
61.7199183742
 20
79.0105361807
 30
0.0
 10
61.7096308838
 20
79.0299171489
 30
0.0
 10
61.6769838305
 20
79.0629317545
 30
0.0
 10
61.6324643279
 20
79.075
 30
0.0
 10
61.610538246
 20
79.075
 30
0.0
  0
SPLINE
  5
409
100
AcDbEntity
  8
0
100
AcDbSpline
 62
7
  6
CONTINUOUS
 70
0
 71
3
 72
8
 73
4
 74
0
 42
0.0000001
 43
0.0000001
 44
0.0000000001
 40
0.0
 40
0.0
 40
0.0
 40
0.0
 40
1.0
 40
1.0
 40
1.0
 40
1.0
 10
61.7345084766
 20
78.9263556549
 30
0.0
 10
61.7345084766
 20
78.9042830266
 30
0.0
 10
61.7293593842
 20
78.8813396653
 30
0.0
 10
61.7185674108
 20
78.8620852053
 30
0.0
  0
SPLINE
  5
40A
100
AcDbEntity
  8
0
100
AcDbSpline
 62
7
  6
CONTINUOUS
 70
0
 71
3
 72
9
 73
5
 74
0
 42
0.0000001
 43
0.0000001
 44
0.0000000001
 40
0.0
 40
0.0
 40
0.0
 40
0.0
 40
0.4999399336
 40
1.0
 40
1.0
 40
1.0
 40
1.0
 10
61.7185674108
 20
78.8620852053
 30
0.0
 10
61.7080599829
 20
78.8433384163
 30
0.0
 10
61.6756319328
 20
78.8115892963
 30
0.0
 10
61.6320340624
 20
78.8
 30
0.0
 10
61.610538246
 20
78.8
 30
0.0
  0
SPLINE
  5
40B
100
AcDbEntity
  8
0
100
AcDbSpline
 62
7
  6
CONTINUOUS
 70
0
 71
3
 72
8
 73
4
 74
0
 42
0.0000001
 43
0.0000001
 44
0.0000000001
 40
0.0
 40
0.0
 40
0.0
 40
0.0
 40
1.0
 40
1.0
 40
1.0
 40
1.0
 10
61.734543014
 20
78.4479113035
 30
0.0
 10
61.734543014
 20
78.4693479163
 30
0.0
 10
61.7299688826
 20
78.4916016712
 30
0.0
 10
61.7199183742
 20
78.5105361807
 30
0.0
  0
SPLINE
  5
40C
100
AcDbEntity
  8
0
100
AcDbSpline
 62
7
  6
CONTINUOUS
 70
0
 71
3
 72
9
 73
5
 74
0
 42
0.0000001
 43
0.0000001
 44
0.0000000001
 40
0.0
 40
0.0
 40
0.0
 40
0.0
 40
0.500182216
 40
1.0
 40
1.0
 40
1.0
 40
1.0
 10
61.7199183742
 20
78.5105361807
 30
0.0
 10
61.7096308838
 20
78.5299171489
 30
0.0
 10
61.6769838305
 20
78.5629317545
 30
0.0
 10
61.6324643279
 20
78.575
 30
0.0
 10
61.610538246
 20
78.575
 30
0.0
  0
SPLINE
  5
40D
100
AcDbEntity
  8
0
100
AcDbSpline
 62
7
  6
CONTINUOUS
 70
0
 71
3
 72
8
 73
4
 74
0
 42
0.0000001
 43
0.0000001
 44
0.0000000001
 40
0.0
 40
0.0
 40
0.0
 40
0.0
 40
1.0
 40
1.0
 40
1.0
 40
1.0
 10
61.7345084766
 20
78.4263556549
 30
0.0
 10
61.7345084766
 20
78.4042830266
 30
0.0
 10
61.7293593842
 20
78.3813396653
 30
0.0
 10
61.7185674108
 20
78.3620852053
 30
0.0
  0
SPLINE
  5
40E
100
AcDbEntity
  8
0
100
AcDbSpline
 62
7
  6
CONTINUOUS
 70
0
 71
3
 72
9
 73
5
 74
0
 42
0.0000001
 43
0.0000001
 44
0.0000000001
 40
0.0
 40
0.0
 40
0.0
 40
0.0
 40
0.4999399336
 40
1.0
 40
1.0
 40
1.0
 40
1.0
 10
61.7185674108
 20
78.3620852053
 30
0.0
 10
61.7080599829
 20
78.3433384163
 30
0.0
 10
61.6756319328
 20
78.3115892963
 30
0.0
 10
61.6320340624
 20
78.3
 30
0.0
 10
61.610538246
 20
78.3
 30
0.0
  0
SPLINE
  5
40F
100
AcDbEntity
  8
0
100
AcDbSpline
 62
7
  6
CONTINUOUS
 70
0
 71
3
 72
8
 73
4
 74
0
 42
0.0000001
 43
0.0000001
 44
0.0000000001
 40
0.0
 40
0.0
 40
0.0
 40
0.0
 40
1.0
 40
1.0
 40
1.0
 40
1.0
 10
61.734543014
 20
77.9479113035
 30
0.0
 10
61.734543014
 20
77.9693479163
 30
0.0
 10
61.7299688826
 20
77.9916016712
 30
0.0
 10
61.7199183742
 20
78.0105361807
 30
0.0
  0
SPLINE
  5
410
100
AcDbEntity
  8
0
100
AcDbSpline
 62
7
  6
CONTINUOUS
 70
0
 71
3
 72
9
 73
5
 74
0
 42
0.0000001
 43
0.0000001
 44
0.0000000001
 40
0.0
 40
0.0
 40
0.0
 40
0.0
 40
0.500182216
 40
1.0
 40
1.0
 40
1.0
 40
1.0
 10
61.7199183742
 20
78.0105361807
 30
0.0
 10
61.7096308838
 20
78.0299171489
 30
0.0
 10
61.6769838305
 20
78.0629317545
 30
0.0
 10
61.6324643279
 20
78.075
 30
0.0
 10
61.610538246
 20
78.075
 30
0.0
  0
SPLINE
  5
411
100
AcDbEntity
  8
0
100
AcDbSpline
 62
7
  6
CONTINUOUS
 70
0
 71
3
 72
8
 73
4
 74
0
 42
0.0000001
 43
0.0000001
 44
0.0000000001
 40
0.0
 40
0.0
 40
0.0
 40
0.0
 40
1.0
 40
1.0
 40
1.0
 40
1.0
 10
61.7345084766
 20
77.9263556549
 30
0.0
 10
61.7345084766
 20
77.9042830266
 30
0.0
 10
61.7293593842
 20
77.8813396653
 30
0.0
 10
61.7185674108
 20
77.8620852053
 30
0.0
  0
SPLINE
  5
412
100
AcDbEntity
  8
0
100
AcDbSpline
 62
7
  6
CONTINUOUS
 70
0
 71
3
 72
9
 73
5
 74
0
 42
0.0000001
 43
0.0000001
 44
0.0000000001
 40
0.0
 40
0.0
 40
0.0
 40
0.0
 40
0.4999399336
 40
1.0
 40
1.0
 40
1.0
 40
1.0
 10
61.7185674108
 20
77.8620852053
 30
0.0
 10
61.7080599829
 20
77.8433384163
 30
0.0
 10
61.6756319328
 20
77.8115892963
 30
0.0
 10
61.6320340624
 20
77.8
 30
0.0
 10
61.610538246
 20
77.8
 30
0.0
  0
SPLINE
  5
413
100
AcDbEntity
  8
0
100
AcDbSpline
 62
7
  6
CONTINUOUS
 70
0
 71
3
 72
8
 73
4
 74
0
 42
0.0000001
 43
0.0000001
 44
0.0000000001
 40
0.0
 40
0.0
 40
0.0
 40
0.0
 40
1.0
 40
1.0
 40
1.0
 40
1.0
 10
61.734543014
 20
77.4479113035
 30
0.0
 10
61.734543014
 20
77.4693479163
 30
0.0
 10
61.7299688826
 20
77.4916016712
 30
0.0
 10
61.7199183742
 20
77.5105361807
 30
0.0
  0
SPLINE
  5
414
100
AcDbEntity
  8
0
100
AcDbSpline
 62
7
  6
CONTINUOUS
 70
0
 71
3
 72
9
 73
5
 74
0
 42
0.0000001
 43
0.0000001
 44
0.0000000001
 40
0.0
 40
0.0
 40
0.0
 40
0.0
 40
0.500182216
 40
1.0
 40
1.0
 40
1.0
 40
1.0
 10
61.7199183742
 20
77.5105361807
 30
0.0
 10
61.7096308838
 20
77.5299171489
 30
0.0
 10
61.6769838305
 20
77.5629317545
 30
0.0
 10
61.6324643279
 20
77.575
 30
0.0
 10
61.610538246
 20
77.575
 30
0.0
  0
SPLINE
  5
415
100
AcDbEntity
  8
0
100
AcDbSpline
 62
7
  6
CONTINUOUS
 70
0
 71
3
 72
8
 73
4
 74
0
 42
0.0000001
 43
0.0000001
 44
0.0000000001
 40
0.0
 40
0.0
 40
0.0
 40
0.0
 40
1.0
 40
1.0
 40
1.0
 40
1.0
 10
61.7345084766
 20
77.4263556549
 30
0.0
 10
61.7345084766
 20
77.4042830266
 30
0.0
 10
61.7293593842
 20
77.3813396653
 30
0.0
 10
61.7185674108
 20
77.3620852053
 30
0.0
  0
SPLINE
  5
416
100
AcDbEntity
  8
0
100
AcDbSpline
 62
7
  6
CONTINUOUS
 70
0
 71
3
 72
9
 73
5
 74
0
 42
0.0000001
 43
0.0000001
 44
0.0000000001
 40
0.0
 40
0.0
 40
0.0
 40
0.0
 40
0.4999399336
 40
1.0
 40
1.0
 40
1.0
 40
1.0
 10
61.7185674108
 20
77.3620852053
 30
0.0
 10
61.7080599829
 20
77.3433384163
 30
0.0
 10
61.6756319328
 20
77.3115892963
 30
0.0
 10
61.6320340624
 20
77.3
 30
0.0
 10
61.610538246
 20
77.3
 30
0.0
  0
SPLINE
  5
417
100
AcDbEntity
  8
0
100
AcDbSpline
 62
7
  6
CONTINUOUS
 70
0
 71
3
 72
8
 73
4
 74
0
 42
0.0000001
 43
0.0000001
 44
0.0000000001
 40
0.0
 40
0.0
 40
0.0
 40
0.0
 40
1.0
 40
1.0
 40
1.0
 40
1.0
 10
61.734543014
 20
76.9479113035
 30
0.0
 10
61.734543014
 20
76.9693479163
 30
0.0
 10
61.7299688826
 20
76.9916016712
 30
0.0
 10
61.7199183742
 20
77.0105361807
 30
0.0
  0
SPLINE
  5
418
100
AcDbEntity
  8
0
100
AcDbSpline
 62
7
  6
CONTINUOUS
 70
0
 71
3
 72
9
 73
5
 74
0
 42
0.0000001
 43
0.0000001
 44
0.0000000001
 40
0.0
 40
0.0
 40
0.0
 40
0.0
 40
0.500182216
 40
1.0
 40
1.0
 40
1.0
 40
1.0
 10
61.7199183742
 20
77.0105361807
 30
0.0
 10
61.7096308838
 20
77.0299171489
 30
0.0
 10
61.6769838305
 20
77.0629317545
 30
0.0
 10
61.6324643279
 20
77.075
 30
0.0
 10
61.610538246
 20
77.075
 30
0.0
  0
SPLINE
  5
419
100
AcDbEntity
  8
0
100
AcDbSpline
 62
7
  6
CONTINUOUS
 70
0
 71
3
 72
8
 73
4
 74
0
 42
0.0000001
 43
0.0000001
 44
0.0000000001
 40
0.0
 40
0.0
 40
0.0
 40
0.0
 40
1.0
 40
1.0
 40
1.0
 40
1.0
 10
61.7345084766
 20
76.9263556549
 30
0.0
 10
61.7345084766
 20
76.9042830266
 30
0.0
 10
61.7293593842
 20
76.8813396653
 30
0.0
 10
61.7185674108
 20
76.8620852053
 30
0.0
  0
SPLINE
  5
41A
100
AcDbEntity
  8
0
100
AcDbSpline
 62
7
  6
CONTINUOUS
 70
0
 71
3
 72
9
 73
5
 74
0
 42
0.0000001
 43
0.0000001
 44
0.0000000001
 40
0.0
 40
0.0
 40
0.0
 40
0.0
 40
0.4999399336
 40
1.0
 40
1.0
 40
1.0
 40
1.0
 10
61.7185674108
 20
76.8620852053
 30
0.0
 10
61.7080599829
 20
76.8433384163
 30
0.0
 10
61.6756319328
 20
76.8115892963
 30
0.0
 10
61.6320340624
 20
76.8
 30
0.0
 10
61.610538246
 20
76.8
 30
0.0
  0
SPLINE
  5
41B
100
AcDbEntity
  8
0
100
AcDbSpline
 62
7
  6
CONTINUOUS
 70
0
 71
3
 72
8
 73
4
 74
0
 42
0.0000001
 43
0.0000001
 44
0.0000000001
 40
0.0
 40
0.0
 40
0.0
 40
0.0
 40
1.0
 40
1.0
 40
1.0
 40
1.0
 10
61.734543014
 20
76.4479113035
 30
0.0
 10
61.734543014
 20
76.4693479163
 30
0.0
 10
61.7299688826
 20
76.4916016712
 30
0.0
 10
61.7199183742
 20
76.5105361807
 30
0.0
  0
SPLINE
  5
41C
100
AcDbEntity
  8
0
100
AcDbSpline
 62
7
  6
CONTINUOUS
 70
0
 71
3
 72
9
 73
5
 74
0
 42
0.0000001
 43
0.0000001
 44
0.0000000001
 40
0.0
 40
0.0
 40
0.0
 40
0.0
 40
0.500182216
 40
1.0
 40
1.0
 40
1.0
 40
1.0
 10
61.7199183742
 20
76.5105361807
 30
0.0
 10
61.7096308838
 20
76.5299171489
 30
0.0
 10
61.6769838305
 20
76.5629317545
 30
0.0
 10
61.6324643279
 20
76.575
 30
0.0
 10
61.610538246
 20
76.575
 30
0.0
  0
SPLINE
  5
41D
100
AcDbEntity
  8
0
100
AcDbSpline
 62
7
  6
CONTINUOUS
 70
0
 71
3
 72
8
 73
4
 74
0
 42
0.0000001
 43
0.0000001
 44
0.0000000001
 40
0.0
 40
0.0
 40
0.0
 40
0.0
 40
1.0
 40
1.0
 40
1.0
 40
1.0
 10
61.7345084766
 20
76.4263556549
 30
0.0
 10
61.7345084766
 20
76.4042830266
 30
0.0
 10
61.7293593842
 20
76.3813396653
 30
0.0
 10
61.7185674108
 20
76.3620852053
 30
0.0
  0
SPLINE
  5
41E
100
AcDbEntity
  8
0
100
AcDbSpline
 62
7
  6
CONTINUOUS
 70
0
 71
3
 72
9
 73
5
 74
0
 42
0.0000001
 43
0.0000001
 44
0.0000000001
 40
0.0
 40
0.0
 40
0.0
 40
0.0
 40
0.4999399336
 40
1.0
 40
1.0
 40
1.0
 40
1.0
 10
61.7185674108
 20
76.3620852053
 30
0.0
 10
61.7080599829
 20
76.3433384163
 30
0.0
 10
61.6756319328
 20
76.3115892963
 30
0.0
 10
61.6320340624
 20
76.3
 30
0.0
 10
61.610538246
 20
76.3
 30
0.0
  0
SPLINE
  5
41F
100
AcDbEntity
  8
0
100
AcDbSpline
 62
7
  6
CONTINUOUS
 70
0
 71
3
 72
8
 73
4
 74
0
 42
0.0000001
 43
0.0000001
 44
0.0000000001
 40
0.0
 40
0.0
 40
0.0
 40
0.0
 40
1.0
 40
1.0
 40
1.0
 40
1.0
 10
61.734543014
 20
75.9479113035
 30
0.0
 10
61.734543014
 20
75.9693479163
 30
0.0
 10
61.7299688826
 20
75.9916016712
 30
0.0
 10
61.7199183742
 20
76.0105361807
 30
0.0
  0
SPLINE
  5
420
100
AcDbEntity
  8
0
100
AcDbSpline
 62
7
  6
CONTINUOUS
 70
0
 71
3
 72
9
 73
5
 74
0
 42
0.0000001
 43
0.0000001
 44
0.0000000001
 40
0.0
 40
0.0
 40
0.0
 40
0.0
 40
0.500182216
 40
1.0
 40
1.0
 40
1.0
 40
1.0
 10
61.7199183742
 20
76.0105361807
 30
0.0
 10
61.7096308838
 20
76.0299171489
 30
0.0
 10
61.6769838305
 20
76.0629317545
 30
0.0
 10
61.6324643279
 20
76.075
 30
0.0
 10
61.610538246
 20
76.075
 30
0.0
  0
SPLINE
  5
421
100
AcDbEntity
  8
0
100
AcDbSpline
 62
7
  6
CONTINUOUS
 70
0
 71
3
 72
8
 73
4
 74
0
 42
0.0000001
 43
0.0000001
 44
0.0000000001
 40
0.0
 40
0.0
 40
0.0
 40
0.0
 40
1.0
 40
1.0
 40
1.0
 40
1.0
 10
61.7345084766
 20
75.9263556549
 30
0.0
 10
61.7345084766
 20
75.9042830266
 30
0.0
 10
61.7293593842
 20
75.8813396653
 30
0.0
 10
61.7185674108
 20
75.8620852053
 30
0.0
  0
SPLINE
  5
422
100
AcDbEntity
  8
0
100
AcDbSpline
 62
7
  6
CONTINUOUS
 70
0
 71
3
 72
9
 73
5
 74
0
 42
0.0000001
 43
0.0000001
 44
0.0000000001
 40
0.0
 40
0.0
 40
0.0
 40
0.0
 40
0.4999399336
 40
1.0
 40
1.0
 40
1.0
 40
1.0
 10
61.7185674108
 20
75.8620852053
 30
0.0
 10
61.7080599829
 20
75.8433384163
 30
0.0
 10
61.6756319328
 20
75.8115892963
 30
0.0
 10
61.6320340624
 20
75.8
 30
0.0
 10
61.610538246
 20
75.8
 30
0.0
  0
SPLINE
  5
423
100
AcDbEntity
  8
0
100
AcDbSpline
 62
7
  6
CONTINUOUS
 70
0
 71
3
 72
8
 73
4
 74
0
 42
0.0000001
 43
0.0000001
 44
0.0000000001
 40
0.0
 40
0.0
 40
0.0
 40
0.0
 40
1.0
 40
1.0
 40
1.0
 40
1.0
 10
61.734543014
 20
75.4479113035
 30
0.0
 10
61.734543014
 20
75.4693479163
 30
0.0
 10
61.7299688826
 20
75.4916016712
 30
0.0
 10
61.7199183742
 20
75.5105361807
 30
0.0
  0
SPLINE
  5
424
100
AcDbEntity
  8
0
100
AcDbSpline
 62
7
  6
CONTINUOUS
 70
0
 71
3
 72
9
 73
5
 74
0
 42
0.0000001
 43
0.0000001
 44
0.0000000001
 40
0.0
 40
0.0
 40
0.0
 40
0.0
 40
0.500182216
 40
1.0
 40
1.0
 40
1.0
 40
1.0
 10
61.7199183742
 20
75.5105361807
 30
0.0
 10
61.7096308838
 20
75.5299171489
 30
0.0
 10
61.6769838305
 20
75.5629317545
 30
0.0
 10
61.6324643279
 20
75.575
 30
0.0
 10
61.610538246
 20
75.575
 30
0.0
  0
SPLINE
  5
425
100
AcDbEntity
  8
0
100
AcDbSpline
 62
7
  6
CONTINUOUS
 70
0
 71
3
 72
8
 73
4
 74
0
 42
0.0000001
 43
0.0000001
 44
0.0000000001
 40
0.0
 40
0.0
 40
0.0
 40
0.0
 40
1.0
 40
1.0
 40
1.0
 40
1.0
 10
61.7345084766
 20
75.4263556549
 30
0.0
 10
61.7345084766
 20
75.4042830266
 30
0.0
 10
61.7293593842
 20
75.3813396653
 30
0.0
 10
61.7185674108
 20
75.3620852053
 30
0.0
  0
SPLINE
  5
426
100
AcDbEntity
  8
0
100
AcDbSpline
 62
7
  6
CONTINUOUS
 70
0
 71
3
 72
9
 73
5
 74
0
 42
0.0000001
 43
0.0000001
 44
0.0000000001
 40
0.0
 40
0.0
 40
0.0
 40
0.0
 40
0.4999399336
 40
1.0
 40
1.0
 40
1.0
 40
1.0
 10
61.7185674108
 20
75.3620852053
 30
0.0
 10
61.7080599829
 20
75.3433384163
 30
0.0
 10
61.6756319328
 20
75.3115892963
 30
0.0
 10
61.6320340624
 20
75.3
 30
0.0
 10
61.610538246
 20
75.3
 30
0.0
  0
SPLINE
  5
427
100
AcDbEntity
  8
0
100
AcDbSpline
 62
7
  6
CONTINUOUS
 70
0
 71
3
 72
8
 73
4
 74
0
 42
0.0000001
 43
0.0000001
 44
0.0000000001
 40
0.0
 40
0.0
 40
0.0
 40
0.0
 40
1.0
 40
1.0
 40
1.0
 40
1.0
 10
61.734543014
 20
74.9479113035
 30
0.0
 10
61.734543014
 20
74.9693479163
 30
0.0
 10
61.7299688826
 20
74.9916016712
 30
0.0
 10
61.7199183742
 20
75.0105361807
 30
0.0
  0
SPLINE
  5
428
100
AcDbEntity
  8
0
100
AcDbSpline
 62
7
  6
CONTINUOUS
 70
0
 71
3
 72
9
 73
5
 74
0
 42
0.0000001
 43
0.0000001
 44
0.0000000001
 40
0.0
 40
0.0
 40
0.0
 40
0.0
 40
0.500182216
 40
1.0
 40
1.0
 40
1.0
 40
1.0
 10
61.7199183742
 20
75.0105361807
 30
0.0
 10
61.7096308838
 20
75.0299171489
 30
0.0
 10
61.6769838305
 20
75.0629317545
 30
0.0
 10
61.6324643279
 20
75.075
 30
0.0
 10
61.610538246
 20
75.075
 30
0.0
  0
SPLINE
  5
429
100
AcDbEntity
  8
0
100
AcDbSpline
 62
7
  6
CONTINUOUS
 70
0
 71
3
 72
8
 73
4
 74
0
 42
0.0000001
 43
0.0000001
 44
0.0000000001
 40
0.0
 40
0.0
 40
0.0
 40
0.0
 40
1.0
 40
1.0
 40
1.0
 40
1.0
 10
61.7345084766
 20
74.9263556549
 30
0.0
 10
61.7345084766
 20
74.9042830266
 30
0.0
 10
61.7293593842
 20
74.8813396653
 30
0.0
 10
61.7185674108
 20
74.8620852053
 30
0.0
  0
SPLINE
  5
42A
100
AcDbEntity
  8
0
100
AcDbSpline
 62
7
  6
CONTINUOUS
 70
0
 71
3
 72
9
 73
5
 74
0
 42
0.0000001
 43
0.0000001
 44
0.0000000001
 40
0.0
 40
0.0
 40
0.0
 40
0.0
 40
0.4999399336
 40
1.0
 40
1.0
 40
1.0
 40
1.0
 10
61.7185674108
 20
74.8620852053
 30
0.0
 10
61.7080599829
 20
74.8433384163
 30
0.0
 10
61.6756319328
 20
74.8115892963
 30
0.0
 10
61.6320340624
 20
74.8
 30
0.0
 10
61.610538246
 20
74.8
 30
0.0
  0
SPLINE
  5
42B
100
AcDbEntity
  8
0
100
AcDbSpline
 62
7
  6
CONTINUOUS
 70
0
 71
3
 72
8
 73
4
 74
0
 42
0.0000001
 43
0.0000001
 44
0.0000000001
 40
0.0
 40
0.0
 40
0.0
 40
0.0
 40
1.0
 40
1.0
 40
1.0
 40
1.0
 10
61.734543014
 20
74.4479113035
 30
0.0
 10
61.734543014
 20
74.4693479163
 30
0.0
 10
61.7299688826
 20
74.4916016712
 30
0.0
 10
61.7199183742
 20
74.5105361807
 30
0.0
  0
SPLINE
  5
42C
100
AcDbEntity
  8
0
100
AcDbSpline
 62
7
  6
CONTINUOUS
 70
0
 71
3
 72
9
 73
5
 74
0
 42
0.0000001
 43
0.0000001
 44
0.0000000001
 40
0.0
 40
0.0
 40
0.0
 40
0.0
 40
0.500182216
 40
1.0
 40
1.0
 40
1.0
 40
1.0
 10
61.7199183742
 20
74.5105361807
 30
0.0
 10
61.7096308838
 20
74.5299171489
 30
0.0
 10
61.6769838305
 20
74.5629317545
 30
0.0
 10
61.6324643279
 20
74.575
 30
0.0
 10
61.610538246
 20
74.575
 30
0.0
  0
SPLINE
  5
42D
100
AcDbEntity
  8
0
100
AcDbSpline
 62
7
  6
CONTINUOUS
 70
0
 71
3
 72
8
 73
4
 74
0
 42
0.0000001
 43
0.0000001
 44
0.0000000001
 40
0.0
 40
0.0
 40
0.0
 40
0.0
 40
1.0
 40
1.0
 40
1.0
 40
1.0
 10
61.7345084766
 20
74.4263556549
 30
0.0
 10
61.7345084766
 20
74.4042830266
 30
0.0
 10
61.7293593842
 20
74.3813396653
 30
0.0
 10
61.7185674108
 20
74.3620852053
 30
0.0
  0
SPLINE
  5
42E
100
AcDbEntity
  8
0
100
AcDbSpline
 62
7
  6
CONTINUOUS
 70
0
 71
3
 72
9
 73
5
 74
0
 42
0.0000001
 43
0.0000001
 44
0.0000000001
 40
0.0
 40
0.0
 40
0.0
 40
0.0
 40
0.4999399336
 40
1.0
 40
1.0
 40
1.0
 40
1.0
 10
61.7185674108
 20
74.3620852053
 30
0.0
 10
61.7080599829
 20
74.3433384163
 30
0.0
 10
61.6756319328
 20
74.3115892963
 30
0.0
 10
61.6320340624
 20
74.3
 30
0.0
 10
61.610538246
 20
74.3
 30
0.0
  0
SPLINE
  5
42F
100
AcDbEntity
  8
0
100
AcDbSpline
 62
7
  6
CONTINUOUS
 70
0
 71
3
 72
8
 73
4
 74
0
 42
0.0000001
 43
0.0000001
 44
0.0000000001
 40
0.0
 40
0.0
 40
0.0
 40
0.0
 40
1.0
 40
1.0
 40
1.0
 40
1.0
 10
61.734543014
 20
73.9479113035
 30
0.0
 10
61.734543014
 20
73.9693479163
 30
0.0
 10
61.7299688826
 20
73.9916016712
 30
0.0
 10
61.7199183742
 20
74.0105361807
 30
0.0
  0
SPLINE
  5
430
100
AcDbEntity
  8
0
100
AcDbSpline
 62
7
  6
CONTINUOUS
 70
0
 71
3
 72
9
 73
5
 74
0
 42
0.0000001
 43
0.0000001
 44
0.0000000001
 40
0.0
 40
0.0
 40
0.0
 40
0.0
 40
0.500182216
 40
1.0
 40
1.0
 40
1.0
 40
1.0
 10
61.7199183742
 20
74.0105361807
 30
0.0
 10
61.7096308838
 20
74.0299171489
 30
0.0
 10
61.6769838305
 20
74.0629317545
 30
0.0
 10
61.6324643279
 20
74.075
 30
0.0
 10
61.610538246
 20
74.075
 30
0.0
  0
SPLINE
  5
431
100
AcDbEntity
  8
0
100
AcDbSpline
 62
7
  6
CONTINUOUS
 70
0
 71
3
 72
8
 73
4
 74
0
 42
0.0000001
 43
0.0000001
 44
0.0000000001
 40
0.0
 40
0.0
 40
0.0
 40
0.0
 40
1.0
 40
1.0
 40
1.0
 40
1.0
 10
61.7345084766
 20
73.9263556549
 30
0.0
 10
61.7345084766
 20
73.9042830266
 30
0.0
 10
61.7293593842
 20
73.8813396653
 30
0.0
 10
61.7185674108
 20
73.8620852053
 30
0.0
  0
SPLINE
  5
432
100
AcDbEntity
  8
0
100
AcDbSpline
 62
7
  6
CONTINUOUS
 70
0
 71
3
 72
9
 73
5
 74
0
 42
0.0000001
 43
0.0000001
 44
0.0000000001
 40
0.0
 40
0.0
 40
0.0
 40
0.0
 40
0.4999399336
 40
1.0
 40
1.0
 40
1.0
 40
1.0
 10
61.7185674108
 20
73.8620852053
 30
0.0
 10
61.7080599829
 20
73.8433384163
 30
0.0
 10
61.6756319328
 20
73.8115892963
 30
0.0
 10
61.6320340624
 20
73.8
 30
0.0
 10
61.610538246
 20
73.8
 30
0.0
  0
SPLINE
  5
433
100
AcDbEntity
  8
0
100
AcDbSpline
 62
7
  6
CONTINUOUS
 70
0
 71
3
 72
8
 73
4
 74
0
 42
0.0000001
 43
0.0000001
 44
0.0000000001
 40
0.0
 40
0.0
 40
0.0
 40
0.0
 40
1.0
 40
1.0
 40
1.0
 40
1.0
 10
61.734543014
 20
73.4479113035
 30
0.0
 10
61.734543014
 20
73.4693479163
 30
0.0
 10
61.7299688826
 20
73.4916016712
 30
0.0
 10
61.7199183742
 20
73.5105361807
 30
0.0
  0
SPLINE
  5
434
100
AcDbEntity
  8
0
100
AcDbSpline
 62
7
  6
CONTINUOUS
 70
0
 71
3
 72
9
 73
5
 74
0
 42
0.0000001
 43
0.0000001
 44
0.0000000001
 40
0.0
 40
0.0
 40
0.0
 40
0.0
 40
0.500182216
 40
1.0
 40
1.0
 40
1.0
 40
1.0
 10
61.7199183742
 20
73.5105361807
 30
0.0
 10
61.7096308838
 20
73.5299171489
 30
0.0
 10
61.6769838305
 20
73.5629317545
 30
0.0
 10
61.6324643279
 20
73.575
 30
0.0
 10
61.610538246
 20
73.575
 30
0.0
  0
SPLINE
  5
435
100
AcDbEntity
  8
0
100
AcDbSpline
 62
7
  6
CONTINUOUS
 70
0
 71
3
 72
8
 73
4
 74
0
 42
0.0000001
 43
0.0000001
 44
0.0000000001
 40
0.0
 40
0.0
 40
0.0
 40
0.0
 40
1.0
 40
1.0
 40
1.0
 40
1.0
 10
61.7345084766
 20
73.4263556549
 30
0.0
 10
61.7345084766
 20
73.4042830266
 30
0.0
 10
61.7293593842
 20
73.3813396653
 30
0.0
 10
61.7185674108
 20
73.3620852053
 30
0.0
  0
SPLINE
  5
436
100
AcDbEntity
  8
0
100
AcDbSpline
 62
7
  6
CONTINUOUS
 70
0
 71
3
 72
9
 73
5
 74
0
 42
0.0000001
 43
0.0000001
 44
0.0000000001
 40
0.0
 40
0.0
 40
0.0
 40
0.0
 40
0.4999399336
 40
1.0
 40
1.0
 40
1.0
 40
1.0
 10
61.7185674108
 20
73.3620852053
 30
0.0
 10
61.7080599829
 20
73.3433384163
 30
0.0
 10
61.6756319328
 20
73.3115892963
 30
0.0
 10
61.6320340624
 20
73.3
 30
0.0
 10
61.610538246
 20
73.3
 30
0.0
  0
SPLINE
  5
437
100
AcDbEntity
  8
0
100
AcDbSpline
 62
7
  6
CONTINUOUS
 70
0
 71
3
 72
8
 73
4
 74
0
 42
0.0000001
 43
0.0000001
 44
0.0000000001
 40
0.0
 40
0.0
 40
0.0
 40
0.0
 40
1.0
 40
1.0
 40
1.0
 40
1.0
 10
61.734543014
 20
72.9479113035
 30
0.0
 10
61.734543014
 20
72.9693479163
 30
0.0
 10
61.7299688826
 20
72.9916016712
 30
0.0
 10
61.7199183742
 20
73.0105361807
 30
0.0
  0
SPLINE
  5
438
100
AcDbEntity
  8
0
100
AcDbSpline
 62
7
  6
CONTINUOUS
 70
0
 71
3
 72
9
 73
5
 74
0
 42
0.0000001
 43
0.0000001
 44
0.0000000001
 40
0.0
 40
0.0
 40
0.0
 40
0.0
 40
0.500182216
 40
1.0
 40
1.0
 40
1.0
 40
1.0
 10
61.7199183742
 20
73.0105361807
 30
0.0
 10
61.7096308838
 20
73.0299171489
 30
0.0
 10
61.6769838305
 20
73.0629317545
 30
0.0
 10
61.6324643279
 20
73.075
 30
0.0
 10
61.610538246
 20
73.075
 30
0.0
  0
SPLINE
  5
439
100
AcDbEntity
  8
0
100
AcDbSpline
 62
7
  6
CONTINUOUS
 70
0
 71
3
 72
8
 73
4
 74
0
 42
0.0000001
 43
0.0000001
 44
0.0000000001
 40
0.0
 40
0.0
 40
0.0
 40
0.0
 40
1.0
 40
1.0
 40
1.0
 40
1.0
 10
61.7345084766
 20
72.9263556549
 30
0.0
 10
61.7345084766
 20
72.9042830266
 30
0.0
 10
61.7293593842
 20
72.8813396653
 30
0.0
 10
61.7185674108
 20
72.8620852053
 30
0.0
  0
SPLINE
  5
43A
100
AcDbEntity
  8
0
100
AcDbSpline
 62
7
  6
CONTINUOUS
 70
0
 71
3
 72
9
 73
5
 74
0
 42
0.0000001
 43
0.0000001
 44
0.0000000001
 40
0.0
 40
0.0
 40
0.0
 40
0.0
 40
0.4999399336
 40
1.0
 40
1.0
 40
1.0
 40
1.0
 10
61.7185674108
 20
72.8620852053
 30
0.0
 10
61.7080599829
 20
72.8433384163
 30
0.0
 10
61.6756319328
 20
72.8115892963
 30
0.0
 10
61.6320340624
 20
72.8
 30
0.0
 10
61.610538246
 20
72.8
 30
0.0
  0
SPLINE
  5
43B
100
AcDbEntity
  8
0
100
AcDbSpline
 62
7
  6
CONTINUOUS
 70
0
 71
3
 72
8
 73
4
 74
0
 42
0.0000001
 43
0.0000001
 44
0.0000000001
 40
0.0
 40
0.0
 40
0.0
 40
0.0
 40
1.0
 40
1.0
 40
1.0
 40
1.0
 10
61.734543014
 20
72.4479113035
 30
0.0
 10
61.734543014
 20
72.4693479163
 30
0.0
 10
61.7299688826
 20
72.4916016712
 30
0.0
 10
61.7199183742
 20
72.5105361807
 30
0.0
  0
SPLINE
  5
43C
100
AcDbEntity
  8
0
100
AcDbSpline
 62
7
  6
CONTINUOUS
 70
0
 71
3
 72
9
 73
5
 74
0
 42
0.0000001
 43
0.0000001
 44
0.0000000001
 40
0.0
 40
0.0
 40
0.0
 40
0.0
 40
0.500182216
 40
1.0
 40
1.0
 40
1.0
 40
1.0
 10
61.7199183742
 20
72.5105361807
 30
0.0
 10
61.7096308838
 20
72.5299171489
 30
0.0
 10
61.6769838305
 20
72.5629317545
 30
0.0
 10
61.6324643279
 20
72.575
 30
0.0
 10
61.610538246
 20
72.575
 30
0.0
  0
SPLINE
  5
43D
100
AcDbEntity
  8
0
100
AcDbSpline
 62
7
  6
CONTINUOUS
 70
0
 71
3
 72
8
 73
4
 74
0
 42
0.0000001
 43
0.0000001
 44
0.0000000001
 40
0.0
 40
0.0
 40
0.0
 40
0.0
 40
1.0
 40
1.0
 40
1.0
 40
1.0
 10
61.7345084766
 20
72.4263556549
 30
0.0
 10
61.7345084766
 20
72.4042830266
 30
0.0
 10
61.7293593842
 20
72.3813396653
 30
0.0
 10
61.7185674108
 20
72.3620852053
 30
0.0
  0
SPLINE
  5
43E
100
AcDbEntity
  8
0
100
AcDbSpline
 62
7
  6
CONTINUOUS
 70
0
 71
3
 72
9
 73
5
 74
0
 42
0.0000001
 43
0.0000001
 44
0.0000000001
 40
0.0
 40
0.0
 40
0.0
 40
0.0
 40
0.4999399336
 40
1.0
 40
1.0
 40
1.0
 40
1.0
 10
61.7185674108
 20
72.3620852053
 30
0.0
 10
61.7080599829
 20
72.3433384163
 30
0.0
 10
61.6756319328
 20
72.3115892963
 30
0.0
 10
61.6320340624
 20
72.3
 30
0.0
 10
61.610538246
 20
72.3
 30
0.0
  0
SPLINE
  5
43F
100
AcDbEntity
  8
0
100
AcDbSpline
 62
7
  6
CONTINUOUS
 70
0
 71
3
 72
8
 73
4
 74
0
 42
0.0000001
 43
0.0000001
 44
0.0000000001
 40
0.0
 40
0.0
 40
0.0
 40
0.0
 40
1.0
 40
1.0
 40
1.0
 40
1.0
 10
61.734543014
 20
71.9479113035
 30
0.0
 10
61.734543014
 20
71.9693479163
 30
0.0
 10
61.7299688826
 20
71.9916016712
 30
0.0
 10
61.7199183742
 20
72.0105361807
 30
0.0
  0
SPLINE
  5
440
100
AcDbEntity
  8
0
100
AcDbSpline
 62
7
  6
CONTINUOUS
 70
0
 71
3
 72
9
 73
5
 74
0
 42
0.0000001
 43
0.0000001
 44
0.0000000001
 40
0.0
 40
0.0
 40
0.0
 40
0.0
 40
0.500182216
 40
1.0
 40
1.0
 40
1.0
 40
1.0
 10
61.7199183742
 20
72.0105361807
 30
0.0
 10
61.7096308838
 20
72.0299171489
 30
0.0
 10
61.6769838305
 20
72.0629317545
 30
0.0
 10
61.6324643279
 20
72.075
 30
0.0
 10
61.610538246
 20
72.075
 30
0.0
  0
SPLINE
  5
441
100
AcDbEntity
  8
0
100
AcDbSpline
 62
7
  6
CONTINUOUS
 70
0
 71
3
 72
8
 73
4
 74
0
 42
0.0000001
 43
0.0000001
 44
0.0000000001
 40
0.0
 40
0.0
 40
0.0
 40
0.0
 40
1.0
 40
1.0
 40
1.0
 40
1.0
 10
61.7345084766
 20
71.9263556549
 30
0.0
 10
61.7345084766
 20
71.9042830266
 30
0.0
 10
61.7293593842
 20
71.8813396653
 30
0.0
 10
61.7185674108
 20
71.8620852053
 30
0.0
  0
SPLINE
  5
442
100
AcDbEntity
  8
0
100
AcDbSpline
 62
7
  6
CONTINUOUS
 70
0
 71
3
 72
9
 73
5
 74
0
 42
0.0000001
 43
0.0000001
 44
0.0000000001
 40
0.0
 40
0.0
 40
0.0
 40
0.0
 40
0.4999399336
 40
1.0
 40
1.0
 40
1.0
 40
1.0
 10
61.7185674108
 20
71.8620852053
 30
0.0
 10
61.7080599829
 20
71.8433384163
 30
0.0
 10
61.6756319328
 20
71.8115892963
 30
0.0
 10
61.6320340624
 20
71.8
 30
0.0
 10
61.610538246
 20
71.8
 30
0.0
  0
SPLINE
  5
443
100
AcDbEntity
  8
0
100
AcDbSpline
 62
7
  6
CONTINUOUS
 70
0
 71
3
 72
8
 73
4
 74
0
 42
0.0000001
 43
0.0000001
 44
0.0000000001
 40
0.0
 40
0.0
 40
0.0
 40
0.0
 40
1.0
 40
1.0
 40
1.0
 40
1.0
 10
61.734543014
 20
71.4479113035
 30
0.0
 10
61.734543014
 20
71.4693479163
 30
0.0
 10
61.7299688826
 20
71.4916016712
 30
0.0
 10
61.7199183742
 20
71.5105361807
 30
0.0
  0
SPLINE
  5
444
100
AcDbEntity
  8
0
100
AcDbSpline
 62
7
  6
CONTINUOUS
 70
0
 71
3
 72
9
 73
5
 74
0
 42
0.0000001
 43
0.0000001
 44
0.0000000001
 40
0.0
 40
0.0
 40
0.0
 40
0.0
 40
0.500182216
 40
1.0
 40
1.0
 40
1.0
 40
1.0
 10
61.7199183742
 20
71.5105361807
 30
0.0
 10
61.7096308838
 20
71.5299171489
 30
0.0
 10
61.6769838305
 20
71.5629317545
 30
0.0
 10
61.6324643279
 20
71.575
 30
0.0
 10
61.610538246
 20
71.575
 30
0.0
  0
SPLINE
  5
445
100
AcDbEntity
  8
0
100
AcDbSpline
 62
7
  6
CONTINUOUS
 70
0
 71
3
 72
8
 73
4
 74
0
 42
0.0000001
 43
0.0000001
 44
0.0000000001
 40
0.0
 40
0.0
 40
0.0
 40
0.0
 40
1.0
 40
1.0
 40
1.0
 40
1.0
 10
61.7345084766
 20
71.4263556549
 30
0.0
 10
61.7345084766
 20
71.4042830266
 30
0.0
 10
61.7293593842
 20
71.3813396653
 30
0.0
 10
61.7185674108
 20
71.3620852053
 30
0.0
  0
SPLINE
  5
446
100
AcDbEntity
  8
0
100
AcDbSpline
 62
7
  6
CONTINUOUS
 70
0
 71
3
 72
9
 73
5
 74
0
 42
0.0000001
 43
0.0000001
 44
0.0000000001
 40
0.0
 40
0.0
 40
0.0
 40
0.0
 40
0.4999399336
 40
1.0
 40
1.0
 40
1.0
 40
1.0
 10
61.7185674108
 20
71.3620852053
 30
0.0
 10
61.7080599829
 20
71.3433384163
 30
0.0
 10
61.6756319328
 20
71.3115892963
 30
0.0
 10
61.6320340624
 20
71.3
 30
0.0
 10
61.610538246
 20
71.3
 30
0.0
  0
SPLINE
  5
447
100
AcDbEntity
  8
0
100
AcDbSpline
 62
7
  6
CONTINUOUS
 70
0
 71
3
 72
11
 73
7
 74
0
 42
0.0000001
 43
0.0000001
 44
0.0000000001
 40
0.0
 40
0.0
 40
0.0
 40
0.0
 40
0.2565102334
 40
0.5092390173
 40
0.7565517191
 40
1.0
 40
1.0
 40
1.0
 40
1.0
 10
31.976740048
 20
32.95
 30
0.0
 10
31.976740048
 20
32.8850971353
 30
0.0
 10
32.0008808613
 20
32.7549481333
 30
0.0
 10
32.1050112551
 20
32.5888937986
 30
0.0
 10
32.2620446906
 20
32.4765750776
 30
0.0
 10
32.3876760957
 20
32.4500107662
 30
0.0
 10
32.4492739923
 20
32.4500136191
 30
0.0
  0
SPLINE
  5
448
100
AcDbEntity
  8
0
100
AcDbSpline
 62
7
  6
CONTINUOUS
 70
0
 71
3
 72
12
 73
8
 74
0
 42
0.0000001
 43
0.0000001
 44
0.0000000001
 40
0.0
 40
0.0
 40
0.0
 40
0.0
 40
0.1866498105
 40
0.4200818613
 40
0.6962825929
 40
0.8464529428
 40
1.0
 40
1.0
 40
1.0
 40
1.0
 10
29.643198883
 20
32.95
 30
0.0
 10
29.6431988842
 20
32.9029181925
 30
0.0
 10
29.657341207
 20
32.7964730279
 30
0.0
 10
29.7324006856
 20
32.6340851167
 30
0.0
 10
29.858980472
 20
32.5168622993
 30
0.0
 10
29.9953383089
 20
32.4603503831
 30
0.0
 10
30.072354401
 20
32.4500000006
 30
0.0
 10
30.1110861467
 20
32.45
 30
0.0
  0
SPLINE
  5
449
100
AcDbEntity
  8
0
100
AcDbSpline
 62
7
  6
CONTINUOUS
 70
0
 71
3
 72
13
 73
9
 74
0
 42
0.0000001
 43
0.0000001
 44
0.0000000001
 40
0.0
 40
0.0
 40
0.0
 40
0.0
 40
0.2118661985
 40
0.4664232775
 40
0.6030926352
 40
0.7394798904
 40
0.8717766093
 40
1.0
 40
1.0
 40
1.0
 40
1.0
 10
28.8431811449
 20
32.95
 30
0.0
 10
28.8431811453
 20
32.9968865206
 30
0.0
 10
28.8529906062
 20
33.100271113
 30
0.0
 10
28.8950902951
 20
33.2288823177
 30
0.0
 10
28.9570529721
 20
33.3285847954
 30
0.0
 10
29.0199538285
 20
33.3937722072
 30
0.0
 10
29.0968321356
 20
33.4389486424
 30
0.0
 10
29.1549449562
 20
33.45
 30
0.0
 10
29.1833211139
 20
33.45
 30
0.0
  0
SPLINE
  5
44A
100
AcDbEntity
  8
0
100
AcDbSpline
 62
7
  6
CONTINUOUS
 70
0
 71
3
 72
18
 73
14
 74
0
 42
0.0000001
 43
0.0000001
 44
0.0000000001
 40
0.0
 40
0.0
 40
0.0
 40
0.0
 40
0.0048130641
 40
0.019183754
 40
0.0428829376
 40
0.0756499301
 40
0.1172206385
 40
0.1673135185
 40
0.2910663198
 40
0.442302607
 40
0.6160124481
 40
0.8047907652
 40
1.0
 40
1.0
 40
1.0
 40
1.0
 10
60.8919400439
 20
95.2499997951
 30
0.0
 10
60.8916293349
 20
95.2500533991
 30
0.0
 10
60.8920293001
 20
95.2479303229
 30
0.0
 10
60.8914375382
 20
95.2459577976
 30
0.0
 10
60.8916076277
 20
95.2408482039
 30
0.0
 10
60.8914090188
 20
95.2346308045
 30
0.0
 10
60.8914003331
 20
95.2264018598
 30
0.0
 10
60.8913507704
 20
95.2123261208
 30
0.0
 10
60.8914045161
 20
95.1910076538
 30
0.0
 10
60.8914682618
 20
95.1616232283
 30
0.0
 10
60.8914861837
 20
95.1279665536
 30
0.0
 10
60.8914641168
 20
95.0914333197
 30
0.0
 10
60.8914515568
 20
95.0662784549
 30
0.0
 10
60.8914512266
 20
95.0534904927
 30
0.0
  0
SPLINE
  5
44B
100
AcDbEntity
  8
0
100
AcDbSpline
 62
7
  6
CONTINUOUS
 70
0
 71
3
 72
11
 73
7
 74
0
 42
0.0000001
 43
0.0000001
 44
0.0000000001
 40
0.0
 40
0.0
 40
0.0
 40
0.0
 40
0.2500275571
 40
0.5
 40
0.7499724429
 40
1.0
 40
1.0
 40
1.0
 40
1.0
 10
57.5807888039
 20
63.55
 30
0.0
 10
57.6458123964
 20
63.5512869893
 30
0.0
 10
57.7773536744
 20
63.5754434187
 30
0.0
 10
57.9433317832
 20
63.6874570207
 30
0.0
 10
58.0553453852
 20
63.8534351295
 30
0.0
 10
58.0795018147
 20
63.9849764076
 30
0.0
 10
58.0807888039
 20
64.05
 30
0.0
  0
SPLINE
  5
44C
100
AcDbEntity
  8
0
100
AcDbSpline
 62
7
  6
CONTINUOUS
 70
0
 71
3
 72
11
 73
7
 74
0
 42
0.0000001
 43
0.0000001
 44
0.0000000001
 40
0.0
 40
0.0
 40
0.0
 40
0.0
 40
0.2500275571
 40
0.5
 40
0.7499724429
 40
1.0
 40
1.0
 40
1.0
 40
1.0
 10
58.0807888039
 20
69.05
 30
0.0
 10
58.0795018146
 20
69.1150235925
 30
0.0
 10
58.0553453852
 20
69.2465648705
 30
0.0
 10
57.9433317832
 20
69.4125429793
 30
0.0
 10
57.7773536744
 20
69.5245565813
 30
0.0
 10
57.6458123964
 20
69.5487130107
 30
0.0
 10
57.5807888039
 20
69.55
 30
0.0
  0
SPLINE
  5
44D
100
AcDbEntity
  8
0
100
AcDbSpline
 62
7
  6
CONTINUOUS
 70
0
 71
3
 72
11
 73
7
 74
0
 42
0.0000001
 43
0.0000001
 44
0.0000000001
 40
0.0
 40
0.0
 40
0.0
 40
0.0
 40
0.2500275571
 40
0.5
 40
0.7499724429
 40
1.0
 40
1.0
 40
1.0
 40
1.0
 10
53.5807888039
 20
69.55
 30
0.0
 10
53.5157652114
 20
69.5487130107
 30
0.0
 10
53.3842239334
 20
69.5245565813
 30
0.0
 10
53.2182458246
 20
69.4125429793
 30
0.0
 10
53.1062322226
 20
69.2465648705
 30
0.0
 10
53.0820757932
 20
69.1150235925
 30
0.0
 10
53.0807888039
 20
69.05
 30
0.0
  0
SPLINE
  5
44E
100
AcDbEntity
  8
0
100
AcDbSpline
 62
7
  6
CONTINUOUS
 70
0
 71
3
 72
11
 73
7
 74
0
 42
0.0000001
 43
0.0000001
 44
0.0000000001
 40
0.0
 40
0.0
 40
0.0
 40
0.0
 40
0.2500275571
 40
0.5
 40
0.7499724429
 40
1.0
 40
1.0
 40
1.0
 40
1.0
 10
53.0807888039
 20
64.05
 30
0.0
 10
53.0820757932
 20
63.9849764075
 30
0.0
 10
53.1062322226
 20
63.8534351295
 30
0.0
 10
53.2182458246
 20
63.6874570207
 30
0.0
 10
53.3842239334
 20
63.5754434187
 30
0.0
 10
53.5157652114
 20
63.5512869893
 30
0.0
 10
53.5807888039
 20
63.55
 30
0.0
  0
SPLINE
  5
44F
100
AcDbEntity
  8
0
100
AcDbSpline
 62
7
  6
CONTINUOUS
 70
0
 71
3
 72
9
 73
5
 74
0
 42
0.0000001
 43
0.0000001
 44
0.0000000001
 40
0.0
 40
0.0
 40
0.0
 40
0.0
 40
0.2543380561
 40
1.0
 40
1.0
 40
1.0
 40
1.0
 10
61.3634467204
 20
96.7914213562
 30
0.0
 10
61.3720254996
 20
96.7914962278
 30
0.0
 10
61.4057359639
 20
96.7901790061
 30
0.0
 10
61.4393227807
 20
96.782846103
 30
0.0
 10
61.462725805
 20
96.7736307923
 30
0.0
  0
SPLINE
  5
450
100
AcDbEntity
  8
0
100
AcDbSpline
 62
7
  6
CONTINUOUS
 70
0
 71
3
 72
10
 73
6
 74
0
 42
0.0000001
 43
0.0000001
 44
0.0000000001
 40
0.0
 40
0.0
 40
0.0
 40
0.0
 40
0.538517474
 40
0.7767199049
 40
1.0
 40
1.0
 40
1.0
 40
1.0
 10
61.462725805
 20
96.7736307923
 30
0.0
 10
61.4902624543
 20
96.7627878014
 30
0.0
 10
61.5284869991
 20
96.7386781659
 30
0.0
 10
61.5577294393
 20
96.6912033985
 30
0.0
 10
61.5632021098
 20
96.6657591051
 30
0.0
 10
61.5634162595
 20
96.6534904819
 30
0.0
  0
SPLINE
  5
451
100
AcDbEntity
  8
0
100
AcDbSpline
 62
7
  6
CONTINUOUS
 70
0
 71
3
 72
9
 73
5
 74
0
 42
0.0000001
 43
0.0000001
 44
0.0000000001
 40
0.0
 40
0.0
 40
0.0
 40
0.0
 40
0.4997654615
 40
1.0
 40
1.0
 40
1.0
 40
1.0
 10
61.610538246
 20
87.825
 30
0.0
 10
61.6295584931
 20
87.825
 30
0.0
 10
61.6685461593
 20
87.8336155654
 30
0.0
 10
61.6977805414
 20
87.8599133056
 30
0.0
 10
61.7101133392
 20
87.8744167994
 30
0.0
  0
SPLINE
  5
452
100
AcDbEntity
  8
0
100
AcDbSpline
 62
7
  6
CONTINUOUS
 70
0
 71
3
 72
9
 73
5
 74
0
 42
0.0000001
 43
0.0000001
 44
0.0000000001
 40
0.0
 40
0.0
 40
0.0
 40
0.0
 40
0.2595383994
 40
1.0
 40
1.0
 40
1.0
 40
1.0
 10
61.7101133392
 20
87.8744167994
 30
0.0
 10
61.7133577723
 20
87.8782322852
 30
0.0
 10
61.7253017326
 20
87.8931614851
 30
0.0
 10
61.7345084766
 20
87.9120666585
 30
0.0
 10
61.7345084766
 20
87.9263556549
 30
0.0
  0
SPLINE
  5
453
100
AcDbEntity
  8
0
100
AcDbSpline
 62
7
  6
CONTINUOUS
 70
0
 71
3
 72
9
 73
5
 74
0
 42
0.0000001
 43
0.0000001
 44
0.0000000001
 40
0.0
 40
0.0
 40
0.0
 40
0.0
 40
0.4997654615
 40
1.0
 40
1.0
 40
1.0
 40
1.0
 10
61.610538246
 20
87.325
 30
0.0
 10
61.6295584931
 20
87.325
 30
0.0
 10
61.6685461593
 20
87.3336155654
 30
0.0
 10
61.6977805414
 20
87.3599133056
 30
0.0
 10
61.7101133392
 20
87.3744167994
 30
0.0
  0
SPLINE
  5
454
100
AcDbEntity
  8
0
100
AcDbSpline
 62
7
  6
CONTINUOUS
 70
0
 71
3
 72
9
 73
5
 74
0
 42
0.0000001
 43
0.0000001
 44
0.0000000001
 40
0.0
 40
0.0
 40
0.0
 40
0.0
 40
0.2595383994
 40
1.0
 40
1.0
 40
1.0
 40
1.0
 10
61.7101133392
 20
87.3744167994
 30
0.0
 10
61.7133577723
 20
87.3782322852
 30
0.0
 10
61.7253017326
 20
87.3931614851
 30
0.0
 10
61.7345084766
 20
87.4120666585
 30
0.0
 10
61.7345084766
 20
87.4263556549
 30
0.0
  0
SPLINE
  5
455
100
AcDbEntity
  8
0
100
AcDbSpline
 62
7
  6
CONTINUOUS
 70
0
 71
3
 72
9
 73
5
 74
0
 42
0.0000001
 43
0.0000001
 44
0.0000000001
 40
0.0
 40
0.0
 40
0.0
 40
0.0
 40
0.4997654615
 40
1.0
 40
1.0
 40
1.0
 40
1.0
 10
61.610538246
 20
86.825
 30
0.0
 10
61.6295584931
 20
86.825
 30
0.0
 10
61.6685461593
 20
86.8336155654
 30
0.0
 10
61.6977805414
 20
86.8599133056
 30
0.0
 10
61.7101133392
 20
86.8744167994
 30
0.0
  0
SPLINE
  5
456
100
AcDbEntity
  8
0
100
AcDbSpline
 62
7
  6
CONTINUOUS
 70
0
 71
3
 72
9
 73
5
 74
0
 42
0.0000001
 43
0.0000001
 44
0.0000000001
 40
0.0
 40
0.0
 40
0.0
 40
0.0
 40
0.2595383994
 40
1.0
 40
1.0
 40
1.0
 40
1.0
 10
61.7101133392
 20
86.8744167994
 30
0.0
 10
61.7133577723
 20
86.8782322852
 30
0.0
 10
61.7253017326
 20
86.8931614851
 30
0.0
 10
61.7345084766
 20
86.9120666585
 30
0.0
 10
61.7345084766
 20
86.9263556549
 30
0.0
  0
SPLINE
  5
457
100
AcDbEntity
  8
0
100
AcDbSpline
 62
7
  6
CONTINUOUS
 70
0
 71
3
 72
9
 73
5
 74
0
 42
0.0000001
 43
0.0000001
 44
0.0000000001
 40
0.0
 40
0.0
 40
0.0
 40
0.0
 40
0.4997654615
 40
1.0
 40
1.0
 40
1.0
 40
1.0
 10
61.610538246
 20
86.325
 30
0.0
 10
61.6295584931
 20
86.325
 30
0.0
 10
61.6685461593
 20
86.3336155654
 30
0.0
 10
61.6977805414
 20
86.3599133056
 30
0.0
 10
61.7101133392
 20
86.3744167994
 30
0.0
  0
SPLINE
  5
458
100
AcDbEntity
  8
0
100
AcDbSpline
 62
7
  6
CONTINUOUS
 70
0
 71
3
 72
9
 73
5
 74
0
 42
0.0000001
 43
0.0000001
 44
0.0000000001
 40
0.0
 40
0.0
 40
0.0
 40
0.0
 40
0.2595383994
 40
1.0
 40
1.0
 40
1.0
 40
1.0
 10
61.7101133392
 20
86.3744167994
 30
0.0
 10
61.7133577723
 20
86.3782322852
 30
0.0
 10
61.7253017326
 20
86.3931614851
 30
0.0
 10
61.7345084766
 20
86.4120666585
 30
0.0
 10
61.7345084766
 20
86.4263556549
 30
0.0
  0
SPLINE
  5
459
100
AcDbEntity
  8
0
100
AcDbSpline
 62
7
  6
CONTINUOUS
 70
0
 71
3
 72
12
 73
8
 74
0
 42
0.0000001
 43
0.0000001
 44
0.0000000001
 40
0.0
 40
0.0
 40
0.0
 40
0.0
 40
0.1535471315
 40
0.3037174858
 40
0.5799181374
 40
0.8133501286
 40
1.0
 40
1.0
 40
1.0
 40
1.0
 10
30.1110831089
 20
33.45
 30
0.0
 10
30.0723514986
 20
33.4499997249
 30
0.0
 10
29.9953357683
 20
33.4396488886
 30
0.0
 10
29.8589787907
 20
33.3831364657
 30
0.0
 10
29.7324000015
 20
33.2659137247
 30
0.0
 10
29.6573411241
 20
33.1035263748
 30
0.0
 10
29.6431989167
 20
32.9970816355
 30
0.0
 10
29.6431989186
 20
32.95
 30
0.0
  0
SPLINE
  5
45A
100
AcDbEntity
  8
0
100
AcDbSpline
 62
7
  6
CONTINUOUS
 70
0
 71
3
 72
9
 73
5
 74
0
 42
0.0000001
 43
0.0000001
 44
0.0000000001
 40
0.0
 40
0.0
 40
0.0
 40
0.0
 40
0.4997654615
 40
1.0
 40
1.0
 40
1.0
 40
1.0
 10
61.610538246
 20
85.825
 30
0.0
 10
61.6295584931
 20
85.825
 30
0.0
 10
61.6685461593
 20
85.8336155654
 30
0.0
 10
61.6977805414
 20
85.8599133056
 30
0.0
 10
61.7101133392
 20
85.8744167994
 30
0.0
  0
SPLINE
  5
45B
100
AcDbEntity
  8
0
100
AcDbSpline
 62
7
  6
CONTINUOUS
 70
0
 71
3
 72
9
 73
5
 74
0
 42
0.0000001
 43
0.0000001
 44
0.0000000001
 40
0.0
 40
0.0
 40
0.0
 40
0.0
 40
0.2595383994
 40
1.0
 40
1.0
 40
1.0
 40
1.0
 10
61.7101133392
 20
85.8744167994
 30
0.0
 10
61.7133577723
 20
85.8782322852
 30
0.0
 10
61.7253017326
 20
85.8931614851
 30
0.0
 10
61.7345084766
 20
85.9120666585
 30
0.0
 10
61.7345084766
 20
85.9263556549
 30
0.0
  0
SPLINE
  5
45C
100
AcDbEntity
  8
0
100
AcDbSpline
 62
7
  6
CONTINUOUS
 70
0
 71
3
 72
11
 73
7
 74
0
 42
0.0000001
 43
0.0000001
 44
0.0000000001
 40
0.0
 40
0.0
 40
0.0
 40
0.0
 40
0.2434301036
 40
0.4907413448
 40
0.7434908595
 40
1.0
 40
1.0
 40
1.0
 40
1.0
 10
32.4492740006
 20
33.4499863809
 30
0.0
 10
32.3876807933
 20
33.4499835282
 30
0.0
 10
32.2620555612
 20
33.4234285258
 30
0.0
 10
32.1050169564
 20
33.3111137689
 30
0.0
 10
32.0008834077
 20
33.1450558837
 30
0.0
 10
31.976740048
 20
33.0149024934
 30
0.0
 10
31.976740048
 20
32.95
 30
0.0
  0
SPLINE
  5
45D
100
AcDbEntity
  8
0
100
AcDbSpline
 62
7
  6
CONTINUOUS
 70
0
 71
3
 72
9
 73
5
 74
0
 42
0.0000001
 43
0.0000001
 44
0.0000000001
 40
0.0
 40
0.0
 40
0.0
 40
0.0
 40
0.4997654615
 40
1.0
 40
1.0
 40
1.0
 40
1.0
 10
61.610538246
 20
85.325
 30
0.0
 10
61.6295584931
 20
85.325
 30
0.0
 10
61.6685461593
 20
85.3336155654
 30
0.0
 10
61.6977805414
 20
85.3599133056
 30
0.0
 10
61.7101133392
 20
85.3744167994
 30
0.0
  0
SPLINE
  5
45E
100
AcDbEntity
  8
0
100
AcDbSpline
 62
7
  6
CONTINUOUS
 70
0
 71
3
 72
9
 73
5
 74
0
 42
0.0000001
 43
0.0000001
 44
0.0000000001
 40
0.0
 40
0.0
 40
0.0
 40
0.0
 40
0.2595383994
 40
1.0
 40
1.0
 40
1.0
 40
1.0
 10
61.7101133392
 20
85.3744167994
 30
0.0
 10
61.7133577723
 20
85.3782322852
 30
0.0
 10
61.7253017326
 20
85.3931614851
 30
0.0
 10
61.7345084766
 20
85.4120666585
 30
0.0
 10
61.7345084766
 20
85.4263556549
 30
0.0
  0
SPLINE
  5
45F
100
AcDbEntity
  8
0
100
AcDbSpline
 62
7
  6
CONTINUOUS
 70
0
 71
3
 72
9
 73
5
 74
0
 42
0.0000001
 43
0.0000001
 44
0.0000000001
 40
0.0
 40
0.0
 40
0.0
 40
0.0
 40
0.4997654615
 40
1.0
 40
1.0
 40
1.0
 40
1.0
 10
61.610538246
 20
84.825
 30
0.0
 10
61.6295584931
 20
84.825
 30
0.0
 10
61.6685461593
 20
84.8336155654
 30
0.0
 10
61.6977805414
 20
84.8599133056
 30
0.0
 10
61.7101133392
 20
84.8744167994
 30
0.0
  0
SPLINE
  5
460
100
AcDbEntity
  8
0
100
AcDbSpline
 62
7
  6
CONTINUOUS
 70
0
 71
3
 72
9
 73
5
 74
0
 42
0.0000001
 43
0.0000001
 44
0.0000000001
 40
0.0
 40
0.0
 40
0.0
 40
0.0
 40
0.2595383994
 40
1.0
 40
1.0
 40
1.0
 40
1.0
 10
61.7101133392
 20
84.8744167994
 30
0.0
 10
61.7133577723
 20
84.8782322852
 30
0.0
 10
61.7253017326
 20
84.8931614851
 30
0.0
 10
61.7345084766
 20
84.9120666585
 30
0.0
 10
61.7345084766
 20
84.9263556549
 30
0.0
  0
SPLINE
  5
461
100
AcDbEntity
  8
0
100
AcDbSpline
 62
7
  6
CONTINUOUS
 70
0
 71
3
 72
9
 73
5
 74
0
 42
0.0000001
 43
0.0000001
 44
0.0000000001
 40
0.0
 40
0.0
 40
0.0
 40
0.0
 40
0.4997654615
 40
1.0
 40
1.0
 40
1.0
 40
1.0
 10
61.610538246
 20
84.325
 30
0.0
 10
61.6295584931
 20
84.325
 30
0.0
 10
61.6685461593
 20
84.3336155654
 30
0.0
 10
61.6977805414
 20
84.3599133056
 30
0.0
 10
61.7101133392
 20
84.3744167994
 30
0.0
  0
SPLINE
  5
462
100
AcDbEntity
  8
0
100
AcDbSpline
 62
7
  6
CONTINUOUS
 70
0
 71
3
 72
9
 73
5
 74
0
 42
0.0000001
 43
0.0000001
 44
0.0000000001
 40
0.0
 40
0.0
 40
0.0
 40
0.0
 40
0.2595383994
 40
1.0
 40
1.0
 40
1.0
 40
1.0
 10
61.7101133392
 20
84.3744167994
 30
0.0
 10
61.7133577723
 20
84.3782322852
 30
0.0
 10
61.7253017326
 20
84.3931614851
 30
0.0
 10
61.7345084766
 20
84.4120666585
 30
0.0
 10
61.7345084766
 20
84.4263556549
 30
0.0
  0
SPLINE
  5
463
100
AcDbEntity
  8
0
100
AcDbSpline
 62
7
  6
CONTINUOUS
 70
0
 71
3
 72
9
 73
5
 74
0
 42
0.0000001
 43
0.0000001
 44
0.0000000001
 40
0.0
 40
0.0
 40
0.0
 40
0.0
 40
0.4997654615
 40
1.0
 40
1.0
 40
1.0
 40
1.0
 10
61.610538246
 20
83.825
 30
0.0
 10
61.6295584931
 20
83.825
 30
0.0
 10
61.6685461593
 20
83.8336155654
 30
0.0
 10
61.6977805414
 20
83.8599133056
 30
0.0
 10
61.7101133392
 20
83.8744167994
 30
0.0
  0
SPLINE
  5
464
100
AcDbEntity
  8
0
100
AcDbSpline
 62
7
  6
CONTINUOUS
 70
0
 71
3
 72
9
 73
5
 74
0
 42
0.0000001
 43
0.0000001
 44
0.0000000001
 40
0.0
 40
0.0
 40
0.0
 40
0.0
 40
0.2595383994
 40
1.0
 40
1.0
 40
1.0
 40
1.0
 10
61.7101133392
 20
83.8744167994
 30
0.0
 10
61.7133577723
 20
83.8782322852
 30
0.0
 10
61.7253017326
 20
83.8931614851
 30
0.0
 10
61.7345084766
 20
83.9120666585
 30
0.0
 10
61.7345084766
 20
83.9263556549
 30
0.0
  0
SPLINE
  5
465
100
AcDbEntity
  8
0
100
AcDbSpline
 62
7
  6
CONTINUOUS
 70
0
 71
3
 72
13
 73
9
 74
0
 42
0.0000001
 43
0.0000001
 44
0.0000000001
 40
0.0
 40
0.0
 40
0.0
 40
0.0
 40
0.1282233907
 40
0.2605201094
 40
0.3969073645
 40
0.5335767221
 40
0.7881338012
 40
1.0
 40
1.0
 40
1.0
 40
1.0
 10
29.1833210996
 20
32.45
 30
0.0
 10
29.154944942
 20
32.45
 30
0.0
 10
29.0968321215
 20
32.4610513575
 30
0.0
 10
29.0199538147
 20
32.5062277928
 30
0.0
 10
28.9570529588
 20
32.5714152046
 30
0.0
 10
28.8950902825
 20
32.6711176824
 30
0.0
 10
28.8529905945
 20
32.7997288871
 30
0.0
 10
28.8431811343
 20
32.9031134794
 30
0.0
 10
28.8431811343
 20
32.95
 30
0.0
  0
SPLINE
  5
466
100
AcDbEntity
  8
0
100
AcDbSpline
 62
7
  6
CONTINUOUS
 70
0
 71
3
 72
9
 73
5
 74
0
 42
0.0000001
 43
0.0000001
 44
0.0000000001
 40
0.0
 40
0.0
 40
0.0
 40
0.0
 40
0.4997654615
 40
1.0
 40
1.0
 40
1.0
 40
1.0
 10
61.610538246
 20
83.325
 30
0.0
 10
61.6295584931
 20
83.325
 30
0.0
 10
61.6685461593
 20
83.3336155654
 30
0.0
 10
61.6977805414
 20
83.3599133056
 30
0.0
 10
61.7101133392
 20
83.3744167994
 30
0.0
  0
SPLINE
  5
467
100
AcDbEntity
  8
0
100
AcDbSpline
 62
7
  6
CONTINUOUS
 70
0
 71
3
 72
9
 73
5
 74
0
 42
0.0000001
 43
0.0000001
 44
0.0000000001
 40
0.0
 40
0.0
 40
0.0
 40
0.0
 40
0.2595383994
 40
1.0
 40
1.0
 40
1.0
 40
1.0
 10
61.7101133392
 20
83.3744167994
 30
0.0
 10
61.7133577723
 20
83.3782322852
 30
0.0
 10
61.7253017326
 20
83.3931614851
 30
0.0
 10
61.7345084766
 20
83.4120666585
 30
0.0
 10
61.7345084766
 20
83.4263556549
 30
0.0
  0
SPLINE
  5
468
100
AcDbEntity
  8
0
100
AcDbSpline
 62
7
  6
CONTINUOUS
 70
0
 71
3
 72
9
 73
5
 74
0
 42
0.0000001
 43
0.0000001
 44
0.0000000001
 40
0.0
 40
0.0
 40
0.0
 40
0.0
 40
0.4997654615
 40
1.0
 40
1.0
 40
1.0
 40
1.0
 10
61.610538246
 20
82.825
 30
0.0
 10
61.6295584931
 20
82.825
 30
0.0
 10
61.6685461593
 20
82.8336155654
 30
0.0
 10
61.6977805414
 20
82.8599133056
 30
0.0
 10
61.7101133392
 20
82.8744167994
 30
0.0
  0
SPLINE
  5
469
100
AcDbEntity
  8
0
100
AcDbSpline
 62
7
  6
CONTINUOUS
 70
0
 71
3
 72
9
 73
5
 74
0
 42
0.0000001
 43
0.0000001
 44
0.0000000001
 40
0.0
 40
0.0
 40
0.0
 40
0.0
 40
0.2595383994
 40
1.0
 40
1.0
 40
1.0
 40
1.0
 10
61.7101133392
 20
82.8744167994
 30
0.0
 10
61.7133577723
 20
82.8782322852
 30
0.0
 10
61.7253017326
 20
82.8931614851
 30
0.0
 10
61.7345084766
 20
82.9120666585
 30
0.0
 10
61.7345084766
 20
82.9263556549
 30
0.0
  0
SPLINE
  5
46A
100
AcDbEntity
  8
0
100
AcDbSpline
 62
7
  6
CONTINUOUS
 70
0
 71
3
 72
9
 73
5
 74
0
 42
0.0000001
 43
0.0000001
 44
0.0000000001
 40
0.0
 40
0.0
 40
0.0
 40
0.0
 40
0.4997654615
 40
1.0
 40
1.0
 40
1.0
 40
1.0
 10
61.610538246
 20
82.325
 30
0.0
 10
61.6295584931
 20
82.325
 30
0.0
 10
61.6685461593
 20
82.3336155654
 30
0.0
 10
61.6977805414
 20
82.3599133056
 30
0.0
 10
61.7101133392
 20
82.3744167994
 30
0.0
  0
SPLINE
  5
46B
100
AcDbEntity
  8
0
100
AcDbSpline
 62
7
  6
CONTINUOUS
 70
0
 71
3
 72
9
 73
5
 74
0
 42
0.0000001
 43
0.0000001
 44
0.0000000001
 40
0.0
 40
0.0
 40
0.0
 40
0.0
 40
0.2595383994
 40
1.0
 40
1.0
 40
1.0
 40
1.0
 10
61.7101133392
 20
82.3744167994
 30
0.0
 10
61.7133577723
 20
82.3782322852
 30
0.0
 10
61.7253017326
 20
82.3931614851
 30
0.0
 10
61.7345084766
 20
82.4120666585
 30
0.0
 10
61.7345084766
 20
82.4263556549
 30
0.0
  0
SPLINE
  5
46C
100
AcDbEntity
  8
0
100
AcDbSpline
 62
7
  6
CONTINUOUS
 70
0
 71
3
 72
9
 73
5
 74
0
 42
0.0000001
 43
0.0000001
 44
0.0000000001
 40
0.0
 40
0.0
 40
0.0
 40
0.0
 40
0.4997654615
 40
1.0
 40
1.0
 40
1.0
 40
1.0
 10
61.610538246
 20
81.825
 30
0.0
 10
61.6295584931
 20
81.825
 30
0.0
 10
61.6685461593
 20
81.8336155654
 30
0.0
 10
61.6977805414
 20
81.8599133056
 30
0.0
 10
61.7101133392
 20
81.8744167994
 30
0.0
  0
SPLINE
  5
46D
100
AcDbEntity
  8
0
100
AcDbSpline
 62
7
  6
CONTINUOUS
 70
0
 71
3
 72
9
 73
5
 74
0
 42
0.0000001
 43
0.0000001
 44
0.0000000001
 40
0.0
 40
0.0
 40
0.0
 40
0.0
 40
0.2595383994
 40
1.0
 40
1.0
 40
1.0
 40
1.0
 10
61.7101133392
 20
81.8744167994
 30
0.0
 10
61.7133577723
 20
81.8782322852
 30
0.0
 10
61.7253017326
 20
81.8931614851
 30
0.0
 10
61.7345084766
 20
81.9120666585
 30
0.0
 10
61.7345084766
 20
81.9263556549
 30
0.0
  0
SPLINE
  5
46E
100
AcDbEntity
  8
0
100
AcDbSpline
 62
7
  6
CONTINUOUS
 70
0
 71
3
 72
9
 73
5
 74
0
 42
0.0000001
 43
0.0000001
 44
0.0000000001
 40
0.0
 40
0.0
 40
0.0
 40
0.0
 40
0.4997654615
 40
1.0
 40
1.0
 40
1.0
 40
1.0
 10
61.610538246
 20
81.325
 30
0.0
 10
61.6295584931
 20
81.325
 30
0.0
 10
61.6685461593
 20
81.3336155654
 30
0.0
 10
61.6977805414
 20
81.3599133056
 30
0.0
 10
61.7101133392
 20
81.3744167994
 30
0.0
  0
SPLINE
  5
46F
100
AcDbEntity
  8
0
100
AcDbSpline
 62
7
  6
CONTINUOUS
 70
0
 71
3
 72
9
 73
5
 74
0
 42
0.0000001
 43
0.0000001
 44
0.0000000001
 40
0.0
 40
0.0
 40
0.0
 40
0.0
 40
0.2595383994
 40
1.0
 40
1.0
 40
1.0
 40
1.0
 10
61.7101133392
 20
81.3744167994
 30
0.0
 10
61.7133577723
 20
81.3782322852
 30
0.0
 10
61.7253017326
 20
81.3931614851
 30
0.0
 10
61.7345084766
 20
81.4120666585
 30
0.0
 10
61.7345084766
 20
81.4263556549
 30
0.0
  0
SPLINE
  5
470
100
AcDbEntity
  8
0
100
AcDbSpline
 62
7
  6
CONTINUOUS
 70
0
 71
3
 72
9
 73
5
 74
0
 42
0.0000001
 43
0.0000001
 44
0.0000000001
 40
0.0
 40
0.0
 40
0.0
 40
0.0
 40
0.4997654615
 40
1.0
 40
1.0
 40
1.0
 40
1.0
 10
61.610538246
 20
80.825
 30
0.0
 10
61.6295584931
 20
80.825
 30
0.0
 10
61.6685461593
 20
80.8336155654
 30
0.0
 10
61.6977805414
 20
80.8599133056
 30
0.0
 10
61.7101133392
 20
80.8744167994
 30
0.0
  0
SPLINE
  5
471
100
AcDbEntity
  8
0
100
AcDbSpline
 62
7
  6
CONTINUOUS
 70
0
 71
3
 72
9
 73
5
 74
0
 42
0.0000001
 43
0.0000001
 44
0.0000000001
 40
0.0
 40
0.0
 40
0.0
 40
0.0
 40
0.2595383994
 40
1.0
 40
1.0
 40
1.0
 40
1.0
 10
61.7101133392
 20
80.8744167994
 30
0.0
 10
61.7133577723
 20
80.8782322852
 30
0.0
 10
61.7253017326
 20
80.8931614851
 30
0.0
 10
61.7345084766
 20
80.9120666585
 30
0.0
 10
61.7345084766
 20
80.9263556549
 30
0.0
  0
SPLINE
  5
472
100
AcDbEntity
  8
0
100
AcDbSpline
 62
7
  6
CONTINUOUS
 70
0
 71
3
 72
9
 73
5
 74
0
 42
0.0000001
 43
0.0000001
 44
0.0000000001
 40
0.0
 40
0.0
 40
0.0
 40
0.0
 40
0.4997654615
 40
1.0
 40
1.0
 40
1.0
 40
1.0
 10
61.610538246
 20
80.325
 30
0.0
 10
61.6295584931
 20
80.325
 30
0.0
 10
61.6685461593
 20
80.3336155654
 30
0.0
 10
61.6977805414
 20
80.3599133056
 30
0.0
 10
61.7101133392
 20
80.3744167994
 30
0.0
  0
SPLINE
  5
473
100
AcDbEntity
  8
0
100
AcDbSpline
 62
7
  6
CONTINUOUS
 70
0
 71
3
 72
9
 73
5
 74
0
 42
0.0000001
 43
0.0000001
 44
0.0000000001
 40
0.0
 40
0.0
 40
0.0
 40
0.0
 40
0.2595383994
 40
1.0
 40
1.0
 40
1.0
 40
1.0
 10
61.7101133392
 20
80.3744167994
 30
0.0
 10
61.7133577723
 20
80.3782322852
 30
0.0
 10
61.7253017326
 20
80.3931614851
 30
0.0
 10
61.7345084766
 20
80.4120666585
 30
0.0
 10
61.7345084766
 20
80.4263556549
 30
0.0
  0
SPLINE
  5
474
100
AcDbEntity
  8
0
100
AcDbSpline
 62
7
  6
CONTINUOUS
 70
0
 71
3
 72
9
 73
5
 74
0
 42
0.0000001
 43
0.0000001
 44
0.0000000001
 40
0.0
 40
0.0
 40
0.0
 40
0.0
 40
0.4997654615
 40
1.0
 40
1.0
 40
1.0
 40
1.0
 10
61.610538246
 20
79.825
 30
0.0
 10
61.6295584931
 20
79.825
 30
0.0
 10
61.6685461593
 20
79.8336155654
 30
0.0
 10
61.6977805414
 20
79.8599133056
 30
0.0
 10
61.7101133392
 20
79.8744167994
 30
0.0
  0
SPLINE
  5
475
100
AcDbEntity
  8
0
100
AcDbSpline
 62
7
  6
CONTINUOUS
 70
0
 71
3
 72
9
 73
5
 74
0
 42
0.0000001
 43
0.0000001
 44
0.0000000001
 40
0.0
 40
0.0
 40
0.0
 40
0.0
 40
0.2595383994
 40
1.0
 40
1.0
 40
1.0
 40
1.0
 10
61.7101133392
 20
79.8744167994
 30
0.0
 10
61.7133577723
 20
79.8782322852
 30
0.0
 10
61.7253017326
 20
79.8931614851
 30
0.0
 10
61.7345084766
 20
79.9120666585
 30
0.0
 10
61.7345084766
 20
79.9263556549
 30
0.0
  0
SPLINE
  5
476
100
AcDbEntity
  8
0
100
AcDbSpline
 62
7
  6
CONTINUOUS
 70
0
 71
3
 72
9
 73
5
 74
0
 42
0.0000001
 43
0.0000001
 44
0.0000000001
 40
0.0
 40
0.0
 40
0.0
 40
0.0
 40
0.4997654615
 40
1.0
 40
1.0
 40
1.0
 40
1.0
 10
61.610538246
 20
79.325
 30
0.0
 10
61.6295584931
 20
79.325
 30
0.0
 10
61.6685461593
 20
79.3336155654
 30
0.0
 10
61.6977805414
 20
79.3599133056
 30
0.0
 10
61.7101133392
 20
79.3744167994
 30
0.0
  0
SPLINE
  5
477
100
AcDbEntity
  8
0
100
AcDbSpline
 62
7
  6
CONTINUOUS
 70
0
 71
3
 72
9
 73
5
 74
0
 42
0.0000001
 43
0.0000001
 44
0.0000000001
 40
0.0
 40
0.0
 40
0.0
 40
0.0
 40
0.2595383994
 40
1.0
 40
1.0
 40
1.0
 40
1.0
 10
61.7101133392
 20
79.3744167994
 30
0.0
 10
61.7133577723
 20
79.3782322852
 30
0.0
 10
61.7253017326
 20
79.3931614851
 30
0.0
 10
61.7345084766
 20
79.4120666585
 30
0.0
 10
61.7345084766
 20
79.4263556549
 30
0.0
  0
SPLINE
  5
478
100
AcDbEntity
  8
0
100
AcDbSpline
 62
7
  6
CONTINUOUS
 70
0
 71
3
 72
9
 73
5
 74
0
 42
0.0000001
 43
0.0000001
 44
0.0000000001
 40
0.0
 40
0.0
 40
0.0
 40
0.0
 40
0.4997654615
 40
1.0
 40
1.0
 40
1.0
 40
1.0
 10
61.610538246
 20
78.825
 30
0.0
 10
61.6295584931
 20
78.825
 30
0.0
 10
61.6685461593
 20
78.8336155654
 30
0.0
 10
61.6977805414
 20
78.8599133056
 30
0.0
 10
61.7101133392
 20
78.8744167994
 30
0.0
  0
SPLINE
  5
479
100
AcDbEntity
  8
0
100
AcDbSpline
 62
7
  6
CONTINUOUS
 70
0
 71
3
 72
9
 73
5
 74
0
 42
0.0000001
 43
0.0000001
 44
0.0000000001
 40
0.0
 40
0.0
 40
0.0
 40
0.0
 40
0.2595383994
 40
1.0
 40
1.0
 40
1.0
 40
1.0
 10
61.7101133392
 20
78.8744167994
 30
0.0
 10
61.7133577723
 20
78.8782322852
 30
0.0
 10
61.7253017326
 20
78.8931614851
 30
0.0
 10
61.7345084766
 20
78.9120666585
 30
0.0
 10
61.7345084766
 20
78.9263556549
 30
0.0
  0
SPLINE
  5
47A
100
AcDbEntity
  8
0
100
AcDbSpline
 62
7
  6
CONTINUOUS
 70
0
 71
3
 72
9
 73
5
 74
0
 42
0.0000001
 43
0.0000001
 44
0.0000000001
 40
0.0
 40
0.0
 40
0.0
 40
0.0
 40
0.4997654615
 40
1.0
 40
1.0
 40
1.0
 40
1.0
 10
61.610538246
 20
78.325
 30
0.0
 10
61.6295584931
 20
78.325
 30
0.0
 10
61.6685461593
 20
78.3336155654
 30
0.0
 10
61.6977805414
 20
78.3599133056
 30
0.0
 10
61.7101133392
 20
78.3744167994
 30
0.0
  0
SPLINE
  5
47B
100
AcDbEntity
  8
0
100
AcDbSpline
 62
7
  6
CONTINUOUS
 70
0
 71
3
 72
9
 73
5
 74
0
 42
0.0000001
 43
0.0000001
 44
0.0000000001
 40
0.0
 40
0.0
 40
0.0
 40
0.0
 40
0.2595383994
 40
1.0
 40
1.0
 40
1.0
 40
1.0
 10
61.7101133392
 20
78.3744167994
 30
0.0
 10
61.7133577723
 20
78.3782322852
 30
0.0
 10
61.7253017326
 20
78.3931614851
 30
0.0
 10
61.7345084766
 20
78.4120666585
 30
0.0
 10
61.7345084766
 20
78.4263556549
 30
0.0
  0
SPLINE
  5
47C
100
AcDbEntity
  8
0
100
AcDbSpline
 62
7
  6
CONTINUOUS
 70
0
 71
3
 72
9
 73
5
 74
0
 42
0.0000001
 43
0.0000001
 44
0.0000000001
 40
0.0
 40
0.0
 40
0.0
 40
0.0
 40
0.4997654615
 40
1.0
 40
1.0
 40
1.0
 40
1.0
 10
61.610538246
 20
77.825
 30
0.0
 10
61.6295584931
 20
77.825
 30
0.0
 10
61.6685461593
 20
77.8336155654
 30
0.0
 10
61.6977805414
 20
77.8599133056
 30
0.0
 10
61.7101133392
 20
77.8744167994
 30
0.0
  0
SPLINE
  5
47D
100
AcDbEntity
  8
0
100
AcDbSpline
 62
7
  6
CONTINUOUS
 70
0
 71
3
 72
9
 73
5
 74
0
 42
0.0000001
 43
0.0000001
 44
0.0000000001
 40
0.0
 40
0.0
 40
0.0
 40
0.0
 40
0.2595383994
 40
1.0
 40
1.0
 40
1.0
 40
1.0
 10
61.7101133392
 20
77.8744167994
 30
0.0
 10
61.7133577723
 20
77.8782322852
 30
0.0
 10
61.7253017326
 20
77.8931614851
 30
0.0
 10
61.7345084766
 20
77.9120666585
 30
0.0
 10
61.7345084766
 20
77.9263556549
 30
0.0
  0
SPLINE
  5
47E
100
AcDbEntity
  8
0
100
AcDbSpline
 62
7
  6
CONTINUOUS
 70
0
 71
3
 72
9
 73
5
 74
0
 42
0.0000001
 43
0.0000001
 44
0.0000000001
 40
0.0
 40
0.0
 40
0.0
 40
0.0
 40
0.4997654615
 40
1.0
 40
1.0
 40
1.0
 40
1.0
 10
61.610538246
 20
77.325
 30
0.0
 10
61.6295584931
 20
77.325
 30
0.0
 10
61.6685461593
 20
77.3336155654
 30
0.0
 10
61.6977805414
 20
77.3599133056
 30
0.0
 10
61.7101133392
 20
77.3744167994
 30
0.0
  0
SPLINE
  5
47F
100
AcDbEntity
  8
0
100
AcDbSpline
 62
7
  6
CONTINUOUS
 70
0
 71
3
 72
9
 73
5
 74
0
 42
0.0000001
 43
0.0000001
 44
0.0000000001
 40
0.0
 40
0.0
 40
0.0
 40
0.0
 40
0.2595383994
 40
1.0
 40
1.0
 40
1.0
 40
1.0
 10
61.7101133392
 20
77.3744167994
 30
0.0
 10
61.7133577723
 20
77.3782322852
 30
0.0
 10
61.7253017326
 20
77.3931614851
 30
0.0
 10
61.7345084766
 20
77.4120666585
 30
0.0
 10
61.7345084766
 20
77.4263556549
 30
0.0
  0
SPLINE
  5
480
100
AcDbEntity
  8
0
100
AcDbSpline
 62
7
  6
CONTINUOUS
 70
0
 71
3
 72
9
 73
5
 74
0
 42
0.0000001
 43
0.0000001
 44
0.0000000001
 40
0.0
 40
0.0
 40
0.0
 40
0.0
 40
0.5168610515
 40
1.0
 40
1.0
 40
1.0
 40
1.0
 10
53.4620707383
 20
50.0442173413
 30
0.0
 10
53.4285541763
 20
50.0376131284
 30
0.0
 10
53.365497462
 20
50.014104461
 30
0.0
 10
53.3115928796
 20
49.9745864052
 30
0.0
 10
53.288312515
 20
49.9527302542
 30
0.0
  0
SPLINE
  5
481
100
AcDbEntity
  8
0
100
AcDbSpline
 62
7
  6
CONTINUOUS
 70
0
 71
3
 72
9
 73
5
 74
0
 42
0.0000001
 43
0.0000001
 44
0.0000000001
 40
0.0
 40
0.0
 40
0.0
 40
0.0
 40
0.2655355624
 40
1.0
 40
1.0
 40
1.0
 40
1.0
 10
53.288312515
 20
49.9527302542
 30
0.0
 10
53.2755092735
 20
49.9407102715
 30
0.0
 10
53.2302860062
 20
49.89233604
 30
0.0
 10
53.1970281093
 20
49.832929168
 30
0.0
 10
53.1814574641
 20
49.7869180127
 30
0.0
  0
SPLINE
  5
482
100
AcDbEntity
  8
0
100
AcDbSpline
 62
7
  6
CONTINUOUS
 70
0
 71
3
 72
9
 73
5
 74
0
 42
0.0000001
 43
0.0000001
 44
0.0000000001
 40
0.0
 40
0.0
 40
0.0
 40
0.0
 40
0.4997654615
 40
1.0
 40
1.0
 40
1.0
 40
1.0
 10
61.610538246
 20
76.825
 30
0.0
 10
61.6295584931
 20
76.825
 30
0.0
 10
61.6685461593
 20
76.8336155654
 30
0.0
 10
61.6977805414
 20
76.8599133056
 30
0.0
 10
61.7101133392
 20
76.8744167994
 30
0.0
  0
SPLINE
  5
483
100
AcDbEntity
  8
0
100
AcDbSpline
 62
7
  6
CONTINUOUS
 70
0
 71
3
 72
9
 73
5
 74
0
 42
0.0000001
 43
0.0000001
 44
0.0000000001
 40
0.0
 40
0.0
 40
0.0
 40
0.0
 40
0.2595383994
 40
1.0
 40
1.0
 40
1.0
 40
1.0
 10
61.7101133392
 20
76.8744167994
 30
0.0
 10
61.7133577723
 20
76.8782322852
 30
0.0
 10
61.7253017326
 20
76.8931614851
 30
0.0
 10
61.7345084766
 20
76.9120666585
 30
0.0
 10
61.7345084766
 20
76.9263556549
 30
0.0
  0
SPLINE
  5
484
100
AcDbEntity
  8
0
100
AcDbSpline
 62
7
  6
CONTINUOUS
 70
0
 71
3
 72
9
 73
5
 74
0
 42
0.0000001
 43
0.0000001
 44
0.0000000001
 40
0.0
 40
0.0
 40
0.0
 40
0.0
 40
0.4997654615
 40
1.0
 40
1.0
 40
1.0
 40
1.0
 10
61.610538246
 20
76.325
 30
0.0
 10
61.6295584931
 20
76.325
 30
0.0
 10
61.6685461593
 20
76.3336155654
 30
0.0
 10
61.6977805414
 20
76.3599133056
 30
0.0
 10
61.7101133392
 20
76.3744167994
 30
0.0
  0
SPLINE
  5
485
100
AcDbEntity
  8
0
100
AcDbSpline
 62
7
  6
CONTINUOUS
 70
0
 71
3
 72
9
 73
5
 74
0
 42
0.0000001
 43
0.0000001
 44
0.0000000001
 40
0.0
 40
0.0
 40
0.0
 40
0.0
 40
0.2595383994
 40
1.0
 40
1.0
 40
1.0
 40
1.0
 10
61.7101133392
 20
76.3744167994
 30
0.0
 10
61.7133577723
 20
76.3782322852
 30
0.0
 10
61.7253017326
 20
76.3931614851
 30
0.0
 10
61.7345084766
 20
76.4120666585
 30
0.0
 10
61.7345084766
 20
76.4263556549
 30
0.0
  0
SPLINE
  5
486
100
AcDbEntity
  8
0
100
AcDbSpline
 62
7
  6
CONTINUOUS
 70
0
 71
3
 72
9
 73
5
 74
0
 42
0.0000001
 43
0.0000001
 44
0.0000000001
 40
0.0
 40
0.0
 40
0.0
 40
0.0
 40
0.4997654615
 40
1.0
 40
1.0
 40
1.0
 40
1.0
 10
61.610538246
 20
75.825
 30
0.0
 10
61.6295584931
 20
75.825
 30
0.0
 10
61.6685461593
 20
75.8336155654
 30
0.0
 10
61.6977805414
 20
75.8599133056
 30
0.0
 10
61.7101133392
 20
75.8744167994
 30
0.0
  0
SPLINE
  5
487
100
AcDbEntity
  8
0
100
AcDbSpline
 62
7
  6
CONTINUOUS
 70
0
 71
3
 72
9
 73
5
 74
0
 42
0.0000001
 43
0.0000001
 44
0.0000000001
 40
0.0
 40
0.0
 40
0.0
 40
0.0
 40
0.2595383994
 40
1.0
 40
1.0
 40
1.0
 40
1.0
 10
61.7101133392
 20
75.8744167994
 30
0.0
 10
61.7133577723
 20
75.8782322852
 30
0.0
 10
61.7253017326
 20
75.8931614851
 30
0.0
 10
61.7345084766
 20
75.9120666585
 30
0.0
 10
61.7345084766
 20
75.9263556549
 30
0.0
  0
SPLINE
  5
488
100
AcDbEntity
  8
0
100
AcDbSpline
 62
7
  6
CONTINUOUS
 70
0
 71
3
 72
9
 73
5
 74
0
 42
0.0000001
 43
0.0000001
 44
0.0000000001
 40
0.0
 40
0.0
 40
0.0
 40
0.0
 40
0.4997654615
 40
1.0
 40
1.0
 40
1.0
 40
1.0
 10
61.610538246
 20
75.325
 30
0.0
 10
61.6295584931
 20
75.325
 30
0.0
 10
61.6685461593
 20
75.3336155654
 30
0.0
 10
61.6977805414
 20
75.3599133056
 30
0.0
 10
61.7101133392
 20
75.3744167994
 30
0.0
  0
SPLINE
  5
489
100
AcDbEntity
  8
0
100
AcDbSpline
 62
7
  6
CONTINUOUS
 70
0
 71
3
 72
9
 73
5
 74
0
 42
0.0000001
 43
0.0000001
 44
0.0000000001
 40
0.0
 40
0.0
 40
0.0
 40
0.0
 40
0.2595383994
 40
1.0
 40
1.0
 40
1.0
 40
1.0
 10
61.7101133392
 20
75.3744167994
 30
0.0
 10
61.7133577723
 20
75.3782322852
 30
0.0
 10
61.7253017326
 20
75.3931614851
 30
0.0
 10
61.7345084766
 20
75.4120666585
 30
0.0
 10
61.7345084766
 20
75.4263556549
 30
0.0
  0
SPLINE
  5
48A
100
AcDbEntity
  8
0
100
AcDbSpline
 62
7
  6
CONTINUOUS
 70
0
 71
3
 72
9
 73
5
 74
0
 42
0.0000001
 43
0.0000001
 44
0.0000000001
 40
0.0
 40
0.0
 40
0.0
 40
0.0
 40
0.4997654615
 40
1.0
 40
1.0
 40
1.0
 40
1.0
 10
61.610538246
 20
74.825
 30
0.0
 10
61.6295584931
 20
74.825
 30
0.0
 10
61.6685461593
 20
74.8336155654
 30
0.0
 10
61.6977805414
 20
74.8599133056
 30
0.0
 10
61.7101133392
 20
74.8744167994
 30
0.0
  0
SPLINE
  5
48B
100
AcDbEntity
  8
0
100
AcDbSpline
 62
7
  6
CONTINUOUS
 70
0
 71
3
 72
9
 73
5
 74
0
 42
0.0000001
 43
0.0000001
 44
0.0000000001
 40
0.0
 40
0.0
 40
0.0
 40
0.0
 40
0.2595383994
 40
1.0
 40
1.0
 40
1.0
 40
1.0
 10
61.7101133392
 20
74.8744167994
 30
0.0
 10
61.7133577723
 20
74.8782322852
 30
0.0
 10
61.7253017326
 20
74.8931614851
 30
0.0
 10
61.7345084766
 20
74.9120666585
 30
0.0
 10
61.7345084766
 20
74.9263556549
 30
0.0
  0
SPLINE
  5
48C
100
AcDbEntity
  8
0
100
AcDbSpline
 62
7
  6
CONTINUOUS
 70
0
 71
3
 72
9
 73
5
 74
0
 42
0.0000001
 43
0.0000001
 44
0.0000000001
 40
0.0
 40
0.0
 40
0.0
 40
0.0
 40
0.4997654615
 40
1.0
 40
1.0
 40
1.0
 40
1.0
 10
61.610538246
 20
74.325
 30
0.0
 10
61.6295584931
 20
74.325
 30
0.0
 10
61.6685461593
 20
74.3336155654
 30
0.0
 10
61.6977805414
 20
74.3599133056
 30
0.0
 10
61.7101133392
 20
74.3744167994
 30
0.0
  0
SPLINE
  5
48D
100
AcDbEntity
  8
0
100
AcDbSpline
 62
7
  6
CONTINUOUS
 70
0
 71
3
 72
9
 73
5
 74
0
 42
0.0000001
 43
0.0000001
 44
0.0000000001
 40
0.0
 40
0.0
 40
0.0
 40
0.0
 40
0.2595383994
 40
1.0
 40
1.0
 40
1.0
 40
1.0
 10
61.7101133392
 20
74.3744167994
 30
0.0
 10
61.7133577723
 20
74.3782322852
 30
0.0
 10
61.7253017326
 20
74.3931614851
 30
0.0
 10
61.7345084766
 20
74.4120666585
 30
0.0
 10
61.7345084766
 20
74.4263556549
 30
0.0
  0
SPLINE
  5
48E
100
AcDbEntity
  8
0
100
AcDbSpline
 62
7
  6
CONTINUOUS
 70
0
 71
3
 72
9
 73
5
 74
0
 42
0.0000001
 43
0.0000001
 44
0.0000000001
 40
0.0
 40
0.0
 40
0.0
 40
0.0
 40
0.4997654615
 40
1.0
 40
1.0
 40
1.0
 40
1.0
 10
61.610538246
 20
73.825
 30
0.0
 10
61.6295584931
 20
73.825
 30
0.0
 10
61.6685461593
 20
73.8336155654
 30
0.0
 10
61.6977805414
 20
73.8599133056
 30
0.0
 10
61.7101133392
 20
73.8744167994
 30
0.0
  0
SPLINE
  5
48F
100
AcDbEntity
  8
0
100
AcDbSpline
 62
7
  6
CONTINUOUS
 70
0
 71
3
 72
9
 73
5
 74
0
 42
0.0000001
 43
0.0000001
 44
0.0000000001
 40
0.0
 40
0.0
 40
0.0
 40
0.0
 40
0.2595383994
 40
1.0
 40
1.0
 40
1.0
 40
1.0
 10
61.7101133392
 20
73.8744167994
 30
0.0
 10
61.7133577723
 20
73.8782322852
 30
0.0
 10
61.7253017326
 20
73.8931614851
 30
0.0
 10
61.7345084766
 20
73.9120666585
 30
0.0
 10
61.7345084766
 20
73.9263556549
 30
0.0
  0
SPLINE
  5
490
100
AcDbEntity
  8
0
100
AcDbSpline
 62
7
  6
CONTINUOUS
 70
0
 71
3
 72
9
 73
5
 74
0
 42
0.0000001
 43
0.0000001
 44
0.0000000001
 40
0.0
 40
0.0
 40
0.0
 40
0.0
 40
0.4997654615
 40
1.0
 40
1.0
 40
1.0
 40
1.0
 10
61.610538246
 20
73.325
 30
0.0
 10
61.6295584931
 20
73.325
 30
0.0
 10
61.6685461593
 20
73.3336155654
 30
0.0
 10
61.6977805414
 20
73.3599133056
 30
0.0
 10
61.7101133392
 20
73.3744167994
 30
0.0
  0
SPLINE
  5
491
100
AcDbEntity
  8
0
100
AcDbSpline
 62
7
  6
CONTINUOUS
 70
0
 71
3
 72
9
 73
5
 74
0
 42
0.0000001
 43
0.0000001
 44
0.0000000001
 40
0.0
 40
0.0
 40
0.0
 40
0.0
 40
0.2595383994
 40
1.0
 40
1.0
 40
1.0
 40
1.0
 10
61.7101133392
 20
73.3744167994
 30
0.0
 10
61.7133577723
 20
73.3782322852
 30
0.0
 10
61.7253017326
 20
73.3931614851
 30
0.0
 10
61.7345084766
 20
73.4120666585
 30
0.0
 10
61.7345084766
 20
73.4263556549
 30
0.0
  0
SPLINE
  5
492
100
AcDbEntity
  8
0
100
AcDbSpline
 62
7
  6
CONTINUOUS
 70
0
 71
3
 72
9
 73
5
 74
0
 42
0.0000001
 43
0.0000001
 44
0.0000000001
 40
0.0
 40
0.0
 40
0.0
 40
0.0
 40
0.4997654615
 40
1.0
 40
1.0
 40
1.0
 40
1.0
 10
61.610538246
 20
72.825
 30
0.0
 10
61.6295584931
 20
72.825
 30
0.0
 10
61.6685461593
 20
72.8336155654
 30
0.0
 10
61.6977805414
 20
72.8599133056
 30
0.0
 10
61.7101133392
 20
72.8744167994
 30
0.0
  0
SPLINE
  5
493
100
AcDbEntity
  8
0
100
AcDbSpline
 62
7
  6
CONTINUOUS
 70
0
 71
3
 72
9
 73
5
 74
0
 42
0.0000001
 43
0.0000001
 44
0.0000000001
 40
0.0
 40
0.0
 40
0.0
 40
0.0
 40
0.2595383994
 40
1.0
 40
1.0
 40
1.0
 40
1.0
 10
61.7101133392
 20
72.8744167994
 30
0.0
 10
61.7133577723
 20
72.8782322852
 30
0.0
 10
61.7253017326
 20
72.8931614851
 30
0.0
 10
61.7345084766
 20
72.9120666585
 30
0.0
 10
61.7345084766
 20
72.9263556549
 30
0.0
  0
SPLINE
  5
494
100
AcDbEntity
  8
0
100
AcDbSpline
 62
7
  6
CONTINUOUS
 70
0
 71
3
 72
9
 73
5
 74
0
 42
0.0000001
 43
0.0000001
 44
0.0000000001
 40
0.0
 40
0.0
 40
0.0
 40
0.0
 40
0.4997654615
 40
1.0
 40
1.0
 40
1.0
 40
1.0
 10
61.610538246
 20
72.325
 30
0.0
 10
61.6295584931
 20
72.325
 30
0.0
 10
61.6685461593
 20
72.3336155654
 30
0.0
 10
61.6977805414
 20
72.3599133056
 30
0.0
 10
61.7101133392
 20
72.3744167994
 30
0.0
  0
SPLINE
  5
495
100
AcDbEntity
  8
0
100
AcDbSpline
 62
7
  6
CONTINUOUS
 70
0
 71
3
 72
9
 73
5
 74
0
 42
0.0000001
 43
0.0000001
 44
0.0000000001
 40
0.0
 40
0.0
 40
0.0
 40
0.0
 40
0.2595383994
 40
1.0
 40
1.0
 40
1.0
 40
1.0
 10
61.7101133392
 20
72.3744167994
 30
0.0
 10
61.7133577723
 20
72.3782322852
 30
0.0
 10
61.7253017326
 20
72.3931614851
 30
0.0
 10
61.7345084766
 20
72.4120666585
 30
0.0
 10
61.7345084766
 20
72.4263556549
 30
0.0
  0
SPLINE
  5
496
100
AcDbEntity
  8
0
100
AcDbSpline
 62
7
  6
CONTINUOUS
 70
0
 71
3
 72
9
 73
5
 74
0
 42
0.0000001
 43
0.0000001
 44
0.0000000001
 40
0.0
 40
0.0
 40
0.0
 40
0.0
 40
0.4997654615
 40
1.0
 40
1.0
 40
1.0
 40
1.0
 10
61.610538246
 20
71.825
 30
0.0
 10
61.6295584931
 20
71.825
 30
0.0
 10
61.6685461593
 20
71.8336155654
 30
0.0
 10
61.6977805414
 20
71.8599133056
 30
0.0
 10
61.7101133392
 20
71.8744167994
 30
0.0
  0
SPLINE
  5
497
100
AcDbEntity
  8
0
100
AcDbSpline
 62
7
  6
CONTINUOUS
 70
0
 71
3
 72
9
 73
5
 74
0
 42
0.0000001
 43
0.0000001
 44
0.0000000001
 40
0.0
 40
0.0
 40
0.0
 40
0.0
 40
0.2595383994
 40
1.0
 40
1.0
 40
1.0
 40
1.0
 10
61.7101133392
 20
71.8744167994
 30
0.0
 10
61.7133577723
 20
71.8782322852
 30
0.0
 10
61.7253017326
 20
71.8931614851
 30
0.0
 10
61.7345084766
 20
71.9120666585
 30
0.0
 10
61.7345084766
 20
71.9263556549
 30
0.0
  0
SPLINE
  5
498
100
AcDbEntity
  8
0
100
AcDbSpline
 62
7
  6
CONTINUOUS
 70
0
 71
3
 72
9
 73
5
 74
0
 42
0.0000001
 43
0.0000001
 44
0.0000000001
 40
0.0
 40
0.0
 40
0.0
 40
0.0
 40
0.4997654615
 40
1.0
 40
1.0
 40
1.0
 40
1.0
 10
61.610538246
 20
71.325
 30
0.0
 10
61.6295584931
 20
71.325
 30
0.0
 10
61.6685461593
 20
71.3336155654
 30
0.0
 10
61.6977805414
 20
71.3599133056
 30
0.0
 10
61.7101133392
 20
71.3744167994
 30
0.0
  0
SPLINE
  5
499
100
AcDbEntity
  8
0
100
AcDbSpline
 62
7
  6
CONTINUOUS
 70
0
 71
3
 72
9
 73
5
 74
0
 42
0.0000001
 43
0.0000001
 44
0.0000000001
 40
0.0
 40
0.0
 40
0.0
 40
0.0
 40
0.2595383994
 40
1.0
 40
1.0
 40
1.0
 40
1.0
 10
61.7101133392
 20
71.3744167994
 30
0.0
 10
61.7133577723
 20
71.3782322852
 30
0.0
 10
61.7253017326
 20
71.3931614851
 30
0.0
 10
61.7345084766
 20
71.4120666585
 30
0.0
 10
61.7345084766
 20
71.4263556549
 30
0.0
  0
SPLINE
  5
49A
100
AcDbEntity
  8
0
100
AcDbSpline
 62
7
  6
CONTINUOUS
 70
0
 71
3
 72
8
 73
4
 74
0
 42
0.0000001
 43
0.0000001
 44
0.0000000001
 40
0.0
 40
0.0
 40
0.0
 40
0.0
 40
1.0
 40
1.0
 40
1.0
 40
1.0
 10
60.9358976781
 20
93.8499990263
 30
0.0
 10
60.9319483449
 20
93.8488061296
 30
0.0
 10
60.9279365572
 20
93.8477674063
 30
0.0
 10
60.9238653956
 20
93.8470996656
 30
0.0
  0
SPLINE
  5
49B
100
AcDbEntity
  8
0
100
AcDbSpline
 62
7
  6
CONTINUOUS
 70
0
 71
3
 72
8
 73
4
 74
0
 42
0.0000001
 43
0.0000001
 44
0.0000000001
 40
0.0
 40
0.0
 40
0.0
 40
0.0
 40
1.0
 40
1.0
 40
1.0
 40
1.0
 10
60.9238653956
 20
93.8470996656
 30
0.0
 10
60.9199617889
 20
93.8467091638
 30
0.0
 10
60.9159081371
 20
93.8481305868
 30
0.0
 10
60.9124590919
 20
93.8500000049
 30
0.0
  0
SPLINE
  5
49C
100
AcDbEntity
  8
0
100
AcDbSpline
 62
7
  6
CONTINUOUS
 70
0
 71
3
 72
8
 73
4
 74
0
 42
0.0000001
 43
0.0000001
 44
0.0000000001
 40
0.0
 40
0.0
 40
0.0
 40
0.0
 40
1.0
 40
1.0
 40
1.0
 40
1.0
 10
35.1006958256
 20
93.8487494734
 30
0.0
 10
35.104263281
 20
93.8472564892
 30
0.0
 10
35.10892488
 20
93.8479920869
 30
0.0
 10
35.1122300282
 20
93.8500000049
 30
0.0
  0
SPLINE
  5
49D
100
AcDbEntity
  8
0
100
AcDbSpline
 62
7
  6
CONTINUOUS
 70
0
 71
3
 72
22
 73
18
 74
0
 42
0.0000001
 43
0.0000001
 44
0.0000000001
 40
0.0
 40
0.0
 40
0.0
 40
0.0
 40
0.1993539353
 40
0.3860330184
 40
0.5557519907
 40
0.7042256231
 40
0.7691563364
 40
0.8271688131
 40
0.8777274658
 40
0.9202967662
 40
0.9543413151
 40
0.9679995912
 40
0.9793260969
 40
0.9882541522
 40
0.9947174131
 40
0.9986507649
 40
1.0
 40
1.0
 40
1.0
 40
1.0
 10
35.1611646303
 20
96.6534904995
 30
0.0
 10
35.1146543531
 20
96.6537223327
 30
0.0
 10
35.0245906657
 20
96.6541258098
 30
0.0
 10
34.8949300827
 20
96.6545716613
 30
0.0
 10
34.7771397212
 20
96.6548433249
 30
0.0
 10
34.687754218
 20
96.6549306102
 30
0.0
 10
34.624430157
 20
96.654903382
 30
0.0
 10
34.5839517251
 20
96.6548393667
 30
0.0
 10
34.5486869036
 20
96.6547350822
 30
0.0
 10
34.5190246811
 20
96.6545812958
 30
0.0
 10
34.4979456485
 20
96.6544280151
 30
0.0
 10
34.4842034255
 20
96.6542442097
 30
0.0
 10
34.4762302075
 20
96.6541619324
 30
0.0
 10
34.4701611966
 20
96.6539196033
 30
0.0
 10
34.4652789605
 20
96.6540338836
 30
0.0
 10
34.4632124492
 20
96.6534475948
 30
0.0
 10
34.4612763814
 20
96.6538052256
 30
0.0
 10
34.4612712434
 20
96.6534904803
 30
0.0
  0
LINE
  5
49E
100
AcDbEntity
  8
0
100
AcDbLine
 62
7
  6
CONTINUOUS
 10
34.9628042565
 20
93.85
 11
35.0888045776
 21
93.8499939503
  0
SPLINE
  5
49F
100
AcDbEntity
  8
0
100
AcDbSpline
 62
7
  6
CONTINUOUS
 70
0
 71
3
 72
8
 73
4
 74
0
 42
0.0000001
 43
0.0000001
 44
0.0000000001
 40
0.0
 40
0.0
 40
0.0
 40
0.0
 40
1.0
 40
1.0
 40
1.0
 40
1.0
 10
35.0887958314
 20
93.8499986632
 30
0.0
 10
35.0927346944
 20
93.8506256988
 30
0.0
 10
35.0970266863
 20
93.8503131971
 30
0.0
 10
35.1006958256
 20
93.8487494734
 30
0.0
  0
SPLINE
  5
4A0
100
AcDbEntity
  8
0
100
AcDbSpline
 62
7
  6
CONTINUOUS
 70
0
 71
3
 72
9
 73
5
 74
0
 42
0.0000001
 43
0.0000001
 44
0.0000000001
 40
0.0
 40
0.0
 40
0.0
 40
0.0
 40
0.2762327155
 40
1.0
 40
1.0
 40
1.0
 40
1.0
 10
50.6795086572
 20
96.6534904831
 30
0.0
 10
50.6887592076
 20
96.6627382159
 30
0.0
 10
50.7222933115
 20
96.696170174
 30
0.0
 10
50.7559502599
 20
96.7294803131
 30
0.0
 10
50.7804947973
 20
96.7533997635
 30
0.0
  0
SPLINE
  5
4A1
100
AcDbEntity
  8
0
100
AcDbSpline
 62
7
  6
CONTINUOUS
 70
0
 71
3
 72
14
 73
10
 74
0
 42
0.0000001
 43
0.0000001
 44
0.0000000001
 40
0.0
 40
0.0
 40
0.0
 40
0.0
 40
0.4248955768
 40
0.5967478568
 40
0.7393372252
 40
0.8517726265
 40
0.9332047783
 40
0.9828107655
 40
1.0
 40
1.0
 40
1.0
 40
1.0
 10
50.7804947973
 20
96.7533997635
 30
0.0
 10
50.7861277192
 20
96.7588892292
 30
0.0
 10
50.794057853
 20
96.766597828
 30
0.0
 10
50.803927583
 20
96.77603843
 30
0.0
 10
50.8096801765
 20
96.7815430654
 30
0.0
 10
50.8141839575
 20
96.7856165949
 30
0.0
 10
50.8176320515
 20
96.7890556039
 30
0.0
 10
50.8195039674
 20
96.7901240624
 30
0.0
 10
50.8207050137
 20
96.7916463542
 30
0.0
 10
50.8209300116
 20
96.7914213562
 30
0.0
  0
SPLINE
  5
4A2
100
AcDbEntity
  8
0
100
AcDbSpline
 62
7
  6
CONTINUOUS
 70
0
 71
3
 72
18
 73
14
 74
0
 42
0.0000001
 43
0.0000001
 44
0.0000000001
 40
0.0
 40
0.0
 40
0.0
 40
0.0
 40
0.0054028045
 40
0.0210804234
 40
0.0467014227
 40
0.0819186442
 40
0.1262621612
 40
0.1789997199
 40
0.3065904652
 40
0.4586036071
 40
0.6290589151
 40
0.8117722096
 40
1.0
 40
1.0
 40
1.0
 40
1.0
 10
52.3623368961
 20
95.2499997951
 30
0.0
 10
52.3619622925
 20
95.2500845535
 30
0.0
 10
52.3616662259
 20
95.2477794611
 30
0.0
 10
52.3599537241
 20
95.2456592347
 30
0.0
 10
52.3579519515
 20
95.240178196
 30
0.0
 10
52.3548985825
 20
95.2335335559
 30
0.0
 10
52.3512230242
 20
95.2248083991
 30
0.0
 10
52.3449510059
 20
95.2101509171
 30
0.0
 10
52.3357628955
 20
95.1883663523
 30
0.0
 10
52.3233713728
 20
95.1588773935
 30
0.0
 10
52.3095246872
 20
95.125739541
 30
0.0
 10
52.2947355213
 20
95.0902085976
 30
0.0
 10
52.2846303547
 20
95.0658521544
 30
0.0
 10
52.2795086552
 20
95.0534904927
 30
0.0
  0
SPLINE
  5
4A3
100
AcDbEntity
  8
0
100
AcDbSpline
 62
7
  6
CONTINUOUS
 70
0
 71
3
 72
11
 73
7
 74
0
 42
0.0000001
 43
0.0000001
 44
0.0000000001
 40
0.0
 40
0.0
 40
0.0
 40
0.0
 40
0.2096791795
 40
0.444819534
 40
0.711991829
 40
1.0
 40
1.0
 40
1.0
 40
1.0
 10
61.5788263363
 20
95.7706477694
 30
0.0
 10
61.5785019233
 20
95.7892333757
 30
0.0
 10
61.5658515525
 20
95.8289197091
 30
0.0
 10
61.5191380358
 20
95.8740226796
 30
0.0
 10
61.4539700052
 20
95.9026211996
 30
0.0
 10
61.4043882687
 20
95.9088014705
 30
0.0
 10
61.3788567973
 20
95.9085786438
 30
0.0
  0
SPLINE
  5
4A4
100
AcDbEntity
  8
0
100
AcDbSpline
 62
7
  6
CONTINUOUS
 70
0
 71
3
 72
22
 73
18
 74
0
 42
0.0000001
 43
0.0000001
 44
0.0000000001
 40
0.0
 40
0.0
 40
0.0
 40
0.0
 40
0.001349505
 40
0.0052831062
 40
0.0117465926
 40
0.0206748499
 40
0.0320015347
 40
0.0456599679
 40
0.0797047675
 40
0.122274239
 40
0.1728329889
 40
0.2308454948
 40
0.2957761752
 40
0.4442495788
 40
0.6139681439
 40
0.8006466882
 40
1.0
 40
1.0
 40
1.0
 40
1.0
 10
61.5913443631
 20
95.0534904948
 30
0.0
 10
61.5913388682
 20
95.0538052967
 30
0.0
 10
61.5894034338
 20
95.0534475516
 30
0.0
 10
61.5873359837
 20
95.0540339149
 30
0.0
 10
61.5824540393
 20
95.053919603
 30
0.0
 10
61.5763846967
 20
95.0541619423
 30
0.0
 10
61.5684114361
 20
95.0542442144
 30
0.0
 10
61.5546690544
 20
95.0544280193
 30
0.0
 10
61.5335899299
 20
95.054581297
 30
0.0
 10
61.5039276057
 20
95.0547350818
 30
0.0
 10
61.4686627526
 20
95.0548393644
 30
0.0
 10
61.4281843375
 20
95.0549033783
 30
0.0
 10
61.3648603932
 20
95.0549306049
 30
0.0
 10
61.2754751332
 20
95.0548433187
 30
0.0
 10
61.1576851612
 20
95.0545716553
 30
0.0
 10
61.0280250711
 20
95.0541258054
 30
0.0
 10
60.9379617431
 20
95.0537223301
 30
0.0
 10
60.8914516569
 20
95.0534904982
 30
0.0
  0
LINE
  5
4A5
100
AcDbEntity
  8
0
100
AcDbLine
 62
7
  6
CONTINUOUS
 10
60.9358889173
 20
93.8499943069
 11
61.0619779328
 21
93.85
  0
SPLINE
  5
4A6
100
AcDbEntity
  8
0
100
AcDbSpline
 62
7
  6
CONTINUOUS
 70
0
 71
3
 72
9
 73
5
 74
0
 42
0.0000001
 43
0.0000001
 44
0.0000000001
 40
0.0
 40
0.0
 40
0.0
 40
0.0
 40
0.2371260182
 40
1.0
 40
1.0
 40
1.0
 40
1.0
 10
47.7268159081
 20
49.787083243
 30
0.0
 10
47.7217177472
 20
49.8021270706
 30
0.0
 10
47.6963811631
 20
49.8641961029
 30
0.0
 10
47.6554457443
 20
49.919963001
 30
0.0
 10
47.6179354748
 20
49.9546675905
 30
0.0
  0
SPLINE
  5
4A7
100
AcDbEntity
  8
0
100
AcDbSpline
 62
7
  6
CONTINUOUS
 70
0
 71
3
 72
9
 73
5
 74
0
 42
0.0000001
 43
0.0000001
 44
0.0000000001
 40
0.0
 40
0.0
 40
0.0
 40
0.0
 40
0.483542867
 40
1.0
 40
1.0
 40
1.0
 40
1.0
 10
47.6179354748
 20
49.9546675905
 30
0.0
 10
47.5948100041
 20
49.9760633304
 30
0.0
 10
47.5414614263
 20
50.0147057486
 30
0.0
 10
47.479272943
 20
50.0377120165
 30
0.0
 10
47.4462582412
 20
50.0442173413
 30
0.0
  0
ENDSEC
  0
SECTION
  2
OBJECTS
  0
DICTIONARY
  5
C
100
AcDbDictionary
280
0
281
1
  3
ACAD_GROUP
350
D
  3
ACAD_MLINESTYLE
350
17
  3
ACAD_LAYOUT
350
1A
  3
ACAD_PLOTSETTINGS
350
19
  3
ACAD_PLOTSTYLENAME
350
E
  0
DICTIONARY
  5
D
102
{ACAD_REACTORS
330
C
102
}
100
AcDbDictionary
280
0
281
1
  0
ACDBDICTIONARYWDFLT
  5
E
102
{ACAD_REACTORS
330
C
102
}
100
AcDbDictionary
281
1
  3
Normal
350
F
100
AcDbDictionaryWithDefault
340
F
  0
DICTIONARY
  5
17
102
{ACAD_REACTORS
330
C
102
}
100
AcDbDictionary
280
0
281
1
  3
Standard
350
18
  0
DICTIONARY
  5
19
102
{ACAD_REACTORS
330
C
102
}
100
AcDbDictionary
281
1
  0
DICTIONARY
  5
1A
102
{ACAD_REACTORS
330
C
102
}
100
AcDbDictionary
281
1
  3
Model
350
4A8
  3
Layout1
350
4A9
  0
ACDBPLACEHOLDER
  5
F
102
{ACAD_REACTORS
330
E
102
}
  0
MLINESTYLE
  5
18
102
{ACAD_REACTORS
330
17
102
}
100
AcDbMlineStyle
  2
STANDARD
 70
0
  3

 62
256
 51
90.0
 52
90.0
 71
2
 49
0.5
 62
256
  6
BYLAYER
 49
-0.5
 62
256
  6
BYLAYER
  0
LAYOUT
  5
4A8
102
{ACAD_REACTORS
330
1A
102
}
100
AcDbPlotSettings
  1

  2
none_device
  4

  6

 40
0.0
 41
0.0
 42
0.0
 43
0.0
 44
210.0
 45
297.0
 46
0.0
 47
0.0
 48
0.0
 49
0.0
140
0.0
141
0.0
142
1.0
143
1.0
 70
1024
 72
1
 73
0
 74
0
  7

 75
0
147
1.0
148
0.0
149
0.0
100
AcDbLayout
  1
Model
 70
0
 71
0
 10
0.0
 20
0.0
 11
210.0
 21
297.0
 12
0.0
 22
0.0
 32
0.0
 14
0.0
 24
0.0
 34
0.0
 15
0.0
 25
0.0
 35
0.0
146
0.0
 13
0.0
 23
0.0
 33
0.0
 16
1.0
 26
0.0
 36
0.0
 17
0.0
 27
1.0
 37
0.0
 76
0
330
210
345
0
346
0
  0
LAYOUT
  5
4A9
102
{ACAD_REACTORS
330
1A
102
}
100
AcDbPlotSettings
  1

  2
none_device
  4

  6

 40
0.0
 41
0.0
 42
0.0
 43
0.0
 44
210.0
 45
297.0
 46
0.0
 47
0.0
 48
0.0
 49
0.0
140
0.0
141
0.0
142
1.0
143
1.0
 70
0
 72
1
 73
0
 74
0
  7

 75
0
147
1.0
148
0.0
149
0.0
100
AcDbLayout
  1
Layout1
 70
0
 71
1
 10
0.0
 20
0.0
 11
210.0
 21
297.0
 12
0.0
 22
0.0
 32
0.0
 14
0.0
 24
0.0
 34
0.0
 15
0.0
 25
0.0
 35
0.0
146
0.0
 13
0.0
 23
0.0
 33
0.0
 16
1.0
 26
0.0
 36
0.0
 17
0.0
 27
1.0
 37
0.0
 76
0
330
211
345
0
346
0
  0
ENDSEC
  0
EOF
