999
DXF file: C:\Users\sesa63760\Dev\_Creo\CAD\MCADUE0002367_3D-CAD\drw0001_5.dxf
999
Pro/ENGINEER 2019471 by Parametric Technology Corporation
  0
SECTION
  2
HEADER
  9
$ACADVER
  1
AC1024
  9
$DWGCODEPAGE
  3
ANSI_1252
  9
$EXTMAX
 10
59.7887033601
 20
84.5583090379
 30
0.0
  9
$EXTMIN
 10
0.0
 20
0.0
 30
0.0
  9
$LIMMIN
 10
0.0
 20
0.0
  9
$LIMMAX
 10
59.7887033601
 20
84.5583090379
  9
$VIEWCTR
 10
29.8943516801
 20
42.279154519
  9
$VIEWSIZE
 40
84.5583090379
  9
$CLAYER
  8
0
  9
$LTSCALE
 40
5.5119490336
  9
$CELTYPE
  6
BYLAYER
  9
$DIMSCALE
 40
1.0
  9
$DIMASZ
 40
0.7117702781
  9
$DIMEXO
 40
1.0
  9
$DIMDLI
 40
3.8082556959
  9
$DIMEXE
 40
1.0
  9
$DIMCEN
 40
0.9019552964
  9
$DIMLFAC
 40
1.0
  9
$DIMBLK
  1
_FILLED
  9
$DIMALT
 70
0
  9
$DIMALTF
 40
0.0393700787
  9
$DIMTXT
 40
0.9964783893
  9
$DIMTOL
 70
1
  9
$DIMLIM
 70
0
  9
$DIMTFAC
 40
1.0
  9
$DIMTP
 40
0.01
  9
$DIMTM
 40
0.01
  9
$DIMGAP
 40
0.625
  9
$DIMDSEP
 70
46
  9
$AUNITS
 70
0
  9
$PDMODE
 70
3
  9
$PDSIZE
 40
0.3125
  9
$HANDSEED
  5
2DB
  9
$TILEMODE
 70
1
  9
$MEASUREMENT
 70
1
  9
$INSUNITS
 70
4
  0
ENDSEC
  0
SECTION
  2
CLASSES
  0
CLASS
  1
ACDBDICTIONARYWDFLT
  2
AcDbDictionaryWithDefault
  3
AutoCAD 2000
 90
0
 91
1
280
0
281
0
  0
CLASS
  1
ACDBPLACEHOLDER
  2
AcDbPlaceHolder
  3
AutoCAD 2000
 90
0
 91
1
280
0
281
0
  0
CLASS
  1
LAYOUT
  2
AcDbLayout
  3
AutoCAD 2000
 90
0
 91
0
280
0
281
0
  0
ENDSEC
  0
SECTION
  2
TABLES
  0
TABLE
  2
VPORT
  5
8
100
AcDbSymbolTable
 70
2
  0
VPORT
  5
1F4
100
AcDbSymbolTableRecord
100
AcDbViewportTableRecord
  2
*ACTIVE
 70
0
 10
0.0
 20
0.0
 11
1.0
 21
1.0
 12
29.8943516801
 22
42.279154519
 13
0.0
 23
0.0
 14
1.0
 24
1.0
 15
0.0
 25
0.0
 16
0.0
 26
0.0
 36
1.0
 17
0.0
 27
0.0
 37
0.0
 40
84.5583090379
 41
0.7070707071
 42
50.0
 43
0.0
 44
0.0
 50
0.0
 51
0.0
 71
0
 72
100
 73
1
 74
1
 75
0
 76
0
 77
0
 78
0
  0
ENDTAB
  0
TABLE
  2
LTYPE
  5
5
100
AcDbSymbolTable
 70
6
  0
LTYPE
  5
14
100
AcDbSymbolTableRecord
100
AcDbLinetypeTableRecord
  2
BYBLOCK
 70
0
  3

 72
65
 73
0
 40
0.0
  0
LTYPE
  5
15
100
AcDbSymbolTableRecord
100
AcDbLinetypeTableRecord
  2
BYLAYER
 70
0
  3

 72
65
 73
0
 40
0.0
  0
LTYPE
  5
16
100
AcDbSymbolTableRecord
100
AcDbLinetypeTableRecord
  2
CONTINUOUS
 70
64
  3
Solid line
 72
65
 73
0
 40
0.0
  0
LTYPE
  5
1F5
100
AcDbSymbolTableRecord
100
AcDbLinetypeTableRecord
  2
CENTER
 70
64
  3
____ _ ____ _ ____ _ ____ _ ____ _ ____ _ ____
 72
65
 73
4
 40
0.6
 49
0.375
 74
0
 49
-0.075
 74
0
 49
0.075
 74
0
 49
-0.075
 74
0
  0
LTYPE
  5
1F6
100
AcDbSymbolTableRecord
100
AcDbLinetypeTableRecord
  2
HIDDEN
 70
64
  3
- - - - - - - - - - - - - - - - - - - -
 72
65
 73
2
 40
0.2
 49
0.1
 74
0
 49
-0.1
 74
0
  0
LTYPE
  5
1F7
100
AcDbSymbolTableRecord
100
AcDbLinetypeTableRecord
  2
PHANTOM
 70
64
  3
_____ _ _ _____ _ _ _____ _ _ _____
 72
65
 73
6
 40
0.8
 49
0.45
 74
0
 49
-0.05
 74
0
 49
0.1
 74
0
 49
-0.05
 74
0
 49
0.1
 74
0
 49
-0.05
 74
0
  0
LTYPE
  5
1F8
100
AcDbSymbolTableRecord
100
AcDbLinetypeTableRecord
  2
DOT
 70
64
  3
. . . . . . . . . . . . . . . . . . . .
 72
65
 73
2
 40
0.2
 49
0.1
 74
0
 49
-0.1
 74
0
  0
LTYPE
  5
1F9
100
AcDbSymbolTableRecord
100
AcDbLinetypeTableRecord
  2
DASHED
 70
64
  3
- - - - - - - - - - - - - - - - - - - -
 72
65
 73
2
 40
0.2
 49
0.1
 74
0
 49
-0.1
 74
0
  0
ENDTAB
  0
TABLE
  2
LAYER
  5
2
100
AcDbSymbolTable
 70
36
  0
LAYER
  5
10
100
AcDbSymbolTableRecord
100
AcDbLayerTableRecord
  2
0
 70
0
 62
7
  6
CONTINUOUS
370
-3
390
F
  0
LAYER
  5
1FA
100
AcDbSymbolTableRecord
100
AcDbLayerTableRecord
  2
DEFAULT_1
 70
0
 62
7
  6
CENTER
370
-3
390
F
  0
LAYER
  5
1FB
100
AcDbSymbolTableRecord
100
AcDbLayerTableRecord
  2
DEFAULT_2
 70
0
 62
8
  6
HIDDEN
370
-3
390
F
  0
LAYER
  5
1FC
100
AcDbSymbolTableRecord
100
AcDbLayerTableRecord
  2
DEFAULT_3
 70
0
 62
7
  6
PHANTOM
370
-3
390
F
  0
LAYER
  5
1FD
100
AcDbSymbolTableRecord
100
AcDbLayerTableRecord
  2
00_COMPONENTS
 70
0
 62
7
  6
CONTINUOUS
370
-3
390
F
  0
LAYER
  5
1FE
100
AcDbSymbolTableRecord
100
AcDbLayerTableRecord
  2
01_1_DEFAULT_DATUMS
 70
0
 62
7
  6
CONTINUOUS
370
-3
390
F
  0
LAYER
  5
1FF
100
AcDbSymbolTableRecord
100
AcDbLayerTableRecord
  2
01_PLANES
 70
0
 62
7
  6
CONTINUOUS
370
-3
390
F
  0
LAYER
  5
200
100
AcDbSymbolTableRecord
100
AcDbLayerTableRecord
  2
02_COORD_SYS
 70
0
 62
7
  6
CONTINUOUS
370
-3
390
F
  0
LAYER
  5
201
100
AcDbSymbolTableRecord
100
AcDbLayerTableRecord
  2
03_AXES
 70
0
 62
7
  6
CONTINUOUS
370
-3
390
F
  0
LAYER
  5
202
100
AcDbSymbolTableRecord
100
AcDbLayerTableRecord
  2
04_POINTS
 70
0
 62
7
  6
CONTINUOUS
370
-3
390
F
  0
LAYER
  5
203
100
AcDbSymbolTableRecord
100
AcDbLayerTableRecord
  2
05_CURVES
 70
0
 62
7
  6
CONTINUOUS
370
-3
390
F
  0
LAYER
  5
204
100
AcDbSymbolTableRecord
100
AcDbLayerTableRecord
  2
06_SURFS
 70
0
 62
7
  6
CONTINUOUS
370
-3
390
F
  0
LAYER
  5
205
100
AcDbSymbolTableRecord
100
AcDbLayerTableRecord
  2
07_COSMETICS
 70
0
 62
7
  6
CONTINUOUS
370
-3
390
F
  0
LAYER
  5
206
100
AcDbSymbolTableRecord
100
AcDbLayerTableRecord
  2
10_NOTES
 70
0
 62
7
  6
CONTINUOUS
370
-3
390
F
  0
LAYER
  5
207
100
AcDbSymbolTableRecord
100
AcDbLayerTableRecord
  2
11_NOTES_PUB
 70
0
 62
7
  6
CONTINUOUS
370
-3
390
F
  0
LAYER
  5
208
100
AcDbSymbolTableRecord
100
AcDbLayerTableRecord
  2
13_REF_GTOL
 70
0
 62
7
  6
CONTINUOUS
370
-3
390
F
  0
LAYER
  5
209
100
AcDbSymbolTableRecord
100
AcDbLayerTableRecord
  2
16_MISC
 70
0
 62
7
  6
CONTINUOUS
370
-3
390
F
  0
LAYER
  5
20A
100
AcDbSymbolTableRecord
100
AcDbLayerTableRecord
  2
17_NO_PRINT
 70
0
 62
7
  6
CONTINUOUS
370
-3
390
F
  0
LAYER
  5
20B
100
AcDbSymbolTableRecord
100
AcDbLayerTableRecord
  2
18_DATUM_CAMS_JOINTS
 70
0
 62
7
  6
CONTINUOUS
370
-3
390
F
  0
LAYER
  5
20C
100
AcDbSymbolTableRecord
100
AcDbLayerTableRecord
  2
19_DATUM_FUNCTIONAL
 70
0
 62
7
  6
CONTINUOUS
370
-3
390
F
  0
LAYER
  5
20D
100
AcDbSymbolTableRecord
100
AcDbLayerTableRecord
  2
20_DATUM_KINEMATIC_SCHEME
 70
0
 62
7
  6
CONTINUOUS
370
-3
390
F
  0
ENDTAB
  0
TABLE
  2
STYLE
  5
3
100
AcDbSymbolTable
 70
1
  0
STYLE
  5
11
100
AcDbSymbolTableRecord
100
AcDbTextStyleTableRecord
  2
STANDARD
 70
0
 40
0.0
 41
0.8
 50
0.0
 71
0
 42
0.2
  3
txt
  4

  0
STYLE
  5
20E
100
AcDbSymbolTableRecord
100
AcDbTextStyleTableRecord
  2
TEXTSTYLE_1
 70
0
 40
0.0
 41
0.8
 50
0.0
 71
0
 42
0.2
  3
gdt
  4

  0
ENDTAB
  0
TABLE
  2
VIEW
  5
6
100
AcDbSymbolTable
 70
0
  0
ENDTAB
  0
TABLE
  2
UCS
  5
7
100
AcDbSymbolTable
 70
0
  0
ENDTAB
  0
TABLE
  2
APPID
  5
9
100
AcDbSymbolTable
 70
1
  0
APPID
  5
20F
100
AcDbSymbolTableRecord
100
AcDbRegAppTableRecord
  2
ACAD
 70
0
  0
ENDTAB
  0
TABLE
  2
BLOCK_RECORD
  5
1
100
AcDbSymbolTable
 70
0
  0
BLOCK_RECORD
  5
210
100
AcDbSymbolTableRecord
100
AcDbBlockTableRecord
  2
*Model_Space
  0
BLOCK_RECORD
  5
211
100
AcDbSymbolTableRecord
100
AcDbBlockTableRecord
  2
*Paper_Space
  0
BLOCK_RECORD
  5
212
100
AcDbSymbolTableRecord
100
AcDbBlockTableRecord
  2
_FILLED
  0
ENDTAB
  0
TABLE
  2
DIMSTYLE
  5
A
100
AcDbSymbolTable
 70
1
100
AcDbDimStyleTable
 71
0
  0
DIMSTYLE
105
213
100
AcDbSymbolTableRecord
100
AcDbDimStyleTableRecord
  2
STANDARD
 70
0
  3

  4

 40
1.0
 41
0.7117702781
 42
1.0
 43
0.38
 44
1.0
 45
0.0
 46
0.0
 47
0.01
 48
0.01
140
0.9964783893
141
0.09
142
0.0
143
25.4
144
1.0
145
0.0
146
1.0
147
0.625
 71
1
 72
0
 73
0
 74
0
 75
0
 76
0
 77
1
 78
8
 79
2
170
0
171
1
172
0
173
0
174
0
175
0
176
0
177
0
178
0
270
2
179
2
271
2
272
2
273
2
274
2
275
0
280
0
281
0
282
0
283
1
284
8
285
0
286
0
287
3
288
0
340
11
278
46
341
212
342
212
343
212
344
212
  0
ENDTAB
  0
ENDSEC
  0
SECTION
  2
BLOCKS
  0
BLOCK
  5
20
100
AcDbEntity
  8
0
100
AcDbBlockBegin
  2
*Model_Space
 70
0
 10
0.0
 20
0.0
 30
0.0
  3
*Model_Space
  1

  0
ENDBLK
  5
21
100
AcDbEntity
  8
0
100
AcDbBlockEnd
  0
BLOCK
  5
1C
100
AcDbEntity
  8
0
100
AcDbBlockBegin
  2
*Paper_Space
 70
0
 10
0.0
 20
0.0
 30
0.0
  3
*Paper_Space
  1

  0
ENDBLK
  5
1D
100
AcDbEntity
  8
0
100
AcDbBlockEnd
  0
BLOCK
  5
214
100
AcDbEntity
  8
0
100
AcDbBlockBegin
  2
_FILLED
 70
64
 10
0.0
 20
0.0
  3
_FILLED
  1

  0
SOLID
  5
215
100
AcDbEntity
  8
0
  6
BYBLOCK
 62
0
100
AcDbTrace
 10
0.0
 20
0.0
 11
-1.0
 21
0.25
 12
-1.0
 22
-0.25
 13
-1.0
 23
-0.25
  0
ENDBLK
  5
216
100
AcDbEntity
  8
0
  6
BYBLOCK
 62
0
100
AcDbBlockEnd
  0
ENDSEC
  0
SECTION
  2
ENTITIES
  0
LINE
  5
217
100
AcDbEntity
  8
0
100
AcDbLine
 62
7
  6
CONTINUOUS
 10
13.9703102148
 20
73.5309950654
 11
13.9725903631
 21
73.5324841957
  0
LINE
  5
218
100
AcDbEntity
  8
0
100
AcDbLine
 62
7
  6
CONTINUOUS
 10
15.469895375
 20
73.5307598596
 11
15.4722253692
 21
73.5320787674
  0
LINE
  5
219
100
AcDbEntity
  8
0
100
AcDbLine
 62
7
  6
CONTINUOUS
 10
46.2228154627
 20
6.8826530612
 11
38.7228154627
 21
6.8826530612
  0
LINE
  5
21A
100
AcDbEntity
  8
0
100
AcDbLine
 62
7
  6
CONTINUOUS
 10
40.2228154627
 20
7.4116182726
 11
46.2228154627
 21
7.4116182726
  0
LINE
  5
21B
100
AcDbEntity
  8
0
100
AcDbLine
 62
7
  6
CONTINUOUS
 10
16.2225457497
 20
11.2341813499
 11
16.2199045962
 21
11.2357663284
  0
LINE
  5
21C
100
AcDbEntity
  8
0
100
AcDbLine
 62
7
  6
CONTINUOUS
 10
14.7200727963
 20
11.2354942753
 11
14.7222432364
 21
11.2341662585
  0
LINE
  5
21D
100
AcDbEntity
  8
0
100
AcDbLine
 62
7
  6
CONTINUOUS
 10
13.9721430362
 20
73.5285511928
 11
13.7228154627
 21
73.1961808934
  0
LINE
  5
21E
100
AcDbEntity
  8
0
100
AcDbLine
 62
7
  6
CONTINUOUS
 10
16.9698378113
 20
73.5299094316
 11
16.9725383213
 21
73.5319154304
  0
LINE
  5
21F
100
AcDbEntity
  8
0
100
AcDbLine
 62
7
  6
CONTINUOUS
 10
18.4701026372
 20
73.5313858961
 11
18.4725385668
 21
73.5330222558
  0
LINE
  5
220
100
AcDbEntity
  8
0
100
AcDbLine
 62
7
  6
CONTINUOUS
 10
19.9701197016
 20
73.5303476961
 11
19.9725374662
 21
73.5319171166
  0
LINE
  5
221
100
AcDbEntity
  8
0
100
AcDbLine
 62
7
  6
CONTINUOUS
 10
40.2228154627
 20
10.5017882164
 11
46.2228154627
 21
10.5017882164
  0
LINE
  5
222
100
AcDbEntity
  8
0
100
AcDbLine
 62
7
  6
CONTINUOUS
 10
19.2201747254
 20
11.2342750223
 11
19.2225394824
 21
11.2328471362
  0
LINE
  5
223
100
AcDbEntity
  8
0
100
AcDbLine
 62
7
  6
CONTINUOUS
 10
17.7226382744
 20
11.2337019106
 11
17.7201266943
 21
11.2353304394
  0
LINE
  5
224
100
AcDbEntity
  8
0
100
AcDbLine
 62
7
  6
CONTINUOUS
 10
13.9711792303
 20
12.2354421873
 11
14.7206507607
 21
11.2362648897
  0
LINE
  5
225
100
AcDbEntity
  8
0
100
AcDbLine
 62
7
  6
CONTINUOUS
 10
15.4700991399
 20
73.5304881632
 11
14.7202371119
 21
72.5307269611
  0
LINE
  5
226
100
AcDbEntity
  8
0
100
AcDbLine
 62
7
  6
CONTINUOUS
 10
16.9709962196
 20
73.5283648506
 11
16.2208689603
 21
72.5283720281
  0
LINE
  5
227
100
AcDbEntity
  8
0
100
AcDbLine
 62
7
  6
CONTINUOUS
 10
21.4730926041
 20
73.5319154304
 11
21.4706261354
 21
73.5302817039
  0
LINE
  5
228
100
AcDbEntity
  8
0
100
AcDbLine
 62
7
  6
CONTINUOUS
 10
22.9730933387
 20
73.5320192574
 11
22.9706000722
 21
73.5303874679
  0
LINE
  5
229
100
AcDbEntity
  8
0
100
AcDbLine
 62
7
  6
CONTINUOUS
 10
24.4701751256
 20
73.5307752529
 11
24.4725380694
 21
73.5322118691
  0
LINE
  5
22A
100
AcDbEntity
  8
0
100
AcDbLine
 62
7
  6
CONTINUOUS
 10
23.720133007
 20
11.2339007766
 11
23.7225385724
 21
11.2323730376
  0
LINE
  5
22B
100
AcDbEntity
  8
0
100
AcDbLine
 62
7
  6
CONTINUOUS
 10
25.2200653114
 20
11.235071461
 11
25.2225370727
 21
11.2333890273
  0
LINE
  5
22C
100
AcDbEntity
  8
0
100
AcDbLine
 62
7
  6
CONTINUOUS
 10
22.2199739573
 20
11.2346416471
 11
22.2223334199
 21
11.2330146435
  0
LINE
  5
22D
100
AcDbEntity
  8
0
100
AcDbLine
 62
7
  6
CONTINUOUS
 10
20.7196005546
 20
11.2343521
 11
20.7220668342
 21
11.2324674754
  0
LINE
  5
22E
100
AcDbEntity
  8
0
100
AcDbLine
 62
7
  6
CONTINUOUS
 10
15.4695444616
 20
12.2361561772
 11
16.2202171363
 21
11.2353496452
  0
LINE
  5
22F
100
AcDbEntity
  8
0
100
AcDbLine
 62
7
  6
CONTINUOUS
 10
16.9702236431
 20
12.2351211173
 11
17.7203220293
 21
11.2350700131
  0
LINE
  5
230
100
AcDbEntity
  8
0
100
AcDbLine
 62
7
  6
CONTINUOUS
 10
18.470793759
 20
73.5304643419
 11
17.720298288
 21
72.5298935024
  0
LINE
  5
231
100
AcDbEntity
  8
0
100
AcDbLine
 62
7
  6
CONTINUOUS
 10
19.9699986919
 20
73.5305090475
 11
19.2203171572
 21
72.5309871262
  0
LINE
  5
232
100
AcDbEntity
  8
0
100
AcDbLine
 62
7
  6
CONTINUOUS
 10
21.4704021343
 20
73.5299830621
 11
20.720267899
 21
72.5298938179
  0
LINE
  5
233
100
AcDbEntity
  8
0
100
AcDbLine
 62
7
  6
CONTINUOUS
 10
25.9700263166
 20
73.5306160703
 11
25.9725382009
 21
73.5324451108
  0
LINE
  5
234
100
AcDbEntity
  8
0
100
AcDbLine
 62
7
  6
CONTINUOUS
 10
27.4701728578
 20
73.5306029877
 11
27.4725368714
 21
73.5322112685
  0
LINE
  5
235
100
AcDbEntity
  8
0
100
AcDbLine
 62
7
  6
CONTINUOUS
 10
28.970158722
 20
73.5312622231
 11
28.9725390828
 21
73.5327202272
  0
LINE
  5
236
100
AcDbEntity
  8
0
100
AcDbLine
 62
7
  6
CONTINUOUS
 10
29.7201587572
 20
11.234769545
 11
29.7225381345
 21
11.2332860591
  0
LINE
  5
237
100
AcDbEntity
  8
0
100
AcDbLine
 62
7
  6
CONTINUOUS
 10
26.7201017879
 20
11.2349818856
 11
26.7225374753
 21
11.2333890181
  0
LINE
  5
238
100
AcDbEntity
  8
0
100
AcDbLine
 62
7
  6
CONTINUOUS
 10
28.220071246
 20
11.2341097433
 11
28.222538008
 21
11.2323734783
  0
LINE
  5
239
100
AcDbEntity
  8
0
100
AcDbLine
 62
7
  6
CONTINUOUS
 10
18.4703687957
 20
12.2348788246
 11
19.2205251939
 21
11.23474234
  0
LINE
  5
23A
100
AcDbEntity
  8
0
100
AcDbLine
 62
7
  6
CONTINUOUS
 10
19.970218543
 20
12.2348766466
 11
20.7201332303
 21
11.2350623518
  0
LINE
  5
23B
100
AcDbEntity
  8
0
100
AcDbLine
 62
7
  6
CONTINUOUS
 10
22.970521496
 20
73.5302827084
 11
22.2202415284
 21
72.5299957899
  0
LINE
  5
23C
100
AcDbEntity
  8
0
100
AcDbLine
 62
7
  6
CONTINUOUS
 10
24.4703309864
 20
73.5305674286
 11
23.7203707345
 21
72.5306839466
  0
LINE
  5
23D
100
AcDbEntity
  8
0
100
AcDbLine
 62
7
  6
CONTINUOUS
 10
30.4700321781
 20
73.5302519153
 11
30.4725371394
 21
73.5320198538
  0
LINE
  5
23E
100
AcDbEntity
  8
0
100
AcDbLine
 62
7
  6
CONTINUOUS
 10
33.4730934593
 20
73.5319171166
 11
33.4706578706
 21
73.5302831734
  0
LINE
  5
23F
100
AcDbEntity
  8
0
100
AcDbLine
 62
7
  6
CONTINUOUS
 10
31.9701328696
 20
73.5303216115
 11
31.9725383213
 21
73.5319154304
  0
LINE
  5
240
100
AcDbEntity
  8
0
100
AcDbLine
 62
7
  6
CONTINUOUS
 10
40.2228154627
 20
17.6791949964
 11
46.2228154627
 21
17.6791949964
  0
LINE
  5
241
100
AcDbEntity
  8
0
100
AcDbLine
 62
7
  6
CONTINUOUS
 10
32.7226382744
 20
11.2337019106
 11
32.7201266943
 21
11.2353304394
  0
LINE
  5
242
100
AcDbEntity
  8
0
100
AcDbLine
 62
7
  6
CONTINUOUS
 10
31.2224668638
 20
11.2341221757
 11
31.2199822162
 21
11.2357423851
  0
LINE
  5
243
100
AcDbEntity
  8
0
100
AcDbLine
 62
7
  6
CONTINUOUS
 10
34.2230925421
 20
11.2328456709
 11
34.2207278113
 21
11.2344722025
  0
LINE
  5
244
100
AcDbEntity
  8
0
100
AcDbLine
 62
7
  6
CONTINUOUS
 10
21.470353176
 20
12.2351226842
 11
22.2203739946
 21
11.235175045
  0
LINE
  5
245
100
AcDbEntity
  8
0
100
AcDbLine
 62
7
  6
CONTINUOUS
 10
22.9703282084
 20
12.2353112691
 11
23.7207919286
 21
11.2347793974
  0
LINE
  5
246
100
AcDbEntity
  8
0
100
AcDbLine
 62
7
  6
CONTINUOUS
 10
25.9703168985
 20
73.5302286132
 11
25.2202236235
 21
72.5301843453
  0
LINE
  5
247
100
AcDbEntity
  8
0
100
AcDbLine
 62
7
  6
CONTINUOUS
 10
27.4730947842
 20
73.5324478565
 11
26.7203692807
 21
72.5304147606
  0
LINE
  5
248
100
AcDbEntity
  8
0
100
AcDbLine
 62
7
  6
CONTINUOUS
 10
24.4702635728
 20
12.2344083939
 11
25.2199369513
 21
11.2349003094
  0
LINE
  5
249
100
AcDbEntity
  8
0
100
AcDbLine
 62
7
  6
CONTINUOUS
 10
25.9702982879
 20
12.2354126202
 11
26.7203952118
 21
11.2353731301
  0
LINE
  5
24A
100
AcDbEntity
  8
0
100
AcDbLine
 62
7
  6
CONTINUOUS
 10
27.470267899
 20
12.2354123047
 11
28.2206916796
 21
11.2349370341
  0
LINE
  5
24B
100
AcDbEntity
  8
0
100
AcDbLine
 62
7
  6
CONTINUOUS
 10
28.9706907927
 20
73.5305527505
 11
28.2203531835
 21
72.5301827788
  0
LINE
  5
24C
100
AcDbEntity
  8
0
100
AcDbLine
 62
7
  6
CONTINUOUS
 10
30.4699920741
 20
73.5303053888
 11
29.7202305111
 21
72.5306867213
  0
LINE
  5
24D
100
AcDbEntity
  8
0
100
AcDbLine
 62
7
  6
CONTINUOUS
 10
17.4726385454
 20
26.8080617161
 11
16.7230851515
 21
27.3077547342
  0
LINE
  5
24E
100
AcDbEntity
  8
0
100
AcDbLine
 62
7
  6
CONTINUOUS
 10
28.9703548426
 20
12.2344117467
 11
29.7201438263
 21
11.2347496363
  0
LINE
  5
24F
100
AcDbEntity
  8
0
100
AcDbLine
 62
7
  6
CONTINUOUS
 10
30.4702415285
 20
12.2353103248
 11
31.2204051398
 21
11.2351785346
  0
LINE
  5
250
100
AcDbEntity
  8
0
100
AcDbLine
 62
7
  6
CONTINUOUS
 10
13.7228154627
 20
73.1961330166
 11
13.7228154627
 21
11.8986170469
  0
LINE
  5
251
100
AcDbEntity
  8
0
100
AcDbLine
 62
7
  6
CONTINUOUS
 10
31.9703854635
 20
73.5299848096
 11
31.2203282084
 21
72.5299948456
  0
LINE
  5
252
100
AcDbEntity
  8
0
100
AcDbLine
 62
7
  6
CONTINUOUS
 10
33.470793759
 20
73.5304643419
 11
32.720298288
 21
72.5298935024
  0
LINE
  5
253
100
AcDbEntity
  8
0
100
AcDbLine
 62
7
  6
CONTINUOUS
 10
40.2228154627
 20
25.7693649401
 11
46.2228154627
 21
25.7693649401
  0
LINE
  5
254
100
AcDbEntity
  8
0
100
AcDbLine
 62
7
  6
CONTINUOUS
 10
31.9702236431
 20
12.2351211173
 11
32.7203220293
 21
11.2350700131
  0
LINE
  5
255
100
AcDbEntity
  8
0
100
AcDbLine
 62
7
  6
CONTINUOUS
 10
33.4703687957
 20
12.2348788246
 11
34.2205251939
 21
11.23474234
  0
LINE
  5
256
100
AcDbEntity
  8
0
100
AcDbLine
 62
7
  6
CONTINUOUS
 10
34.9699986919
 20
73.5305090475
 11
34.2203171572
 21
72.5309871262
  0
LINE
  5
257
100
AcDbEntity
  8
0
100
AcDbLine
 62
7
  6
CONTINUOUS
 10
34.970218543
 20
12.2348766466
 11
35.7201332303
 21
11.2350623518
  0
LINE
  5
258
100
AcDbEntity
  8
0
100
AcDbLine
 62
7
  6
CONTINUOUS
 10
32.4730927246
 20
26.8077589657
 11
31.7230851515
 21
27.3077547342
  0
LINE
  5
259
100
AcDbEntity
  8
0
100
AcDbLine
 62
7
  6
CONTINUOUS
 10
40.2228154627
 20
37.3826530612
 11
46.2228154627
 21
37.3826530612
  0
LINE
  5
25A
100
AcDbEntity
  8
0
100
AcDbLine
 62
7
  6
CONTINUOUS
 10
35.7228154627
 20
9.7326530612
 11
35.7228154627
 21
75.0326530612
  0
LINE
  5
25B
100
AcDbEntity
  8
0
100
AcDbLine
 62
7
  6
CONTINUOUS
 10
13.7228154627
 20
11.8986293442
 11
13.9754480256
 21
12.2354454345
  0
LINE
  5
25C
100
AcDbEntity
  8
0
100
AcDbLine
 62
7
  6
CONTINUOUS
 10
16.7225485136
 20
27.3077514247
 11
15.9720687795
 21
26.8074408282
  0
LINE
  5
25D
100
AcDbEntity
  8
0
100
AcDbLine
 62
7
  6
CONTINUOUS
 10
40.2228154627
 20
47.3826530612
 11
46.2228154627
 21
47.3826530612
  0
LINE
  5
25E
100
AcDbEntity
  8
0
100
AcDbLine
 62
7
  6
CONTINUOUS
 10
14.7253254782
 20
72.5306826095
 11
13.9768417412
 21
73.5285925696
  0
LINE
  5
25F
100
AcDbEntity
  8
0
100
AcDbLine
 62
7
  6
CONTINUOUS
 10
38.7228154627
 20
6.8826530612
 11
38.7228154627
 21
77.8826530612
  0
LINE
  5
260
100
AcDbEntity
  8
0
100
AcDbLine
 62
7
  6
CONTINUOUS
 10
16.2254176862
 20
11.2353893686
 11
16.9752777494
 21
12.2351226842
  0
LINE
  5
261
100
AcDbEntity
  8
0
100
AcDbLine
 62
7
  6
CONTINUOUS
 10
14.7251112898
 20
11.2362924655
 11
15.4751474405
 21
12.2362133593
  0
LINE
  5
262
100
AcDbEntity
  8
0
100
AcDbLine
 62
7
  6
CONTINUOUS
 10
16.2261679252
 20
72.5283791066
 11
15.4745589954
 21
73.5304264198
  0
LINE
  5
263
100
AcDbEntity
  8
0
100
AcDbLine
 62
7
  6
CONTINUOUS
 10
17.7253630264
 20
72.5298938179
 11
16.9764439697
 21
73.5283629666
  0
LINE
  5
264
100
AcDbEntity
  8
0
100
AcDbLine
 62
7
  6
CONTINUOUS
 10
40.2228154627
 20
77.3536878498
 11
40.2228154627
 21
74.2635179061
  0
LINE
  5
265
100
AcDbEntity
  8
0
100
AcDbLine
 62
7
  6
CONTINUOUS
 10
40.2228154627
 20
67.0861111261
 11
40.2228154627
 21
58.9959411823
  0
LINE
  5
266
100
AcDbEntity
  8
0
100
AcDbLine
 62
7
  6
CONTINUOUS
 10
40.2228154627
 20
47.3826530612
 11
40.2228154627
 21
37.3826530612
  0
LINE
  5
267
100
AcDbEntity
  8
0
100
AcDbLine
 62
7
  6
CONTINUOUS
 10
40.2228154627
 20
25.7693649401
 11
40.2228154627
 21
17.6791949963
  0
LINE
  5
268
100
AcDbEntity
  8
0
100
AcDbLine
 62
7
  6
CONTINUOUS
 10
40.2228154627
 20
10.5017882164
 11
40.2228154627
 21
7.4116182726
  0
LINE
  5
269
100
AcDbEntity
  8
0
100
AcDbLine
 62
7
  6
CONTINUOUS
 10
17.7254976952
 20
11.2350623518
 11
18.4754123824
 21
12.2348766466
  0
LINE
  5
26A
100
AcDbEntity
  8
0
100
AcDbLine
 62
7
  6
CONTINUOUS
 10
19.2251057315
 20
11.23474234
 11
19.9752621298
 21
12.2348788246
  0
LINE
  5
26B
100
AcDbEntity
  8
0
100
AcDbLine
 62
7
  6
CONTINUOUS
 10
20.7253088961
 20
11.2350700131
 11
21.4754072824
 21
12.2351211173
  0
LINE
  5
26C
100
AcDbEntity
  8
0
100
AcDbLine
 62
7
  6
CONTINUOUS
 10
19.2253137683
 20
72.5309871262
 11
18.4756322335
 21
73.5305090475
  0
LINE
  5
26D
100
AcDbEntity
  8
0
100
AcDbLine
 62
7
  6
CONTINUOUS
 10
20.7253326375
 20
72.5298935024
 11
19.9748371665
 21
73.5304643419
  0
LINE
  5
26E
100
AcDbEntity
  8
0
100
AcDbLine
 62
7
  6
CONTINUOUS
 10
22.2252257857
 20
11.2351785346
 11
22.975389397
 21
12.2353103248
  0
LINE
  5
26F
100
AcDbEntity
  8
0
100
AcDbLine
 62
7
  6
CONTINUOUS
 10
23.7254870992
 20
11.2347496363
 11
24.4752760829
 21
12.2344117467
  0
LINE
  5
270
100
AcDbEntity
  8
0
100
AcDbLine
 62
7
  6
CONTINUOUS
 10
31.7225480168
 20
27.3077510636
 11
30.9720687795
 21
26.8074408282
  0
LINE
  5
271
100
AcDbEntity
  8
0
100
AcDbLine
 62
7
  6
CONTINUOUS
 10
22.2253027171
 20
72.5299948456
 11
21.4752454619
 21
73.5299848096
  0
LINE
  5
272
100
AcDbEntity
  8
0
100
AcDbLine
 62
7
  6
CONTINUOUS
 10
23.7254004144
 20
72.5306867213
 11
22.9756388514
 21
73.5303053888
  0
LINE
  5
273
100
AcDbEntity
  8
0
100
AcDbLine
 62
7
  6
CONTINUOUS
 10
46.2228154627
 20
77.8826530612
 11
46.2228154627
 21
6.8826530612
  0
LINE
  5
274
100
AcDbEntity
  8
0
100
AcDbLine
 62
7
  6
CONTINUOUS
 10
25.2249392459
 20
11.2349370341
 11
25.9753630264
 21
12.2354123047
  0
LINE
  5
275
100
AcDbEntity
  8
0
100
AcDbLine
 62
7
  6
CONTINUOUS
 10
26.7252357137
 20
11.2353731301
 11
27.4753326375
 21
12.2354126202
  0
LINE
  5
276
100
AcDbEntity
  8
0
100
AcDbLine
 62
7
  6
CONTINUOUS
 10
25.2252777419
 20
72.5301827788
 11
24.4749401327
 21
73.5305527505
  0
LINE
  5
277
100
AcDbEntity
  8
0
100
AcDbLine
 62
7
  6
CONTINUOUS
 10
26.7252616447
 20
72.5304147606
 11
25.9752621066
 21
73.5303416974
  0
LINE
  5
278
100
AcDbEntity
  8
0
100
AcDbLine
 62
7
  6
CONTINUOUS
 10
28.225407302
 20
72.5301843453
 11
27.4753140269
 21
73.5302286132
  0
LINE
  5
279
100
AcDbEntity
  8
0
100
AcDbLine
 62
7
  6
CONTINUOUS
 10
47.7228154627
 20
76.3825326527
 11
47.7228154627
 21
8.3827734698
  0
LINE
  5
27A
100
AcDbEntity
  8
0
100
AcDbLine
 62
7
  6
CONTINUOUS
 10
28.2256939741
 20
11.2349003094
 11
28.9753673526
 21
12.2344083939
  0
LINE
  5
27B
100
AcDbEntity
  8
0
100
AcDbLine
 62
7
  6
CONTINUOUS
 10
29.7248389968
 20
11.2347793974
 11
30.4753027171
 21
12.2353112691
  0
LINE
  5
27C
100
AcDbEntity
  8
0
100
AcDbLine
 62
7
  6
CONTINUOUS
 10
20.7255512924
 20
11.2347468082
 11
20.7230932411
 21
11.2328471368
  0
LINE
  5
27D
100
AcDbEntity
  8
0
100
AcDbLine
 62
7
  6
CONTINUOUS
 10
16.222538935
 20
11.2330947304
 11
16.2249192559
 21
11.234724847
  0
LINE
  5
27E
100
AcDbEntity
  8
0
100
AcDbLine
 62
7
  6
CONTINUOUS
 10
40.2228154627
 20
58.9959411823
 11
46.2228154627
 21
58.9959411823
  0
LINE
  5
27F
100
AcDbEntity
  8
0
100
AcDbLine
 62
7
  6
CONTINUOUS
 10
13.9725903631
 20
73.5324841957
 11
13.9750932245
 21
73.5309237696
  0
LINE
  5
280
100
AcDbEntity
  8
0
100
AcDbLine
 62
7
  6
CONTINUOUS
 10
16.9772908974
 20
73.5294921322
 11
16.9746625263
 21
73.5312675928
  0
LINE
  5
281
100
AcDbEntity
  8
0
100
AcDbLine
 62
7
  6
CONTINUOUS
 10
29.7252601909
 20
72.5306839466
 11
28.9752999391
 21
73.5305674286
  0
LINE
  5
282
100
AcDbEntity
  8
0
100
AcDbLine
 62
7
  6
CONTINUOUS
 10
31.225389397
 20
72.5299957899
 11
30.4751094295
 21
73.5302827084
  0
LINE
  5
283
100
AcDbEntity
  8
0
100
AcDbLine
 62
7
  6
CONTINUOUS
 10
31.2252569308
 20
11.235175045
 11
31.9752777494
 21
12.2351226842
  0
LINE
  5
284
100
AcDbEntity
  8
0
100
AcDbLine
 62
7
  6
CONTINUOUS
 10
32.7254976952
 20
11.2350623518
 11
33.4754123824
 21
12.2348766466
  0
LINE
  5
285
100
AcDbEntity
  8
0
100
AcDbLine
 62
7
  6
CONTINUOUS
 10
19.2225394824
 20
11.2328471362
 11
19.2249041015
 21
11.2344735189
  0
LINE
  5
286
100
AcDbEntity
  8
0
100
AcDbLine
 62
7
  6
CONTINUOUS
 10
22.2255326094
 20
11.2347694205
 11
22.2230920859
 21
11.2330946031
  0
LINE
  5
287
100
AcDbEntity
  8
0
100
AcDbLine
 62
7
  6
CONTINUOUS
 10
17.7225376844
 20
11.2328471368
 11
17.7250546593
 21
11.2344716788
  0
LINE
  5
288
100
AcDbEntity
  8
0
100
AcDbLine
 62
7
  6
CONTINUOUS
 10
15.4752715297
 20
73.5313765455
 11
15.4728423495
 21
73.5326328961
  0
LINE
  5
289
100
AcDbEntity
  8
0
100
AcDbLine
 62
7
  6
CONTINUOUS
 10
18.4725385668
 20
73.5330222558
 11
18.4749566914
 21
73.5314097237
  0
LINE
  5
28A
100
AcDbEntity
  8
0
100
AcDbLine
 62
7
  6
CONTINUOUS
 10
19.9725374662
 20
73.5319171166
 11
19.9749730548
 21
73.5302831734
  0
LINE
  5
28B
100
AcDbEntity
  8
0
100
AcDbLine
 62
7
  6
CONTINUOUS
 10
21.472538595
 20
73.5320194414
 11
21.4749440042
 21
73.5303867192
  0
LINE
  5
28C
100
AcDbEntity
  8
0
100
AcDbLine
 62
7
  6
CONTINUOUS
 10
32.7253630264
 20
72.5298938179
 11
31.9752287911
 21
73.5299830621
  0
LINE
  5
28D
100
AcDbEntity
  8
0
100
AcDbLine
 62
7
  6
CONTINUOUS
 10
34.2253137683
 20
72.5309871262
 11
33.4756322335
 21
73.5305090475
  0
LINE
  5
28E
100
AcDbEntity
  8
0
100
AcDbLine
 62
7
  6
CONTINUOUS
 10
34.2251057315
 20
11.23474234
 11
34.9752621298
 21
12.2348788246
  0
LINE
  5
28F
100
AcDbEntity
  8
0
100
AcDbLine
 62
7
  6
CONTINUOUS
 10
26.7225374753
 20
11.2333890181
 11
26.7249731275
 21
11.2350230461
  0
LINE
  5
290
100
AcDbEntity
  8
0
100
AcDbLine
 62
7
  6
CONTINUOUS
 10
25.2225370727
 20
11.2333890273
 11
25.2250034944
 21
11.2350226913
  0
LINE
  5
291
100
AcDbEntity
  8
0
100
AcDbLine
 62
7
  6
CONTINUOUS
 10
22.9725361581
 20
73.5327220751
 11
22.9750415122
 21
73.5311017919
  0
LINE
  5
292
100
AcDbEntity
  8
0
100
AcDbLine
 62
7
  6
CONTINUOUS
 10
24.4725380694
 20
73.5322118691
 11
24.4749183028
 21
73.5305818548
  0
LINE
  5
293
100
AcDbEntity
  8
0
100
AcDbLine
 62
7
  6
CONTINUOUS
 10
25.9725383937
 20
73.5324478428
 11
25.9749024387
 21
73.5308212207
  0
LINE
  5
294
100
AcDbEntity
  8
0
100
AcDbLine
 62
7
  6
CONTINUOUS
 10
35.7253326375
 20
72.5298935024
 11
34.9748371665
 21
73.5304643419
  0
LINE
  5
295
100
AcDbEntity
  8
0
100
AcDbLine
 62
7
  6
CONTINUOUS
 10
31.222538935
 20
11.2330947304
 11
31.2249192292
 21
11.2347248114
  0
LINE
  5
296
100
AcDbEntity
  8
0
100
AcDbLine
 62
7
  6
CONTINUOUS
 10
29.7225381345
 20
11.2332860591
 11
29.7249434462
 21
11.2349186514
  0
LINE
  5
297
100
AcDbEntity
  8
0
100
AcDbLine
 62
7
  6
CONTINUOUS
 10
28.222538008
 20
11.2323734783
 11
28.2250101292
 21
11.2339885661
  0
LINE
  5
298
100
AcDbEntity
  8
0
100
AcDbLine
 62
7
  6
CONTINUOUS
 10
40.2228154627
 20
67.0861111261
 11
46.2228154627
 21
67.0861111261
  0
LINE
  5
299
100
AcDbEntity
  8
0
100
AcDbLine
 62
7
  6
CONTINUOUS
 10
27.4725368714
 20
73.5322112685
 11
27.4750485134
 21
73.5305826036
  0
LINE
  5
29A
100
AcDbEntity
  8
0
100
AcDbLine
 62
7
  6
CONTINUOUS
 10
28.9725390828
 20
73.5327202272
 11
28.9749021982
 21
73.531097717
  0
LINE
  5
29B
100
AcDbEntity
  8
0
100
AcDbLine
 62
7
  6
CONTINUOUS
 10
30.4755865768
 20
73.5309189344
 11
30.4730929043
 21
73.5327195911
  0
LINE
  5
29C
100
AcDbEntity
  8
0
100
AcDbLine
 62
7
  6
CONTINUOUS
 10
32.7252042752
 20
11.2354535931
 11
32.7226382744
 21
11.2337019106
  0
LINE
  5
29D
100
AcDbEntity
  8
0
100
AcDbLine
 62
7
  6
CONTINUOUS
 10
34.2254571872
 20
11.234273706
 11
34.2230925421
 21
11.2328456709
  0
LINE
  5
29E
100
AcDbEntity
  8
0
100
AcDbLine
 62
7
  6
CONTINUOUS
 10
31.9755587437
 20
73.5304230155
 11
31.9730922125
 21
73.5320192842
  0
LINE
  5
29F
100
AcDbEntity
  8
0
100
AcDbLine
 62
7
  6
CONTINUOUS
 10
33.4755112239
 20
73.5303476961
 11
33.4730934593
 21
73.5319171166
  0
LINE
  5
2A0
100
AcDbEntity
  8
0
100
AcDbLine
 62
7
  6
CONTINUOUS
 10
34.9755282883
 20
73.5313858961
 11
34.9730923587
 21
73.5330222558
  0
LINE
  5
2A1
100
AcDbEntity
  8
0
100
AcDbLine
 62
7
  6
CONTINUOUS
 10
40.2228154627
 20
74.2635179061
 11
46.2228154627
 21
74.2635179061
  0
LINE
  5
2A2
100
AcDbEntity
  8
0
100
AcDbLine
 62
7
  6
CONTINUOUS
 10
40.2228154627
 20
77.3536878498
 11
46.2228154627
 21
77.3536878498
  0
LINE
  5
2A3
100
AcDbEntity
  8
0
100
AcDbLine
 62
7
  6
CONTINUOUS
 10
46.2228154627
 20
77.8826530612
 11
38.7228154627
 21
77.8826530612
  0
ARC
  5
2A4
100
AcDbEntity
  8
0
100
AcDbCircle
 62
7
  6
CONTINUOUS
 10
37.2228154627
 20
9.7326530612
 40
1.5
100
AcDbArc
 50
180.0
 51
360.0
  0
ARC
  5
2A5
100
AcDbEntity
  8
0
100
AcDbCircle
 62
7
  6
CONTINUOUS
 10
37.2228154627
 20
75.0326530612
 40
1.5
100
AcDbArc
 50
0.0
 51
180.0
  0
ARC
  5
2A6
100
AcDbEntity
  8
0
100
AcDbCircle
 62
7
  6
CONTINUOUS
 10
46.2228154627
 20
8.3826530612
 40
1.5
100
AcDbArc
 50
270.0
 51
360.0
  0
ARC
  5
2A7
100
AcDbEntity
  8
0
100
AcDbCircle
 62
7
  6
CONTINUOUS
 10
46.2228154627
 20
76.3826530612
 40
1.5
100
AcDbArc
 50
0.0
 51
90.0
  0
ARC
  5
2A8
100
AcDbEntity
  8
0
100
AcDbCircle
 62
7
  6
CONTINUOUS
 10
46.3524717155
 20
8.84050394
 40
1.3703438467
100
AcDbArc
 50
341.3580008545
 51
359.978170057
  0
ARC
  5
2A9
100
AcDbEntity
  8
0
100
AcDbCircle
 62
7
  6
CONTINUOUS
 10
46.3525196771
 20
75.9248031316
 40
1.3702958847
100
AcDbArc
 50
0.0217910227
 51
18.6424802699
  0
SPLINE
  5
2AA
100
AcDbEntity
  8
0
100
AcDbSpline
 62
7
  6
CONTINUOUS
 70
0
 71
3
 72
9
 73
5
 74
0
 42
0.0000001
 43
0.0000001
 44
0.0000000001
 40
0.0
 40
0.0
 40
0.0
 40
0.0
 40
0.2063368259
 40
1.0
 40
1.0
 40
1.0
 40
1.0
 10
35.7228074212
 20
11.2328674111
 30
0.0
 10
35.7226096115
 20
11.2328960642
 30
0.0
 10
35.721670187
 20
11.2331871891
 30
0.0
 10
35.7209704567
 20
11.2339556279
 30
0.0
 10
35.7205114947
 20
11.234572406
 30
0.0
  0
SPLINE
  5
2AB
100
AcDbEntity
  8
0
100
AcDbSpline
 62
7
  6
CONTINUOUS
 70
0
 71
3
 72
38
 73
34
 74
0
 42
0.0000001
 43
0.0000001
 44
0.0000000001
 40
0.0
 40
0.0
 40
0.0
 40
0.0
 40
0.1599412204
 40
0.2450157942
 40
0.331586335
 40
0.4181795663
 40
0.5033378306
 40
0.5856250344
 40
0.6636218258
 40
0.7360348128
 40
0.7697626768
 40
0.8016332377
 40
0.8315079568
 40
0.8592737175
 40
0.8848198575
 40
0.9080357264
 40
0.9288106961
 40
0.9470457353
 40
0.9551909236
 40
0.9626787756
 40
0.9695024643
 40
0.9756551733
 40
0.9811301021
 40
0.9859204759
 40
0.9900195631
 40
0.9934207119
 40
0.996117878
 40
0.9972019564
 40
0.9981100409
 40
0.9988425438
 40
0.9994001587
 40
0.9997843716
 40
1.0
 40
1.0
 40
1.0
 40
1.0
 10
30.9725370187
 20
26.8077552795
 30
0.0
 10
30.9504952874
 20
29.2988938909
 30
0.0
 10
30.9192685094
 20
33.1151201043
 30
0.0
 10
30.8789834184
 20
38.2797343902
 30
0.0
 10
30.848157316
 20
42.3019233277
 30
0.0
 10
30.8173239299
 20
46.3254157725
 30
0.0
 10
30.7864995903
 20
50.2821892898
 30
0.0
 10
30.7557037962
 20
54.10506119
 30
0.0
 10
30.724924063
 20
57.7294067177
 30
0.0
 10
30.6987394138
 20
60.5974058603
 30
0.0
 10
30.6775816116
 20
62.7469603949
 30
0.0
 10
30.6620964885
 20
64.2339645878
 30
0.0
 10
30.6466146806
 20
65.6280980709
 30
0.0
 10
30.6311451788
 20
66.9237163662
 30
0.0
 10
30.6156921203
 20
68.1156089999
 30
0.0
 10
30.6002628604
 20
69.1986038494
 30
0.0
 10
30.5848617723
 20
70.1677090059
 30
0.0
 10
30.5716017942
 20
70.90207713
 30
0.0
 10
30.5608655792
 20
71.4294955325
 30
0.0
 10
30.5531251403
 20
71.7791949348
 30
0.0
 10
30.5453922991
 20
72.0978515128
 30
0.0
 10
30.5376688403
 20
72.3851449839
 30
0.0
 10
30.5299593527
 20
72.6407555284
 30
0.0
 10
30.5222681652
 20
72.8643628082
 30
0.0
 10
30.514611488
 20
73.0556498635
 30
0.0
 10
30.5069926269
 20
73.2143008865
 30
0.0
 10
30.5003327116
 20
73.3259849627
 30
0.0
 10
30.4948011148
 20
73.3988113007
 30
0.0
 10
30.4909920866
 20
73.4410950977
 30
0.0
 10
30.4871812441
 20
73.4750878646
 30
0.0
 10
30.4835261781
 20
73.5010071408
 30
0.0
 10
30.4797960232
 20
73.5184773608
 30
0.0
 10
30.4770461269
 20
73.5277006469
 30
0.0
 10
30.4750308559
 20
73.5303874643
 30
0.0
  0
SPLINE
  5
2AC
100
AcDbEntity
  8
0
100
AcDbSpline
 62
7
  6
CONTINUOUS
 70
0
 71
3
 72
65
 73
61
 74
0
 42
0.0000001
 43
0.0000001
 44
0.0000000001
 40
0.0
 40
0.0
 40
0.0
 40
0.0
 40
0.0001082614
 40
0.0002867692
 40
0.0005378121
 40
0.0008620893
 40
0.0017312123
 40
0.0028948349
 40
0.0043527759
 40
0.0061045946
 40
0.0081494967
 40
0.0104864055
 40
0.013114202
 40
0.0160317471
 40
0.0227313643
 40
0.0305700161
 40
0.0395233574
 40
0.0495662721
 40
0.0606749636
 40
0.0728273467
 40
0.0860011182
 40
0.1152810156
 40
0.1482060048
 40
0.1844692279
 40
0.2237404863
 40
0.2656383752
 40
0.3097592049
 40
0.3556866696
 40
0.4029913996
 40
0.4512176907
 40
0.4999048071
 40
0.5485936552
 40
0.5968212502
 40
0.6441299814
 40
0.6900692598
 40
0.7341959952
 40
0.7761000187
 40
0.8153887305
 40
0.8516656515
 40
0.8845995968
 40
0.9138921218
 40
0.9270765884
 40
0.9392417989
 40
0.9503616987
 40
0.9604106767
 40
0.9693665159
 40
0.9772095616
 40
0.9839204499
 40
0.9868459106
 40
0.9894821117
 40
0.9918271203
 40
0.9938790211
 40
0.995635961
 40
0.9970970599
 40
0.9982625758
 40
0.9991330877
 40
0.9994581232
 40
0.9997101172
 40
0.9998899108
 40
1.0
 40
1.0
 40
1.0
 40
1.0
 10
24.474858522
 20
73.5306617473
 30
0.0
 10
24.4762077658
 20
73.528863165
 30
0.0
 10
24.4783283393
 20
73.5231593492
 30
0.0
 10
24.481064398
 20
73.51238948
 30
0.0
 10
24.4838368865
 20
73.4969421236
 30
0.0
 10
24.4880547967
 20
73.4672548173
 30
0.0
 10
24.4930437085
 20
73.4185325557
 30
0.0
 10
24.4987698049
 20
73.346267876
 30
0.0
 10
24.5045330002
 20
73.2556172044
 30
0.0
 10
24.5103194928
 20
73.1466397959
 30
0.0
 10
24.5160986878
 20
73.0193841881
 30
0.0
 10
24.5218762441
 20
72.8739203454
 30
0.0
 10
24.5276516732
 20
72.7103203473
 30
0.0
 10
24.5357304335
 20
72.4561405499
 30
0.0
 10
24.5456634685
 20
72.0937463748
 30
0.0
 10
24.5571726266
 20
71.605999117
 30
0.0
 10
24.5687208379
 20
71.0488010031
 30
0.0
 10
24.5802917629
 20
70.4236771792
 30
0.0
 10
24.59187115
 20
69.7321044366
 30
0.0
 10
24.6034603604
 20
68.9755008226
 30
0.0
 10
24.6194887049
 20
67.8415355037
 30
0.0
 10
24.6392659395
 20
66.2761681764
 30
0.0
 10
24.6623195252
 20
64.2312761488
 30
0.0
 10
24.6854107589
 20
61.9788683912
 30
0.0
 10
24.7085266196
 20
59.5400995116
 30
0.0
 10
24.7316603851
 20
56.9381343465
 30
0.0
 10
24.7548115995
 20
54.1979256708
 30
0.0
 10
24.7779769637
 20
51.3454220419
 30
0.0
 10
24.8011430418
 20
48.4076519891
 30
0.0
 10
24.8243143863
 20
45.4125667911
 30
0.0
 10
24.8474900573
 20
42.3887349092
 30
0.0
 10
24.8706665939
 20
39.3648759541
 30
0.0
 10
24.8938390601
 20
36.3696446174
 30
0.0
 10
24.9170058947
 20
33.4315190319
 30
0.0
 10
24.9401675621
 20
30.5785642576
 30
0.0
 10
24.9633213963
 20
27.8378601756
 30
0.0
 10
24.9864599698
 20
25.2352824938
 30
0.0
 10
25.0095685831
 20
22.795739145
 30
0.0
 10
25.0326613854
 20
20.5424983937
 30
0.0
 10
25.0557190259
 20
18.4968736271
 30
0.0
 10
25.0754941513
 20
16.9308358429
 30
0.0
 10
25.0915240273
 20
15.7961196907
 30
0.0
 10
25.1031157665
 20
15.0387947296
 30
0.0
 10
25.1146936552
 20
14.3465967725
 30
0.0
 10
25.1262543199
 20
13.721062112
 30
0.0
 10
25.1377929731
 20
13.1635946877
 30
0.0
 10
25.1493076674
 20
12.6754702083
 30
0.0
 10
25.1592753401
 20
12.312587048
 30
0.0
 10
25.1673835122
 20
12.0578348773
 30
0.0
 10
25.1731731744
 20
11.8937279212
 30
0.0
 10
25.178948022
 20
11.7477755009
 30
0.0
 10
25.1847005343
 20
11.6200984017
 30
0.0
 10
25.1904257688
 20
11.5108001423
 30
0.0
 10
25.1961011023
 20
11.4199324086
 30
0.0
 10
25.2017447902
 20
11.3475269945
 30
0.0
 10
25.2066885841
 20
11.2987158435
 30
0.0
 10
25.2109056038
 20
11.26896247
 30
0.0
 10
25.213701798
 20
11.2534570804
 30
0.0
 10
25.216479097
 20
11.2426076608
 30
0.0
 10
25.2186598448
 20
11.2368576965
 30
0.0
 10
25.2200368547
 20
11.2350324995
 30
0.0
  0
SPLINE
  5
2AD
100
AcDbEntity
  8
0
100
AcDbSpline
 62
7
  6
CONTINUOUS
 70
0
 71
3
 72
65
 73
61
 74
0
 42
0.0000001
 43
0.0000001
 44
0.0000000001
 40
0.0
 40
0.0
 40
0.0
 40
0.0
 40
0.0001092949
 40
0.0002883192
 40
0.0005394963
 40
0.0008636332
 40
0.0017320243
 40
0.0028948933
 40
0.0043527276
 40
0.0061057153
 40
0.0081531215
 40
0.0104934123
 40
0.0131249948
 40
0.0160462571
 40
0.0227512581
 40
0.0305918714
 40
0.039546117
 40
0.049591503
 40
0.0607051346
 40
0.0728635987
 40
0.0860431701
 40
0.1153321126
 40
0.148263301
 40
0.1845354717
 40
0.2238196394
 40
0.2657245131
 40
0.3098521873
 40
0.3557898508
 40
0.4031010986
 40
0.4513325088
 40
0.5000245218
 40
0.5487162843
 40
0.5969469426
 40
0.6442569392
 40
0.6901928686
 40
0.734318342
 40
0.7762205799
 40
0.8155016797
 40
0.8517703754
 40
0.8846977703
 40
0.9139825774
 40
0.9271599448
 40
0.9393161496
 40
0.9504274873
 40
0.9604705588
 40
0.9694224403
 40
0.9772605766
 40
0.9839629451
 40
0.9868828713
 40
0.9895131435
 40
0.9918521785
 40
0.9938984106
 40
0.995650332
 40
0.9971072309
 40
0.9982693092
 40
0.9991370681
 40
0.9994609532
 40
0.9997119251
 40
0.9998907957
 40
1.0
 40
1.0
 40
1.0
 40
1.0
 10
21.4749314624
 20
73.5304045002
 30
0.0
 10
21.476294037
 20
73.5285890807
 30
0.0
 10
21.478448543
 20
73.5228652233
 30
0.0
 10
21.4812074703
 20
73.5120624387
 30
0.0
 10
21.4839938202
 20
73.4966077575
 30
0.0
 10
21.4882117946
 20
73.4669350815
 30
0.0
 10
21.4931773629
 20
73.4182444602
 30
0.0
 10
21.4988594548
 20
73.3460091701
 30
0.0
 10
21.5045756449
 20
73.2553490082
 30
0.0
 10
21.5103292572
 20
73.1462954998
 30
0.0
 10
21.5160942758
 20
73.018892345
 30
0.0
 10
21.5218707822
 20
72.8732271347
 30
0.0
 10
21.5276544002
 20
72.7094008768
 30
0.0
 10
21.5357500565
 20
72.4549532978
 30
0.0
 10
21.5457026194
 20
72.0923290325
 30
0.0
 10
21.5572154208
 20
71.6044094217
 30
0.0
 10
21.5687591745
 20
71.0470991618
 30
0.0
 10
21.5803256456
 20
70.4218011902
 30
0.0
 10
21.5919056283
 20
69.7299467301
 30
0.0
 10
21.60349755
 20
68.9729921548
 30
0.0
 10
21.6195284649
 20
67.8385898083
 30
0.0
 10
21.6393049336
 20
66.2727820406
 30
0.0
 10
21.6623633794
 20
64.2273832472
 30
0.0
 10
21.6854580129
 20
61.9743880045
 30
0.0
 10
21.7085716099
 20
59.5350148777
 30
0.0
 10
21.7317099037
 20
56.9324888619
 30
0.0
 10
21.7548645451
 20
54.1917753255
 30
0.0
 10
21.7780303927
 20
51.3387762695
 30
0.0
 10
21.8011986524
 20
48.4005464573
 30
0.0
 10
21.8243723844
 20
45.4051115007
 30
0.0
 10
21.8475506079
 20
42.3810046407
 30
0.0
 10
21.8707288287
 20
39.356913398
 30
0.0
 10
21.893902554
 20
36.3615252466
 30
0.0
 10
21.9170708135
 20
33.4233730557
 30
0.0
 10
21.940236644
 20
30.5704817109
 30
0.0
 10
21.9633912898
 20
27.8299046406
 30
0.0
 10
21.9865295683
 20
25.2275427917
 30
0.0
 10
22.0096430038
 20
22.7883602977
 30
0.0
 10
22.032737951
 20
20.5355797403
 30
0.0
 10
22.0557961904
 20
18.490417803
 30
0.0
 10
22.0755715143
 20
16.92482048
 30
0.0
 10
22.0916043282
 20
15.7905967577
 30
0.0
 10
22.1031978887
 20
15.0337825613
 30
0.0
 10
22.1147778767
 20
14.3420707551
 30
0.0
 10
22.1263391642
 20
13.7169175218
 30
0.0
 10
22.1378769106
 20
13.1597557782
 30
0.0
 10
22.1493899197
 20
12.6719914121
 30
0.0
 10
22.1593595312
 20
12.3095015068
 30
0.0
 10
22.1674707819
 20
12.0551641161
 30
0.0
 10
22.1732612488
 20
11.8914191995
 30
0.0
 10
22.1790368351
 20
11.7458317038
 30
0.0
 10
22.1847898366
 20
11.6185007219
 30
0.0
 10
22.1905155482
 20
11.5095118536
 30
0.0
 10
22.1961890266
 20
11.4189071925
 30
0.0
 10
22.20182284
 20
11.3467173338
 30
0.0
 10
22.2067468688
 20
11.2980575225
 30
0.0
 10
22.2109358936
 20
11.2684036518
 30
0.0
 10
22.2137063818
 20
11.2529589242
 30
0.0
 10
22.2164539589
 20
11.2421630597
 30
0.0
 10
22.2186033921
 20
11.2364422946
 30
0.0
 10
22.2199647474
 20
11.2346283117
 30
0.0
  0
SPLINE
  5
2AE
100
AcDbEntity
  8
0
100
AcDbSpline
 62
7
  6
CONTINUOUS
 70
0
 71
3
 72
65
 73
61
 74
0
 42
0.0000001
 43
0.0000001
 44
0.0000000001
 40
0.0
 40
0.0
 40
0.0
 40
0.0
 40
0.0001118518
 40
0.0002935584
 40
0.0005475881
 40
0.0008747582
 40
0.0017497266
 40
0.0029197482
 40
0.0043851518
 40
0.0061459335
 40
0.0082009905
 40
0.0105483608
 40
0.0131860307
 40
0.0161119701
 40
0.0228204994
 40
0.0306583801
 40
0.039611142
 40
0.0496641225
 40
0.0607942948
 40
0.0729684806
 40
0.0861529563
 40
0.1154268278
 40
0.1483648263
 40
0.1846495799
 40
0.2239249257
 40
0.2658210243
 40
0.3099460946
 40
0.3558808571
 40
0.4031797836
 40
0.4513984631
 40
0.5000823218
 40
0.5487646315
 40
0.5969830228
 40
0.644278753
 40
0.6902014887
 40
0.734322932
 40
0.7762165596
 40
0.8154737753
 40
0.8517448137
 40
0.8846769904
 40
0.9139387869
 40
0.9271116151
 40
0.9392719755
 40
0.9503910199
 40
0.9604401382
 40
0.9693940784
 40
0.9772307622
 40
0.9839288113
 40
0.9868462789
 40
0.9894747683
 40
0.9918133749
 40
0.9938612126
 40
0.9956174218
 40
0.9970810554
 40
0.9982510878
 40
0.9991267364
 40
0.9994541379
 40
0.9997081219
 40
0.9998893287
 40
1.0
 40
1.0
 40
1.0
 40
1.0
 10
35.7205114947
 20
11.234572406
 30
0.0
 10
35.7191246947
 20
11.2364360637
 30
0.0
 10
35.7169228808
 20
11.242256802
 30
0.0
 10
35.7141291216
 20
11.2532271764
 30
0.0
 10
35.7113243233
 20
11.2688585068
 30
0.0
 10
35.7071101365
 20
11.2987945088
 30
0.0
 10
35.7021855564
 20
11.3478396325
 30
0.0
 10
35.6965748927
 20
11.4205255001
 30
0.0
 10
35.6909342493
 20
11.5116601783
 30
0.0
 10
35.6852324103
 20
11.621196714
 30
0.0
 10
35.6794900514
 20
11.7490711701
 30
0.0
 10
35.6737165552
 20
11.8951715463
 30
0.0
 10
35.6679219841
 20
12.0593709008
 30
0.0
 10
35.6598038846
 20
12.3141189022
 30
0.0
 10
35.6498234433
 20
12.6768620355
 30
0.0
 10
35.638305896
 20
13.1647752312
 30
0.0
 10
35.6267703532
 20
13.7221649355
 30
0.0
 10
35.6152163627
 20
14.347943864
 30
0.0
 10
35.6036448358
 20
15.0406376402
 30
0.0
 10
35.592057412
 20
15.79837662
 30
0.0
 10
35.5760307643
 20
16.9329129044
 30
0.0
 10
35.5562408231
 20
18.4986763173
 30
0.0
 10
35.5331967378
 20
20.5441984071
 30
0.0
 10
35.5101145858
 20
22.7974500679
 30
0.0
 10
35.4870014695
 20
25.2367588349
 30
0.0
 10
35.4638642836
 20
27.8389077352
 30
0.0
 10
35.4407147987
 20
30.5793694179
 30
0.0
 10
35.4175605415
 20
33.4320448459
 30
0.0
 10
35.3943933287
 20
36.3697420057
 30
0.0
 10
35.3712216694
 20
39.3645361482
 30
0.0
 10
35.3480501459
 20
42.388062272
 30
0.0
 10
35.3248797201
 20
45.4115824213
 30
0.0
 10
35.3017095005
 20
48.4062720298
 30
0.0
 10
35.2785424321
 20
51.343647033
 30
0.0
 10
35.25538325
 20
54.1959309137
 30
0.0
 10
35.2322368803
 20
56.9360161799
 30
0.0
 10
35.2091063887
 20
59.5376619354
 30
0.0
 10
35.185984043
 20
61.976257878
 30
0.0
 10
35.162902525
 20
64.2287272013
 30
0.0
 10
35.1398655421
 20
66.2735927886
 30
0.0
 10
35.1200733305
 20
67.8387425305
 30
0.0
 10
35.104046246
 20
68.9724989081
 30
0.0
 10
35.0924602391
 20
69.7294776692
 30
0.0
 10
35.080886789
 20
70.4215728701
 30
0.0
 10
35.0693254107
 20
71.0470647575
 30
0.0
 10
35.0577838401
 20
71.604373718
 30
0.0
 10
35.0462727381
 20
72.0920689347
 30
0.0
 10
35.0363181387
 20
72.4543941523
 30
0.0
 10
35.0282213021
 20
72.7085582673
 30
0.0
 10
35.0224379455
 20
72.8722090665
 30
0.0
 10
35.0166625408
 20
73.0177863688
 30
0.0
 10
35.010899323
 20
73.1452325902
 30
0.0
 10
35.0051500977
 20
73.2544846788
 30
0.0
 10
34.9994411464
 20
73.3454834418
 30
0.0
 10
34.993765786
 20
73.4181417208
 30
0.0
 10
34.9888058837
 20
73.4672025355
 30
0.0
 10
34.9845909212
 20
73.4971557674
 30
0.0
 10
34.9818043649
 20
73.512784542
 30
0.0
 10
34.9790423221
 20
73.5237233422
 30
0.0
 10
34.9768879699
 20
73.5295252111
 30
0.0
 10
34.9755213627
 20
73.5313733187
 30
0.0
  0
SPLINE
  5
2AF
100
AcDbEntity
  8
0
100
AcDbSpline
 62
7
  6
CONTINUOUS
 70
0
 71
3
 72
65
 73
61
 74
0
 42
0.0000001
 43
0.0000001
 44
0.0000000001
 40
0.0
 40
0.0
 40
0.0
 40
0.0
 40
0.0001123795
 40
0.0002947539
 40
0.0005497023
 40
0.0008781549
 40
0.0017572199
 40
0.0029333876
 40
0.0044056059
 40
0.0061723542
 40
0.0082319944
 40
0.0105828304
 40
0.0132231338
 40
0.0161511575
 40
0.0228633146
 40
0.0307051511
 40
0.0396624407
 40
0.0497201659
 40
0.0608532767
 40
0.0730296156
 40
0.0862168653
 40
0.1154947956
 40
0.1484277792
 40
0.1847147174
 40
0.2239883501
 40
0.2658755457
 40
0.3099962154
 40
0.3559243131
 40
0.4032151287
 40
0.4514237555
 40
0.5000975048
 40
0.5487719847
 40
0.596981837
 40
0.6442651113
 40
0.6901810761
 40
0.7342971574
 40
0.7761814643
 40
0.8154343109
 40
0.8517020414
 40
0.884634552
 40
0.9138953768
 40
0.9270669242
 40
0.9392279768
 40
0.9503501144
 40
0.960404926
 40
0.9693640144
 40
0.9772003983
 40
0.9838986242
 40
0.9868178854
 40
0.989448974
 40
0.9917907017
 40
0.9938418992
 40
0.9956014291
 40
0.9970682116
 40
0.998241283
 40
0.9991199519
 40
0.9994488985
 40
0.9997044854
 40
0.9998874036
 40
1.0
 40
1.0
 40
1.0
 40
1.0
 10
34.9708185034
 20
12.2356766405
 30
0.0
 10
34.9694630382
 20
12.2374837746
 30
0.0
 10
34.967293785
 20
12.24312809
 30
0.0
 10
34.9645286769
 20
12.2537748595
 30
0.0
 10
34.961735879
 20
12.2689481977
 30
0.0
 10
34.9575206131
 20
12.2980309332
 30
0.0
 10
34.9525637454
 20
12.3457139977
 30
0.0
 10
34.9469004952
 20
12.4163901297
 30
0.0
 10
34.941201944
 20
12.5049628002
 30
0.0
 10
34.9354603327
 20
12.6113175597
 30
0.0
 10
34.9297009221
 20
12.7353560494
 30
0.0
 10
34.9239268223
 20
12.8769694004
 30
0.0
 10
34.9181430481
 20
13.036051043
 30
0.0
 10
34.9100489686
 20
13.2827736762
 30
0.0
 10
34.9000937087
 20
13.6340473451
 30
0.0
 10
34.8885785131
 20
14.1065176048
 30
0.0
 10
34.8770367266
 20
14.6462552959
 30
0.0
 10
34.8654792589
 20
15.2521651419
 30
0.0
 10
34.8539092615
 20
15.9227927127
 30
0.0
 10
34.8423257499
 20
16.6563363818
 30
0.0
 10
34.8263050675
 20
17.7545910116
 30
0.0
 10
34.8065196498
 20
19.2700716741
 30
0.0
 10
34.783473374
 20
21.2498831085
 30
0.0
 10
34.7604023194
 20
23.4306341944
 30
0.0
 10
34.7372913464
 20
25.7913862873
 30
0.0
 10
34.7141559265
 20
28.309614175
 30
0.0
 10
34.6910147252
 20
30.9616114126
 30
0.0
 10
34.6678626455
 20
33.7222328522
 30
0.0
 10
34.6447000194
 20
36.5650306697
 30
0.0
 10
34.6215330093
 20
39.4630216913
 30
0.0
 10
34.5983659925
 20
42.3888271816
 30
0.0
 10
34.5751988282
 20
45.3146573084
 30
0.0
 10
34.552034634
 20
48.2125360803
 30
0.0
 10
34.5288710156
 20
51.0549630352
 30
0.0
 10
34.5057154118
 20
53.8150967152
 30
0.0
 10
34.4825752343
 20
56.4666997563
 30
0.0
 10
34.4594471126
 20
58.984359556
 30
0.0
 10
34.4363306498
 20
61.3442495594
 30
0.0
 10
34.4132507431
 20
63.5241870617
 30
0.0
 10
34.3902197853
 20
65.5032591688
 30
0.0
 10
34.3704333949
 20
67.0180707839
 30
0.0
 10
34.3544068739
 20
68.1153584673
 30
0.0
 10
34.342821579
 20
68.8480585119
 30
0.0
 10
34.3312489149
 20
69.5180995282
 30
0.0
 10
34.3196917108
 20
70.1237663396
 30
0.0
 10
34.3081590527
 20
70.6633721814
 30
0.0
 10
34.2966466697
 20
71.1354889375
 30
0.0
 10
34.2866877158
 20
71.4861965244
 30
0.0
 10
34.278590647
 20
71.7322773139
 30
0.0
 10
34.2728065483
 20
71.8908141318
 30
0.0
 10
34.2670319966
 20
72.0318889888
 30
0.0
 10
34.2612719409
 20
72.1554290142
 30
0.0
 10
34.2555292676
 20
72.2613590246
 30
0.0
 10
34.2498291138
 20
72.349614322
 30
0.0
 10
34.2441626433
 20
72.4201101285
 30
0.0
 10
34.2392066672
 20
72.4677326055
 30
0.0
 10
34.2349947647
 20
72.4968304965
 30
0.0
 10
34.2322030795
 20
72.512038719
 30
0.0
 10
34.229438387
 20
72.5227134925
 30
0.0
 10
34.2272718225
 20
72.5283766073
 30
0.0
 10
34.2259137301
 20
72.5301872214
 30
0.0
  0
SPLINE
  5
2B0
100
AcDbEntity
  8
0
100
AcDbSpline
 62
7
  6
CONTINUOUS
 70
0
 71
3
 72
65
 73
61
 74
0
 42
0.0000001
 43
0.0000001
 44
0.0000000001
 40
0.0
 40
0.0
 40
0.0
 40
0.0
 40
0.0001123795
 40
0.0002947539
 40
0.0005497023
 40
0.0008781549
 40
0.0017572199
 40
0.0029333876
 40
0.0044056059
 40
0.0061723542
 40
0.0082319944
 40
0.0105828304
 40
0.0132231338
 40
0.0161511575
 40
0.0228633146
 40
0.0307051511
 40
0.0396624407
 40
0.0497201659
 40
0.0608532767
 40
0.0730296156
 40
0.0862168653
 40
0.1154947956
 40
0.1484277792
 40
0.1847147174
 40
0.2239883501
 40
0.2658755457
 40
0.3099962154
 40
0.3559243131
 40
0.4032151287
 40
0.4514237555
 40
0.5000975048
 40
0.5487719847
 40
0.596981837
 40
0.6442651113
 40
0.6901810761
 40
0.7342971574
 40
0.7761814643
 40
0.8154343109
 40
0.8517020414
 40
0.884634552
 40
0.9138953768
 40
0.9270669242
 40
0.9392279768
 40
0.9503501144
 40
0.960404926
 40
0.9693640144
 40
0.9772003983
 40
0.9838986242
 40
0.9868178854
 40
0.989448974
 40
0.9917907017
 40
0.9938418992
 40
0.9956014291
 40
0.9970682116
 40
0.998241283
 40
0.9991199519
 40
0.9994488985
 40
0.9997044854
 40
0.9998874036
 40
1.0
 40
1.0
 40
1.0
 40
1.0
 10
19.9708185034
 20
12.2356766405
 30
0.0
 10
19.9694630382
 20
12.2374837746
 30
0.0
 10
19.967293785
 20
12.24312809
 30
0.0
 10
19.9645286769
 20
12.2537748595
 30
0.0
 10
19.961735879
 20
12.2689481977
 30
0.0
 10
19.9575206131
 20
12.2980309332
 30
0.0
 10
19.9525637454
 20
12.3457139977
 30
0.0
 10
19.9469004952
 20
12.4163901297
 30
0.0
 10
19.941201944
 20
12.5049628002
 30
0.0
 10
19.9354603327
 20
12.6113175597
 30
0.0
 10
19.9297009221
 20
12.7353560494
 30
0.0
 10
19.9239268223
 20
12.8769694004
 30
0.0
 10
19.9181430481
 20
13.036051043
 30
0.0
 10
19.9100489686
 20
13.2827736762
 30
0.0
 10
19.9000937087
 20
13.6340473451
 30
0.0
 10
19.8885785131
 20
14.1065176048
 30
0.0
 10
19.8770367266
 20
14.6462552959
 30
0.0
 10
19.8654792589
 20
15.2521651419
 30
0.0
 10
19.8539092615
 20
15.9227927127
 30
0.0
 10
19.8423257499
 20
16.6563363818
 30
0.0
 10
19.8263050675
 20
17.7545910116
 30
0.0
 10
19.8065196498
 20
19.2700716741
 30
0.0
 10
19.783473374
 20
21.2498831085
 30
0.0
 10
19.7604023194
 20
23.4306341944
 30
0.0
 10
19.7372913464
 20
25.7913862873
 30
0.0
 10
19.7141559265
 20
28.309614175
 30
0.0
 10
19.6910147252
 20
30.9616114126
 30
0.0
 10
19.6678626455
 20
33.7222328522
 30
0.0
 10
19.6447000194
 20
36.5650306697
 30
0.0
 10
19.6215330093
 20
39.4630216913
 30
0.0
 10
19.5983659925
 20
42.3888271816
 30
0.0
 10
19.5751988282
 20
45.3146573084
 30
0.0
 10
19.552034634
 20
48.2125360803
 30
0.0
 10
19.5288710156
 20
51.0549630352
 30
0.0
 10
19.5057154118
 20
53.8150967152
 30
0.0
 10
19.4825752343
 20
56.4666997563
 30
0.0
 10
19.4594471126
 20
58.984359556
 30
0.0
 10
19.4363306498
 20
61.3442495594
 30
0.0
 10
19.4132507431
 20
63.5241870617
 30
0.0
 10
19.3902197853
 20
65.5032591688
 30
0.0
 10
19.3704333949
 20
67.0180707839
 30
0.0
 10
19.3544068739
 20
68.1153584673
 30
0.0
 10
19.342821579
 20
68.8480585119
 30
0.0
 10
19.3312489149
 20
69.5180995282
 30
0.0
 10
19.3196917108
 20
70.1237663396
 30
0.0
 10
19.3081590527
 20
70.6633721814
 30
0.0
 10
19.2966466697
 20
71.1354889375
 30
0.0
 10
19.2866877158
 20
71.4861965244
 30
0.0
 10
19.278590647
 20
71.7322773139
 30
0.0
 10
19.2728065483
 20
71.8908141318
 30
0.0
 10
19.2670319966
 20
72.0318889888
 30
0.0
 10
19.2612719409
 20
72.1554290142
 30
0.0
 10
19.2555292676
 20
72.2613590246
 30
0.0
 10
19.2498291138
 20
72.349614322
 30
0.0
 10
19.2441626433
 20
72.4201101285
 30
0.0
 10
19.2392066672
 20
72.4677326055
 30
0.0
 10
19.2349947647
 20
72.4968304965
 30
0.0
 10
19.2322030795
 20
72.512038719
 30
0.0
 10
19.229438387
 20
72.5227134925
 30
0.0
 10
19.2272718225
 20
72.5283766073
 30
0.0
 10
19.2259137301
 20
72.5301872214
 30
0.0
  0
SPLINE
  5
2B1
100
AcDbEntity
  8
0
100
AcDbSpline
 62
7
  6
CONTINUOUS
 70
0
 71
3
 72
40
 73
36
 74
0
 42
0.0000001
 43
0.0000001
 44
0.0000000001
 40
0.0
 40
0.0
 40
0.0
 40
0.0
 40
0.0778355467
 40
0.1600092227
 40
0.2451058889
 40
0.3317002397
 40
0.3750994668
 40
0.4183205674
 40
0.5034968677
 40
0.5857981617
 40
0.6638256273
 40
0.7362309466
 40
0.769938843
 40
0.801798699
 40
0.831680021
 40
0.8594559862
 40
0.8850033796
 40
0.9082023152
 40
0.9289501667
 40
0.947164418
 40
0.9552980726
 40
0.9627732139
 40
0.9695831067
 40
0.9757210426
 40
0.9811807071
 40
0.9859564471
 40
0.9900427236
 40
0.9934340931
 40
0.9961258757
 40
0.9972087694
 40
0.9981161734
 40
0.9988481054
 40
0.9994048444
 40
0.9997874103
 40
1.0
 40
1.0
 40
1.0
 40
1.0
 10
15.9730419632
 20
26.8077396073
 30
0.0
 10
15.9621085124
 20
28.0200768477
 30
0.0
 10
15.9416771683
 20
30.5123387518
 30
0.0
 10
15.9133441965
 20
34.330066096
 30
0.0
 10
15.8815967999
 20
38.2842007683
 30
0.0
 10
15.853570898
 20
41.6343847264
 30
0.0
 10
15.8328606398
 20
44.3323419014
 30
0.0
 10
15.8137195428
 20
47.0082219879
 30
0.0
 10
15.7900802025
 20
50.2900344104
 30
0.0
 10
15.7579424885
 20
54.1139502851
 30
0.0
 10
15.724796706
 20
57.7389247843
 30
0.0
 10
15.699570944
 20
60.6070365598
 30
0.0
 10
15.680118841
 20
62.7560527769
 30
0.0
 10
15.665197649
 20
64.2427176085
 30
0.0
 10
15.6495160412
 20
65.6369719352
 30
0.0
 10
15.6330716161
 20
66.9328856399
 30
0.0
 10
15.6163331763
 20
68.1246993
 30
0.0
 10
15.6003457082
 20
69.2070405562
 30
0.0
 10
15.5854258887
 20
70.1751620364
 30
0.0
 10
15.572995144
 20
70.9086330441
 30
0.0
 10
15.5629413931
 20
71.4353738316
 30
0.0
 10
15.5556361142
 20
71.7844969299
 30
0.0
 10
15.5482261193
 20
72.1025244574
 30
0.0
 10
15.5406505579
 20
72.3891447962
 30
0.0
 10
15.5328751663
 20
72.6440625918
 30
0.0
 10
15.524939634
 20
72.8670004717
 30
0.0
 10
15.5168856793
 20
73.0576952117
 30
0.0
 10
15.5087484234
 20
73.2158880074
 30
0.0
 10
15.5015429729
 20
73.3272864998
 30
0.0
 10
15.4955786585
 20
73.3999667495
 30
0.0
 10
15.4914979812
 20
73.4421885671
 30
0.0
 10
15.487458564
 20
73.4761208389
 30
0.0
 10
15.4836471381
 20
73.5019724907
 30
0.0
 10
15.4798241233
 20
73.5193282147
 30
0.0
 10
15.4770873866
 20
73.5284824116
 30
0.0
 10
15.4750852155
 20
73.5311199029
 30
0.0
  0
SPLINE
  5
2B2
100
AcDbEntity
  8
0
100
AcDbSpline
 62
7
  6
CONTINUOUS
 70
0
 71
3
 72
37
 73
33
 74
0
 42
0.0000001
 43
0.0000001
 44
0.0000000001
 40
0.0
 40
0.0
 40
0.0
 40
0.0
 40
0.1599134886
 40
0.244973069
 40
0.33152884
 40
0.4181082542
 40
0.5032543556
 40
0.5855317583
 40
0.6635217452
 40
0.7359314046
 40
0.7696590981
 40
0.8015305806
 40
0.8314072847
 40
0.8591761173
 40
0.884726473
 40
0.907947759
 40
0.9287294055
 40
0.9469723069
 40
0.9626143306
 40
0.9694429499
 40
0.9756008875
 40
0.9810813502
 40
0.9858775716
 40
0.9899828313
 40
0.9933904938
 40
0.9960945216
 40
0.997182155
 40
0.9980938875
 40
0.9988301472
 40
0.9993916564
 40
0.9997799592
 40
1.0
 40
1.0
 40
1.0
 40
1.0
 10
31.7225457737
 20
27.3077509695
 30
0.0
 10
31.7005078212
 20
29.7185038349
 30
0.0
 10
31.6692860175
 20
33.4115832767
 30
0.0
 10
31.6290073594
 20
38.4095451928
 30
0.0
 10
31.5981862052
 20
42.301963997
 30
0.0
 10
31.5673577669
 20
46.1956871402
 30
0.0
 10
31.5365383531
 20
50.0249077052
 30
0.0
 10
31.5057474593
 20
53.7246301385
 30
0.0
 10
31.4749726196
 20
57.2323313313
 30
0.0
 10
31.4487923613
 20
60.0081095104
 30
0.0
 10
31.4276382553
 20
62.0886214006
 30
0.0
 10
31.4121556296
 20
63.5279313093
 30
0.0
 10
31.3966763247
 20
64.8774000425
 30
0.0
 10
31.3812091817
 20
66.1315650066
 30
0.0
 10
31.365758836
 20
67.2853849946
 30
0.0
 10
31.3503309981
 20
68.3338562929
 30
0.0
 10
31.3349352463
 20
69.2721479759
 30
0.0
 10
31.3195628218
 20
70.0961578453
 30
0.0
 10
31.3062758368
 20
70.7098124612
 30
0.0
 10
31.2954707511
 20
71.1412817062
 30
0.0
 10
31.287747879
 20
71.4195834936
 30
0.0
 10
31.2800395852
 20
71.6672323905
 30
0.0
 10
31.2723493846
 20
71.8839185281
 30
0.0
 10
31.2646934452
 20
72.069335343
 30
0.0
 10
31.2570753193
 20
72.2231772835
 30
0.0
 10
31.2504159994
 20
72.3315194019
 30
0.0
 10
31.2448867952
 20
72.4022077243
 30
0.0
 10
31.2410766296
 20
72.4432883407
 30
0.0
 10
31.2372682746
 20
72.476349783
 30
0.0
 10
31.233603874
 20
72.5015940112
 30
0.0
 10
31.229883108
 20
72.5186789193
 30
0.0
 10
31.2271113173
 20
72.5277000501
 30
0.0
 10
31.2251208291
 20
72.530353849
 30
0.0
  0
SPLINE
  5
2B3
100
AcDbEntity
  8
0
100
AcDbSpline
 62
7
  6
CONTINUOUS
 70
0
 71
3
 72
39
 73
35
 74
0
 42
0.0000001
 43
0.0000001
 44
0.0000000001
 40
0.0
 40
0.0
 40
0.0
 40
0.0
 40
0.0777966952
 40
0.1599399687
 40
0.2450218996
 40
0.3315952173
 40
0.4181995068
 40
0.4610527148
 40
0.5033611322
 40
0.5856347414
 40
0.6636457424
 40
0.7360743935
 40
0.7697980753
 40
0.8016604689
 40
0.8315313949
 40
0.8592929933
 40
0.8848334326
 40
0.9080463498
 40
0.9288289748
 40
0.9470831555
 40
0.9627230769
 40
0.9695430572
 40
0.9756864758
 40
0.9811470827
 40
0.9859210493
 40
0.9900049012
 40
0.9933952757
 40
0.9960893311
 40
0.9971748815
 40
0.998086086
 40
0.9988230822
 40
0.9993863096
 40
0.9997770458
 40
1.0
 40
1.0
 40
1.0
 40
1.0
 10
17.4752285946
 20
26.8085751482
 30
0.0
 10
17.4640243629
 20
28.0202373846
 30
0.0
 10
17.4407908033
 20
30.5112571262
 30
0.0
 10
17.4103331083
 20
34.3274488642
 30
0.0
 10
17.3822893022
 20
38.2803608941
 30
0.0
 10
17.3514015723
 20
42.3027363067
 30
0.0
 10
17.3231353036
 20
45.6673823226
 30
0.0
 10
17.3017388252
 20
48.3426183487
 30
0.0
 10
17.2822594975
 20
50.9504150654
 30
0.0
 10
17.2589750734
 20
54.1057952282
 30
0.0
 10
17.22778904
 20
57.7302626315
 30
0.0
 10
17.199465586
 20
60.5985392595
 30
0.0
 10
17.1778324173
 20
62.7480638695
 30
0.0
 10
17.163007207
 20
64.2347701777
 30
0.0
 10
17.1488001984
 20
65.6286163022
 30
0.0
 10
17.1342170113
 20
66.9239861475
 30
0.0
 10
17.1188839016
 20
68.1156385779
 30
0.0
 10
17.1027771791
 20
69.1985698854
 30
0.0
 10
17.0861181412
 20
70.1679914151
 30
0.0
 10
17.069849711
 20
71.0194477727
 30
0.0
 10
17.0566140035
 20
71.6534481714
 30
0.0
 10
17.0462118571
 20
72.0988349098
 30
0.0
 10
17.0389114491
 20
72.3857033783
 30
0.0
 10
17.0317139452
 20
72.6406960228
 30
0.0
 10
17.0245408536
 20
72.8635962095
 30
0.0
 10
17.0173279947
 20
73.0542325757
 30
0.0
 10
17.0100034106
 20
73.2124382431
 30
0.0
 10
17.0034025118
 20
73.3239288704
 30
0.0
 10
16.9978052484
 20
73.3967715685
 30
0.0
 10
16.9939034204
 20
73.4391865325
 30
0.0
 10
16.9899700929
 20
73.4733750366
 30
0.0
 10
16.9861521183
 20
73.4995251207
 30
0.0
 10
16.9822636205
 20
73.5172847798
 30
0.0
 10
16.9793405407
 20
73.5266685945
 30
0.0
 10
16.9772618085
 20
73.529450288
 30
0.0
  0
SPLINE
  5
2B4
100
AcDbEntity
  8
0
100
AcDbSpline
 62
7
  6
CONTINUOUS
 70
0
 71
3
 72
11
 73
7
 74
0
 42
0.0000001
 43
0.0000001
 44
0.0000000001
 40
0.0
 40
0.0
 40
0.0
 40
0.0
 40
0.243080644
 40
0.4909811866
 40
0.7438652159
 40
1.0
 40
1.0
 40
1.0
 40
1.0
 10
47.6509195826
 20
8.4024681029
 30
0.0
 10
47.6030861976
 20
8.2605951042
 30
0.0
 10
47.4582528624
 20
7.988074172
 30
0.0
 10
47.1216235233
 20
7.6665675596
 30
0.0
 10
46.6961679565
 20
7.4591779871
 30
0.0
 10
46.3805755192
 20
7.4116182726
 30
0.0
 10
46.2228154627
 20
7.4116182726
 30
0.0
  0
SPLINE
  5
2B5
100
AcDbEntity
  8
0
100
AcDbSpline
 62
7
  6
CONTINUOUS
 70
0
 71
3
 72
38
 73
34
 74
0
 42
0.0000001
 43
0.0000001
 44
0.0000000001
 40
0.0
 40
0.0
 40
0.0
 40
0.0
 40
0.1599488099
 40
0.2450270954
 40
0.3316007939
 40
0.4182009817
 40
0.5033628201
 40
0.5856504682
 40
0.6636535987
 40
0.7360653301
 40
0.7697930658
 40
0.8016610471
 40
0.8315372212
 40
0.8593042544
 40
0.8848480955
 40
0.9080576045
 40
0.9288292327
 40
0.9470690103
 40
0.9552135804
 40
0.9626991895
 40
0.969520028
 40
0.9756702912
 40
0.9811436519
 40
0.9859328204
 40
0.9900304458
 40
0.9934292595
 40
0.9961234726
 40
0.9972062973
 40
0.9981132764
 40
0.9988448115
 40
0.9994015829
 40
0.9997850553
 40
1.0
 40
1.0
 40
1.0
 40
1.0
 10
32.4730916597
 20
26.8077580241
 30
0.0
 10
32.4511023422
 20
29.2990160062
 30
0.0
 10
32.4198059271
 20
33.1154186944
 30
0.0
 10
32.3795374834
 20
38.2802597712
 30
0.0
 10
32.348705411
 20
42.3026651271
 30
0.0
 10
32.3178710597
 20
46.3263718915
 30
0.0
 10
32.2870461498
 20
50.2833174466
 30
0.0
 10
32.2562463821
 20
54.106351703
 30
0.0
 10
32.2254674821
 20
57.7307843419
 30
0.0
 10
32.1992803148
 20
60.5988614388
 30
0.0
 10
32.1781232473
 20
62.7483548364
 30
0.0
 10
32.1626346104
 20
64.2353398878
 30
0.0
 10
32.1471526474
 20
65.6294760576
 30
0.0
 10
32.1316835549
 20
66.9251013936
 30
0.0
 10
32.1162313315
 20
68.1168793084
 30
0.0
 10
32.1008001547
 20
69.1996874983
 30
0.0
 10
32.0853939001
 20
70.1687155183
 30
0.0
 10
32.0721386089
 20
70.9030960651
 30
0.0
 10
32.0613984483
 20
71.4305437842
 30
0.0
 10
32.0536566742
 20
71.780154274
 30
0.0
 10
32.0459237301
 20
72.0986934751
 30
0.0
 10
32.038202706
 20
72.3858801316
 30
0.0
 10
32.0304987618
 20
72.6414095801
 30
0.0
 10
32.0228121551
 20
72.8649510789
 30
0.0
 10
32.0151559246
 20
73.0561602429
 30
0.0
 10
32.007530318
 20
73.2147057746
 30
0.0
 10
32.0008520945
 20
73.3262867965
 30
0.0
 10
31.9953063185
 20
73.3990290791
 30
0.0
 10
31.9914893699
 20
73.4412601871
 30
0.0
 10
31.9876734194
 20
73.4752065559
 30
0.0
 10
31.9840188177
 20
73.5010859398
 30
0.0
 10
31.9802931651
 20
73.5185205985
 30
0.0
 10
31.9775547202
 20
73.5277239013
 30
0.0
 10
31.9755459717
 20
73.5304023013
 30
0.0
  0
SPLINE
  5
2B6
100
AcDbEntity
  8
0
100
AcDbSpline
 62
7
  6
CONTINUOUS
 70
0
 71
3
 72
14
 73
10
 74
0
 42
0.0000001
 43
0.0000001
 44
0.0000000001
 40
0.0
 40
0.0
 40
0.0
 40
0.0
 40
0.0958094905
 40
0.1969932895
 40
0.3070923804
 40
0.4280005473
 40
0.5597465582
 40
0.7008687541
 40
1.0
 40
1.0
 40
1.0
 40
1.0
 10
47.7228154627
 20
26.7316100589
 30
0.0
 10
47.7228154627
 20
26.6692850738
 30
0.0
 10
47.7024711475
 20
26.540415802
 30
0.0
 10
47.6146659974
 20
26.3583548329
 30
0.0
 10
47.4740620984
 20
26.191730454
 30
0.0
 10
47.286624503
 20
26.0460563556
 30
0.0
 10
47.0588285184
 20
25.9263023113
 30
0.0
 10
46.7060292266
 20
25.8050004996
 30
0.0
 10
46.4174031841
 20
25.7693649401
 30
0.0
 10
46.2228154627
 20
25.7693649401
 30
0.0
  0
SPLINE
  5
2B7
100
AcDbEntity
  8
0
100
AcDbSpline
 62
7
  6
CONTINUOUS
 70
0
 71
3
 72
65
 73
61
 74
0
 42
0.0000001
 43
0.0000001
 44
0.0000000001
 40
0.0
 40
0.0
 40
0.0
 40
0.0
 40
0.000112311
 40
0.0002943317
 40
0.0005484718
 40
0.0008754944
 40
0.0017491716
 40
0.0029162043
 40
0.0043764712
 40
0.0061295766
 40
0.0081750083
 40
0.0105121959
 40
0.0131405368
 40
0.0160594095
 40
0.0227643124
 40
0.0306076119
 40
0.0395650456
 40
0.0496123001
 40
0.0607250399
 40
0.0728789161
 40
0.0860495706
 40
0.1153262817
 40
0.1482566558
 40
0.1845156536
 40
0.2237768808
 40
0.2656729911
 40
0.3097888389
 40
0.3557065679
 40
0.403001896
 40
0.4512207644
 40
0.4999004896
 40
0.5485785209
 40
0.5967960606
 40
0.6440984672
 40
0.6900313171
 40
0.7341494041
 40
0.7760477362
 40
0.8153322924
 40
0.8516110217
 40
0.8845412283
 40
0.9138320717
 40
0.9270226251
 40
0.9391952152
 40
0.9503165512
 40
0.9603649022
 40
0.969321594
 40
0.9771679742
 40
0.9838854266
 40
0.986815008
 40
0.9894554116
 40
0.991804342
 40
0.9938595238
 40
0.9956191268
 40
0.9970830015
 40
0.9982515145
 40
0.9991253076
 40
0.9994521154
 40
0.9997059868
 40
0.9998877807
 40
1.0
 40
1.0
 40
1.0
 40
1.0
 10
18.47096876
 20
12.2356788131
 30
0.0
 10
18.4696141442
 20
12.2374848118
 30
0.0
 10
18.4674451223
 20
12.2431194004
 30
0.0
 10
18.4646798296
 20
12.2537407371
 30
0.0
 10
18.4618865311
 20
12.2688604579
 30
0.0
 10
18.4576736383
 20
12.2977882415
 30
0.0
 10
18.4527157053
 20
12.3451476905
 30
0.0
 10
18.4470481233
 20
12.4152884554
 30
0.0
 10
18.4413469189
 20
12.5031598143
 30
0.0
 10
18.4356033313
 20
12.6087113553
 30
0.0
 10
18.4298423974
 20
12.7319124873
 30
0.0
 10
18.4240669963
 20
12.8727222004
 30
0.0
 10
18.4182820645
 20
13.0311017701
 30
0.0
 10
18.410180949
 20
13.2772492728
 30
0.0
 10
18.4002280236
 20
13.6282163401
 30
0.0
 10
18.3887190114
 20
14.1005648026
 30
0.0
 10
18.37718097
 20
14.640114772
 30
0.0
 10
18.3656197546
 20
15.2453966077
 30
0.0
 10
18.3540434949
 20
15.9149405255
 30
0.0
 10
18.3424550675
 20
16.6472763594
 30
0.0
 10
18.3264232791
 20
17.7447016301
 30
0.0
 10
18.30665041
 20
19.2597449841
 30
0.0
 10
18.2836075602
 20
21.2388826506
 30
0.0
 10
18.2605171328
 20
23.4187313113
 30
0.0
 10
18.2374032216
 20
25.7788096297
 30
0.0
 10
18.2142764566
 20
28.2968257792
 30
0.0
 10
18.1911283394
 20
30.9486497091
 30
0.0
 10
18.1679674234
 20
33.7090074078
 30
0.0
 10
18.1448048523
 20
36.5518429031
 30
0.0
 10
18.1216371563
 20
39.4501991688
 30
0.0
 10
18.0984663368
 20
42.3763500678
 30
0.0
 10
18.0752945779
 20
45.3024742485
 30
0.0
 10
18.0521248512
 20
48.2009120299
 30
0.0
 10
18.0289615504
 20
51.044167054
 30
0.0
 10
18.0058073641
 20
53.8050160677
 30
0.0
 10
17.9826558137
 20
56.4572336001
 30
0.0
 10
17.9595211107
 20
58.9758083074
 30
0.0
 10
17.936414796
 20
61.3367969631
 30
0.0
 10
17.9133321281
 20
63.5175079532
 30
0.0
 10
17.8902765272
 20
65.4973228562
 30
0.0
 10
17.8704976705
 20
67.0130468672
 30
0.0
 10
17.8544762342
 20
68.1115326275
 30
0.0
 10
17.8428930462
 20
68.8448176154
 30
0.0
 10
17.8313159849
 20
69.514932612
 30
0.0
 10
17.8197520799
 20
70.1203943556
 30
0.0
 10
17.8082103309
 20
70.6600133124
 30
0.0
 10
17.7966958663
 20
71.1326610001
 30
0.0
 10
17.786741869
 20
71.4841576425
 30
0.0
 10
17.7786469669
 20
71.7310157054
 30
0.0
 10
17.7728634103
 20
71.8900895513
 30
0.0
 10
17.7670898866
 20
72.0315744009
 30
0.0
 10
17.7613315238
 20
72.1553389108
 30
0.0
 10
17.7555883475
 20
72.2612901894
 30
0.0
 10
17.7498870473
 20
72.3493949451
 30
0.0
 10
17.7442191872
 20
72.4196406603
 30
0.0
 10
17.7392601015
 20
72.4670279477
 30
0.0
 10
17.7350458592
 20
72.4959481827
 30
0.0
 10
17.7322521092
 20
72.5110531333
 30
0.0
 10
17.7294866419
 20
72.5216626901
 30
0.0
 10
17.7273165397
 20
72.5272894461
 30
0.0
 10
17.7259629895
 20
72.5290939403
 30
0.0
  0
SPLINE
  5
2B8
100
AcDbEntity
  8
0
100
AcDbSpline
 62
7
  6
CONTINUOUS
 70
0
 71
3
 72
67
 73
63
 74
0
 42
0.0000001
 43
0.0000001
 44
0.0000000001
 40
0.0
 40
0.0
 40
0.0
 40
0.0
 40
0.0001068479
 40
0.000283188
 40
0.0005316824
 40
0.0008532591
 40
0.0012483754
 40
0.00171731
 40
0.0028773635
 40
0.0043346047
 40
0.006089914
 40
0.0081440002
 40
0.0104958675
 40
0.0131426492
 40
0.0160813633
 40
0.022822598
 40
0.0306955411
 40
0.0396760888
 40
0.0497401025
 40
0.0608634236
 40
0.0730218808
 40
0.0861912948
 40
0.1003474807
 40
0.1154661793
 40
0.1484502587
 40
0.184785844
 40
0.224095119
 40
0.2660002528
 40
0.3101234056
 40
0.3560761058
 40
0.403412202
 40
0.4516660626
 40
0.5003720393
 40
0.5490644832
 40
0.5972792674
 40
0.6445700093
 40
0.6905017966
 40
0.7346399119
 40
0.7765496421
 40
0.8157982001
 40
0.8520146815
 40
0.884901886
 40
0.9141669405
 40
0.9273496502
 40
0.9395170144
 40
0.9506324409
 40
0.9606596363
 40
0.9695735486
 40
0.9773637151
 40
0.9840206792
 40
0.9869212747
 40
0.9895350561
 40
0.9918608706
 40
0.9938975836
 40
0.9956440907
 40
0.9970993422
 40
0.9982623987
 40
0.9991325811
 40
0.9994578514
 40
0.9997101286
 40
0.9998900792
 40
1.0
 40
1.0
 40
1.0
 40
1.0
 10
13.9780361078
 20
73.5301849487
 30
0.0
 10
13.9794117857
 20
73.5284436786
 30
0.0
 10
13.9815777418
 20
73.522825064
 30
0.0
 10
13.9843407038
 20
73.5121976484
 30
0.0
 10
13.9871276382
 20
73.4969058041
 30
0.0
 10
13.9899756966
 20
73.4770743903
 30
0.0
 10
13.9928376984
 20
73.4526098868
 30
0.0
 10
13.9969732
 20
73.410775967
 30
0.0
 10
14.0019673285
 20
73.3468659841
 30
0.0
 10
14.0076818474
 20
73.2562305556
 30
0.0
 10
14.0134223515
 20
73.1469966215
 30
0.0
 10
14.0191841741
 20
73.0191624694
 30
0.0
 10
14.0249573633
 20
72.872797397
 30
0.0
 10
14.0307420642
 20
72.7080474581
 30
0.0
 10
14.0388398267
 20
72.4521613075
 30
0.0
 10
14.0487945232
 20
72.0877397191
 30
0.0
 10
14.0603102896
 20
71.5978355193
 30
0.0
 10
14.0718542597
 20
71.0389045026
 30
0.0
 10
14.0834209186
 20
70.4124542074
 30
0.0
 10
14.0950024674
 20
69.7199920758
 30
0.0
 10
14.1065953671
 20
68.963025893
 30
0.0
 10
14.1181965172
 20
68.1430634934
 30
0.0
 10
14.1298048942
 20
67.2616142513
 30
0.0
 10
14.1457509223
 20
65.9686561498
 30
0.0
 10
14.1654707188
 20
64.2150663151
 30
0.0
 10
14.1885566135
 20
61.959069936
 30
0.0
 10
14.211677597
 20
59.5177836203
 30
0.0
 10
14.23482563
 20
56.9147508505
 30
0.0
 10
14.2579905889
 20
54.1737357931
 30
0.0
 10
14.2811527616
 20
51.3199212289
 30
0.0
 10
14.3043219499
 20
48.3803133335
 30
0.0
 10
14.3274978606
 20
45.3835209649
 30
0.0
 10
14.3506769345
 20
42.3585578082
 30
0.0
 10
14.3738558258
 20
39.3344062506
 30
0.0
 10
14.3970362704
 20
36.3396485816
 30
0.0
 10
14.4202132794
 20
33.4022286958
 30
0.0
 10
14.4433800127
 20
30.5494797508
 30
0.0
 10
14.4665326682
 20
27.8084927171
 30
0.0
 10
14.4896626855
 20
25.2063146258
 30
0.0
 10
14.5127819423
 20
22.7686677013
 30
0.0
 10
14.535889893
 20
20.518418476
 30
0.0
 10
14.5589529958
 20
18.4755280723
 30
0.0
 10
14.5787374592
 20
16.9110205268
 30
0.0
 10
14.5947630449
 20
15.7768320324
 30
0.0
 10
14.6063499689
 20
15.0195685552
 30
0.0
 10
14.6179223265
 20
14.3278500159
 30
0.0
 10
14.6294834377
 20
13.7037125757
 30
0.0
 10
14.6410316627
 20
13.1486502507
 30
0.0
 10
14.6525534327
 20
12.6636008613
 30
0.0
 10
14.6625177019
 20
12.3034421739
 30
0.0
 10
14.6706195429
 20
12.0507850977
 30
0.0
 10
14.676406519
 20
11.8880545941
 30
0.0
 10
14.6821839169
 20
11.743278445
 30
0.0
 10
14.6879467061
 20
11.6165296049
 30
0.0
 10
14.693692098
 20
11.5078834922
 30
0.0
 10
14.699394403
 20
11.4174046588
 30
0.0
 10
14.7050633415
 20
11.3451789011
 30
0.0
 10
14.7100202502
 20
11.2964210892
 30
0.0
 10
14.7142365346
 20
11.2666629771
 30
0.0
 10
14.7170262008
 20
11.251141551
 30
0.0
 10
14.7197921842
 20
11.2402838686
 30
0.0
 10
14.7219543851
 20
11.2345272716
 30
0.0
 10
14.7233240877
 20
11.2327008686
 30
0.0
  0
SPLINE
  5
2B9
100
AcDbEntity
  8
0
100
AcDbSpline
 62
7
  6
CONTINUOUS
 70
0
 71
3
 72
20
 73
16
 74
0
 42
0.0000001
 43
0.0000001
 44
0.0000000001
 40
0.0
 40
0.0
 40
0.0
 40
0.0
 40
0.0025724916
 40
0.0067930914
 40
0.0216149542
 40
0.045399251
 40
0.0781254264
 40
0.1195475273
 40
0.1693706648
 40
0.2271797793
 40
0.2924649463
 40
0.4431472936
 40
0.6158155353
 40
0.8040121793
 40
1.0
 40
1.0
 40
1.0
 40
1.0
 10
47.7228154627
 20
37.303185171
 30
0.0
 10
47.7228154627
 20
37.3044774191
 30
0.0
 10
47.7206188738
 20
37.3076097171
 30
0.0
 10
47.7110797988
 20
37.3126967331
 30
0.0
 10
47.6901601967
 20
37.3186609258
 30
0.0
 10
47.6550284487
 20
37.3252859667
 30
0.0
 10
47.6062455353
 20
37.3320552771
 30
0.0
 10
47.544346209
 20
37.338781818
 30
0.0
 10
47.4697498527
 20
37.3453474292
 30
0.0
 10
47.3831161534
 20
37.3516511504
 30
0.0
 10
47.2458380273
 20
37.359979476
 30
0.0
 10
47.0508020174
 20
37.3687998341
 30
0.0
 10
46.7939465579
 20
37.3766192794
 30
0.0
 10
46.5142571851
 20
37.3815347777
 30
0.0
 10
46.3212666653
 20
37.3826530612
 30
0.0
 10
46.2228154627
 20
37.3826530612
 30
0.0
  0
SPLINE
  5
2BA
100
AcDbEntity
  8
0
100
AcDbSpline
 62
7
  6
CONTINUOUS
 70
0
 71
3
 72
30
 73
26
 74
0
 42
0.0000001
 43
0.0000001
 44
0.0000000001
 40
0.0
 40
0.0
 40
0.0
 40
0.0
 40
0.0006507327
 40
0.0017997984
 40
0.0034622836
 40
0.0056430925
 40
0.0083446711
 40
0.0115685852
 40
0.0195877583
 40
0.0296989341
 40
0.0418824201
 40
0.0561163015
 40
0.0723784633
 40
0.0906489656
 40
0.1109124547
 40
0.1573589644
 40
0.2115680601
 40
0.2732975406
 40
0.3422748429
 40
0.4181859233
 40
0.5007093945
 40
0.5895265461
 40
0.6842975017
 40
0.784605059
 40
1.0
 40
1.0
 40
1.0
 40
1.0
 10
17.7200627538
 20
11.2354225554
 30
0.0
 10
17.7180402677
 20
11.2381291697
 30
0.0
 10
17.7152498352
 20
11.247334549
 30
0.0
 10
17.711525469
 20
11.2647619752
 30
0.0
 10
17.7078867063
 20
11.2905201961
 30
0.0
 10
17.7041202584
 20
11.3242620282
 30
0.0
 10
17.7003648997
 20
11.3661994637
 30
0.0
 10
17.6949207625
 20
11.4383948142
 30
0.0
 10
17.6883528579
 20
11.5490868758
 30
0.0
 10
17.6807899125
 20
11.7063027097
 30
0.0
 10
17.6731639129
 20
11.8958181383
 30
0.0
 10
17.6654893997
 20
12.117289938
 30
0.0
 10
17.6577997822
 20
12.3703835594
 30
0.0
 10
17.6501086291
 20
12.654797112
 30
0.0
 10
17.6393564744
 20
13.0959093337
 30
0.0
 10
17.626146542
 20
13.7236180969
 30
0.0
 10
17.6108591923
 20
14.5666295561
 30
0.0
 10
17.5955285487
 20
15.5266433658
 30
0.0
 10
17.580172787
 20
16.5993522769
 30
0.0
 10
17.5648028267
 20
17.7800392479
 30
0.0
 10
17.5494271182
 20
19.0637482077
 30
0.0
 10
17.534015618
 20
20.4453890474
 30
0.0
 10
17.5185485835
 20
21.919374675
 30
0.0
 10
17.4975378499
 20
24.0505656741
 30
0.0
 10
17.4828283378
 20
25.6897166102
 30
0.0
 10
17.4726385454
 20
26.8080617161
 30
0.0
  0
SPLINE
  5
2BB
100
AcDbEntity
  8
0
100
AcDbSpline
 62
7
  6
CONTINUOUS
 70
0
 71
3
 72
30
 73
26
 74
0
 42
0.0000001
 43
0.0000001
 44
0.0000000001
 40
0.0
 40
0.0
 40
0.0
 40
0.0
 40
0.0006557791
 40
0.0018119851
 40
0.0034835839
 40
0.005675408
 40
0.0083898363
 40
0.0116283638
 40
0.0196767828
 40
0.0298074967
 40
0.0420031405
 40
0.0562458344
 40
0.0725174475
 40
0.0907997129
 40
0.1110742829
 40
0.1575266895
 40
0.211726442
 40
0.2734673499
 40
0.3424443733
 40
0.4183426946
 40
0.5008474386
 40
0.5896436911
 40
0.6843917745
 40
0.7846646938
 40
1.0
 40
1.0
 40
1.0
 40
1.0
 10
16.9708236035
 20
12.2359211045
 30
0.0
 10
16.9688460853
 20
12.238557551
 30
0.0
 10
16.966086321
 20
12.2475111834
 30
0.0
 10
16.9623858834
 20
12.264469977
 30
0.0
 10
16.9587396682
 20
12.2895210265
 30
0.0
 10
16.9549514699
 20
12.3223306514
 30
0.0
 10
16.9511610749
 20
12.3631015605
 30
0.0
 10
16.9456626649
 20
12.43324739
 30
0.0
 10
16.9390417925
 20
12.5406892471
 30
0.0
 10
16.9314610955
 20
12.6931515193
 30
0.0
 10
16.9238444258
 20
12.8767765079
 30
0.0
 10
16.9161937276
 20
13.09128282
 30
0.0
 10
16.9085254081
 20
13.3363945176
 30
0.0
 10
16.9008426887
 20
13.611832358
 30
0.0
 10
16.8900931173
 20
14.0389179999
 30
0.0
 10
16.8768735721
 20
14.6465023831
 30
0.0
 10
16.861586253
 20
15.4624787864
 30
0.0
 10
16.846272055
 20
16.3916712548
 30
0.0
 10
16.8309233123
 20
17.4299240299
 30
0.0
 10
16.8155529801
 20
18.572537035
 30
0.0
 10
16.8001659257
 20
19.8147610973
 30
0.0
 10
16.7847685519
 20
21.1517226715
 30
0.0
 10
16.7693688877
 20
22.5779850664
 30
0.0
 10
16.7483220165
 20
24.6401549171
 30
0.0
 10
16.7333130546
 20
26.2261975404
 30
0.0
 10
16.7234165433
 20
27.3083364178
 30
0.0
  0
SPLINE
  5
2BC
100
AcDbEntity
  8
0
100
AcDbSpline
 62
7
  6
CONTINUOUS
 70
0
 71
3
 72
30
 73
26
 74
0
 42
0.0000001
 43
0.0000001
 44
0.0000000001
 40
0.0
 40
0.0
 40
0.0
 40
0.0
 40
0.0006555917
 40
0.0018147939
 40
0.0034915207
 40
0.0056894606
 40
0.0084098435
 40
0.0116530204
 40
0.0197072746
 40
0.0298454478
 40
0.0420515698
 40
0.0563083718
 40
0.0725983146
 40
0.0909025053
 40
0.1111996207
 40
0.1576861023
 40
0.2118768099
 40
0.2735674246
 40
0.3425279165
 40
0.4184583934
 40
0.5010305815
 40
0.5898668884
 40
0.6845804292
 40
0.7847899665
 40
1.0
 40
1.0
 40
1.0
 40
1.0
 10
16.2198212616
 20
11.235898666
 30
0.0
 10
16.2177931617
 20
11.2386323009
 30
0.0
 10
16.2150243227
 20
11.2479289895
 30
0.0
 10
16.2113344314
 20
11.2655146116
 30
0.0
 10
16.207762226
 20
11.2914997108
 30
0.0
 10
16.204088251
 20
11.3255111373
 30
0.0
 10
16.2004584277
 20
11.3677449752
 30
0.0
 10
16.1952471649
 20
11.4403338672
 30
0.0
 10
16.189070555
 20
11.5514649507
 30
0.0
 10
16.1820803445
 20
11.7091379702
 30
0.0
 10
16.1750593997
 20
11.8990421015
 30
0.0
 10
16.1679348342
 20
12.120899682
 30
0.0
 10
16.1606393517
 20
12.3744278505
 30
0.0
 10
16.1531184782
 20
12.6593226057
 30
0.0
 10
16.1423180941
 20
13.1009642125
 30
0.0
 10
16.1284677015
 20
13.7289074959
 30
0.0
 10
16.1117678717
 20
14.5717518701
 30
0.0
 10
16.0952643094
 20
15.5313047629
 30
0.0
 10
16.0796905977
 20
16.6037584857
 30
0.0
 10
16.0648097018
 20
17.784647597
 30
0.0
 10
16.0504477923
 20
19.0687445621
 30
0.0
 10
16.0359172557
 20
20.4503663365
 30
0.0
 10
16.0206122798
 20
21.923557657
 30
0.0
 10
15.9989787293
 20
24.0528473996
 30
0.0
 10
15.9831160069
 20
25.6904205366
 30
0.0
 10
15.9730419632
 20
26.8077396073
 30
0.0
  0
SPLINE
  5
2BD
100
AcDbEntity
  8
0
100
AcDbSpline
 62
7
  6
CONTINUOUS
 70
0
 71
3
 72
65
 73
61
 74
0
 42
0.0000001
 43
0.0000001
 44
0.0000000001
 40
0.0
 40
0.0
 40
0.0
 40
0.0
 40
0.0001173936
 40
0.000304451
 40
0.0005634048
 40
0.0008950292
 40
0.0017774845
 40
0.0029531486
 40
0.0044223515
 40
0.0061849288
 40
0.0082405642
 40
0.0105888848
 40
0.0132294859
 40
0.0161619379
 40
0.0228953344
 40
0.0307651245
 40
0.0397446318
 40
0.0498083697
 40
0.0609339395
 40
0.0730994062
 40
0.0862804553
 40
0.1155681925
 40
0.148525009
 40
0.1848015094
 40
0.2240552579
 40
0.2659409912
 40
0.3100566429
 40
0.3559716629
 40
0.4032448142
 40
0.4514398729
 40
0.5000989324
 40
0.5487543589
 40
0.5969513767
 40
0.6442269621
 40
0.6901241008
 40
0.7342156803
 40
0.7760962723
 40
0.8153639912
 40
0.851614113
 40
0.8845206463
 40
0.9137972393
 40
0.926985194
 40
0.9391597296
 40
0.9502867911
 40
0.9603337011
 40
0.9692808314
 40
0.9771158396
 40
0.9838261478
 40
0.986754835
 40
0.9893964422
 40
0.9917489063
 40
0.9938101831
 40
0.9955783019
 40
0.9970519779
 40
0.9982305307
 40
0.999113563
 40
0.9994443611
 40
0.999701623
 40
0.9998860621
 40
1.0
 40
1.0
 40
1.0
 40
1.0
 10
15.4695182303
 20
12.2360792912
 30
0.0
 10
15.4681816248
 20
12.2380240612
 30
0.0
 10
15.4660141241
 20
12.2438561549
 30
0.0
 10
15.463244538
 20
12.2547982139
 30
0.0
 10
15.4604475182
 20
12.2702068063
 30
0.0
 10
15.456240842
 20
12.2995088361
 30
0.0
 10
15.4512819397
 20
12.3473115534
 30
0.0
 10
15.4456151511
 20
12.4179867442
 30
0.0
 10
15.4399149341
 20
12.5064047162
 30
0.0
 10
15.4341731518
 20
12.6125353586
 30
0.0
 10
15.4284139759
 20
12.7363598235
 30
0.0
 10
15.4226404824
 20
12.8778493625
 30
0.0
 10
15.4168574395
 20
13.0369769835
 30
0.0
 10
15.4087616612
 20
13.2842241007
 30
0.0
 10
15.3988160758
 20
13.6365796444
 30
0.0
 10
15.3873125606
 20
14.1104904591
 30
0.0
 10
15.3757803339
 20
14.6513630082
 30
0.0
 10
15.3642238437
 20
15.2576944634
 30
0.0
 10
15.352652682
 20
15.9280789482
 30
0.0
 10
15.3410697984
 20
16.6611346179
 30
0.0
 10
15.3250477963
 20
17.7592533819
 30
0.0
 10
15.305269019
 20
19.2752998716
 30
0.0
 10
15.2822506199
 20
21.2555964798
 30
0.0
 10
15.2591771768
 20
23.4362373794
 30
0.0
 10
15.2360669391
 20
25.7963725092
 30
0.0
 10
15.2129434293
 20
28.3140939534
 30
0.0
 10
15.1898099056
 20
30.9657227809
 30
0.0
 10
15.1666680854
 20
33.7256511428
 30
0.0
 10
15.1435120789
 20
36.5675847409
 30
0.0
 10
15.1203519333
 20
39.46467965
 30
0.0
 10
15.0971912359
 20
42.3895613608
 30
0.0
 10
15.074032421
 20
45.3144824688
 30
0.0
 10
15.0508778029
 20
48.2115927057
 30
0.0
 10
15.0277256288
 20
51.0532551949
 30
0.0
 10
15.0045739886
 20
53.8123890433
 30
0.0
 10
14.9814363364
 20
56.4630711149
 30
0.0
 10
14.9583172964
 20
58.9804861713
 30
0.0
 10
14.9352261167
 20
61.3402687
 30
0.0
 10
14.9121460863
 20
63.5196492796
 30
0.0
 10
14.8891009812
 20
65.4981804138
 30
0.0
 10
14.8693351749
 20
67.0131309829
 30
0.0
 10
14.8533225009
 20
68.1113469903
 30
0.0
 10
14.8417430708
 20
68.8447538572
 30
0.0
 10
14.8301771917
 20
69.5150124387
 30
0.0
 10
14.8186197171
 20
70.1203846073
 30
0.0
 10
14.8070801821
 20
70.6595683617
 30
0.0
 10
14.7955673131
 20
71.1316643173
 30
0.0
 10
14.7856175087
 20
71.4827802453
 30
0.0
 10
14.7775288192
 20
71.729507733
 30
0.0
 10
14.7717478283
 20
71.8886632763
 30
0.0
 10
14.7659763871
 20
72.0303699669
 30
0.0
 10
14.7602196035
 20
72.1545029954
 30
0.0
 10
14.7544792679
 20
72.2609487386
 30
0.0
 10
14.7487800755
 20
72.3496270832
 30
0.0
 10
14.7431142599
 20
72.4204614254
 30
0.0
 10
14.7381582475
 20
72.4683200407
 30
0.0
 10
14.7339475926
 20
72.4975793741
 30
0.0
 10
14.7311553934
 20
72.5128892552
 30
0.0
 10
14.7283897573
 20
72.5236609589
 30
0.0
 10
14.7262240938
 20
72.5293808735
 30
0.0
 10
14.7248697221
 20
72.5312278455
 30
0.0
  0
SPLINE
  5
2BE
100
AcDbEntity
  8
0
100
AcDbSpline
 62
7
  6
CONTINUOUS
 70
0
 71
3
 72
65
 73
61
 74
0
 42
0.0000001
 43
0.0000001
 44
0.0000000001
 40
0.0
 40
0.0
 40
0.0
 40
0.0
 40
0.0001122114
 40
0.0002939568
 40
0.0005477147
 40
0.0008743202
 40
0.0017473466
 40
0.0029144511
 40
0.0043760849
 40
0.006132424
 40
0.0081835276
 40
0.0105290862
 40
0.013167159
 40
0.0160952717
 40
0.0228116547
 40
0.0306582585
 40
0.039615029
 40
0.0496618753
 40
0.0607786851
 40
0.0729450212
 40
0.0861324861
 40
0.1154231134
 40
0.1483531376
 40
0.1846244141
 40
0.2239065269
 40
0.2658062933
 40
0.309923294
 40
0.3558529742
 40
0.4031559495
 40
0.4513753622
 40
0.5000542082
 40
0.5487341273
 40
0.5969542653
 40
0.6442535002
 40
0.6901745664
 40
0.734290608
 40
0.7761891929
 40
0.8154583732
 40
0.851719018
 40
0.8846491523
 40
0.9139325566
 40
0.9271085254
 40
0.9392643569
 40
0.9503769084
 40
0.960423222
 40
0.9693803536
 40
0.9772253807
 40
0.9839354185
 40
0.9868576921
 40
0.9894884255
 40
0.9918270127
 40
0.9938730412
 40
0.9956261308
 40
0.9970859594
 40
0.9982523217
 40
0.9991252873
 40
0.9994519984
 40
0.9997058886
 40
0.9998877452
 40
1.0
 40
1.0
 40
1.0
 40
1.0
 10
25.9708982504
 20
12.236212597
 30
0.0
 10
25.9695448264
 20
12.238016976
 30
0.0
 10
25.9673747581
 20
12.2436424103
 30
0.0
 10
25.9646092606
 20
12.2542484424
 30
0.0
 10
25.9618154371
 20
12.2693458301
 30
0.0
 10
25.9576015326
 20
12.2982440264
 30
0.0
 10
25.9526425728
 20
12.345583046
 30
0.0
 10
25.9469746472
 20
12.4157394279
 30
0.0
 10
25.9412732358
 20
12.5037045581
 30
0.0
 10
25.935529457
 20
12.6094624691
 30
0.0
 10
25.929768668
 20
12.7330107803
 30
0.0
 10
25.9239953579
 20
12.8742983133
 30
0.0
 10
25.9182121407
 20
13.0332272917
 30
0.0
 10
25.9101165867
 20
13.2799864283
 30
0.0
 10
25.9001630415
 20
13.6314351435
 30
0.0
 10
25.8886494543
 20
14.1040655381
 30
0.0
 10
25.8771082429
 20
14.6436581747
 30
0.0
 10
25.8655447441
 20
15.2489978359
 30
0.0
 10
25.8539665753
 20
15.9188631583
 30
0.0
 10
25.842380507
 20
16.6518663602
 30
0.0
 10
25.8263588576
 20
17.7501555727
 30
0.0
 10
25.8065815431
 20
19.2658034488
 30
0.0
 10
25.7835283274
 20
21.245452637
 30
0.0
 10
25.7604399421
 20
23.4259522509
 30
0.0
 10
25.7373344703
 20
25.7867613813
 30
0.0
 10
25.7142011613
 20
28.3052839128
 30
0.0
 10
25.6910489455
 20
30.9574341197
 30
0.0
 10
25.6678925131
 20
33.7181979615
 30
0.0
 10
25.644729669
 20
36.5614269953
 30
0.0
 10
25.6215600305
 20
39.4599186526
 30
0.0
 10
25.5983876713
 20
42.3860890618
 30
0.0
 10
25.575216001
 20
45.3122740547
 30
0.0
 10
25.5520473263
 20
48.2107266839
 30
0.0
 10
25.5288851419
 20
51.0537219587
 30
0.0
 10
25.5057246261
 20
53.8142181419
 30
0.0
 10
25.4825745888
 20
56.4661521802
 30
0.0
 10
25.4594456313
 20
58.9843717566
 30
0.0
 10
25.4363357418
 20
61.3446834109
 30
0.0
 10
25.4132434559
 20
63.5247115049
 30
0.0
 10
25.3901965881
 20
65.5040040528
 30
0.0
 10
25.3704237434
 20
67.0192779076
 30
0.0
 10
25.3543955667
 20
68.1169795413
 30
0.0
 10
25.3428062977
 20
68.8494547944
 30
0.0
 10
25.3312292909
 20
69.5190126316
 30
0.0
 10
25.3196670513
 20
70.1242632519
 30
0.0
 10
25.3081277557
 20
70.6638207795
 30
0.0
 10
25.2966167792
 20
71.1362992132
 30
0.0
 10
25.2866643321
 20
71.4874712614
 30
0.0
 10
25.2785662759
 20
71.7338376691
 30
0.0
 10
25.2727812836
 20
71.8923612894
 30
0.0
 10
25.2670057677
 20
72.0332587332
 30
0.0
 10
25.2612446969
 20
72.1564992243
 30
0.0
 10
25.2555009642
 20
72.2620532119
 30
0.0
 10
25.249799595
 20
72.34990156
 30
0.0
 10
25.2441318111
 20
72.4200053412
 30
0.0
 10
25.2391734299
 20
72.4673303087
 30
0.0
 10
25.2349601988
 20
72.4962321419
 30
0.0
 10
25.2321666037
 20
72.5113367942
 30
0.0
 10
25.2294011975
 20
72.5219485716
 30
0.0
 10
25.2272316686
 20
72.5275778326
 30
0.0
 10
25.2258777027
 20
72.5293828966
 30
0.0
  0
SPLINE
  5
2BF
100
AcDbEntity
  8
0
100
AcDbSpline
 62
7
  6
CONTINUOUS
 70
0
 71
3
 72
32
 73
28
 74
0
 42
0.0000001
 43
0.0000001
 44
0.0000000001
 40
0.0
 40
0.0
 40
0.0
 40
0.0
 40
0.000611425
 40
0.0017269663
 40
0.0033640248
 40
0.0055258801
 40
0.0082128177
 40
0.0114241605
 40
0.0151588115
 40
0.0194154616
 40
0.0294889417
 40
0.0416321065
 40
0.0558277919
 40
0.0720562379
 40
0.0902975162
 40
0.1105316284
 40
0.1327395938
 40
0.1569042718
 40
0.2110358413
 40
0.2727629622
 40
0.3417855085
 40
0.4177609166
 40
0.5003474186
 40
0.5892035684
 40
0.6839843612
 40
0.7843405665
 40
1.0
 40
1.0
 40
1.0
 40
1.0
 10
13.9700007246
 20
12.2337721827
 30
0.0
 10
13.967964002
 20
12.2360734983
 30
0.0
 10
13.9652250303
 20
12.2446858789
 30
0.0
 10
13.9615193276
 20
12.2609592232
 30
0.0
 10
13.9578908036
 20
12.2855194476
 30
0.0
 10
13.9540973856
 20
12.3178517602
 30
0.0
 10
13.9503072318
 20
12.358206706
 30
0.0
 10
13.9464826165
 20
12.4064673683
 30
0.0
 10
13.9426495295
 20
12.4626467156
 30
0.0
 10
13.9372159356
 20
12.5532814028
 30
0.0
 10
13.9305801197
 20
12.686179858
 30
0.0
 10
13.9229480094
 20
12.8690378975
 30
0.0
 10
13.9152914009
 20
13.0828545323
 30
0.0
 10
13.9076135345
 20
13.3273375826
 30
0.0
 10
13.8999223815
 20
13.6021839387
 30
0.0
 10
13.8922205379
 20
13.9070948647
 30
0.0
 10
13.8845100272
 20
14.2417864876
 30
0.0
 10
13.8738130159
 20
14.7468297163
 30
0.0
 10
13.8606034526
 20
15.450494954
 30
0.0
 10
13.8452754319
 20
16.3796227857
 30
0.0
 10
13.8299111348
 20
17.4185552561
 30
0.0
 10
13.8144912945
 20
18.5623410794
 30
0.0
 10
13.7990660193
 20
19.8058231837
 30
0.0
 10
13.7837387416
 20
21.1438331151
 30
0.0
 10
13.7684289233
 20
22.5711630923
 30
0.0
 10
13.7470521802
 20
24.6358055055
 30
0.0
 10
13.731390177
 20
26.2240930819
 30
0.0
 10
13.7218645738
 20
27.3080029484
 30
0.0
  0
SPLINE
  5
2C0
100
AcDbEntity
  8
0
100
AcDbSpline
 62
7
  6
CONTINUOUS
 70
0
 71
3
 72
65
 73
61
 74
0
 42
0.0000001
 43
0.0000001
 44
0.0000000001
 40
0.0
 40
0.0
 40
0.0
 40
0.0
 40
0.0001126056
 40
0.0002957239
 40
0.0005517856
 40
0.0008814612
 40
0.0017622578
 40
0.0029381929
 40
0.0044083873
 40
0.0061716894
 40
0.0082268321
 40
0.0105724904
 40
0.0132073079
 40
0.0161299091
 40
0.0228328992
 40
0.0306702849
 40
0.0396297582
 40
0.0496881054
 40
0.060815697
 40
0.0729828073
 40
0.0861597015
 40
0.1154238694
 40
0.1483575181
 40
0.1846321597
 40
0.2238898881
 40
0.2657720648
 40
0.3098889414
 40
0.3558069664
 40
0.4030892877
 40
0.4512957993
 40
0.4999676293
 40
0.5486391883
 40
0.5968451188
 40
0.6441301033
 40
0.6900522765
 40
0.7341707176
 40
0.7760535827
 40
0.815318456
 40
0.8515996764
 40
0.8845329298
 40
0.9138030744
 40
0.9269853386
 40
0.9391576746
 40
0.9502890484
 40
0.9603484354
 40
0.9693065801
 40
0.9771459242
 40
0.9838537117
 40
0.9867793103
 40
0.989417276
 40
0.9917660468
 40
0.9938240798
 40
0.9955898641
 40
0.9970619463
 40
0.998238989
 40
0.9991199294
 40
0.9994492638
 40
0.9997048144
 40
0.9998875245
 40
1.0
 40
1.0
 40
1.0
 40
1.0
 10
24.4708635344
 20
12.2352083986
 30
0.0
 10
24.4695053517
 20
12.2370191831
 30
0.0
 10
24.4673374124
 20
12.2426864658
 30
0.0
 10
24.4645737007
 20
12.2533757282
 30
0.0
 10
24.4617825223
 20
12.2686128084
 30
0.0
 10
24.4575709197
 20
12.2977784565
 30
0.0
 10
24.452615689
 20
12.3455167386
 30
0.0
 10
24.4469498299
 20
12.4161822228
 30
0.0
 10
24.4412501859
 20
12.5046401762
 30
0.0
 10
24.4355079359
 20
12.6107945258
 30
0.0
 10
24.4297482726
 20
12.734569289
 30
0.0
 10
24.4239740899
 20
12.875877998
 30
0.0
 10
24.4181903549
 20
13.0346364986
 30
0.0
 10
24.4100950091
 20
13.2809559825
 30
0.0
 10
24.4001380939
 20
13.6318476577
 30
0.0
 10
24.3886230327
 20
14.1040892706
 30
0.0
 10
24.3770887251
 20
14.6437954768
 30
0.0
 10
24.3655335883
 20
15.2496524057
 30
0.0
 10
24.3539621788
 20
15.9199977328
 30
0.0
 10
24.3423781018
 20
16.6530386546
 30
0.0
 10
24.3263549698
 20
17.7506257657
 30
0.0
 10
24.3065672188
 20
19.2656389354
 30
0.0
 10
24.2835347663
 20
21.2449452745
 30
0.0
 10
24.2604593792
 20
23.4251485313
 30
0.0
 10
24.2373455815
 20
25.785239038
 30
0.0
 10
24.2142151399
 20
28.3029767719
 30
0.0
 10
24.1910772376
 20
30.9546014209
 30
0.0
 10
24.1679240161
 20
33.7147806591
 30
0.0
 10
24.1447614612
 20
36.5571702329
 30
0.0
 10
24.1215976913
 20
39.4549170832
 30
0.0
 10
24.0984319969
 20
42.3805904964
 30
0.0
 10
24.0752664109
 20
45.3062522292
 30
0.0
 10
24.0521015397
 20
48.2040354757
 30
0.0
 10
24.0289394495
 20
51.0465502974
 30
0.0
 10
24.0057873701
 20
53.8068979177
 30
0.0
 10
23.9826492553
 20
56.4586512434
 30
0.0
 10
23.9595160897
 20
58.9765778672
 30
0.0
 10
23.9364042502
 20
61.3369581106
 30
0.0
 10
23.9133322231
 20
63.5174293402
 30
0.0
 10
23.890293882
 20
65.4969800661
 30
0.0
 10
23.8705068842
 20
67.0122133996
 30
0.0
 10
23.8544856646
 20
68.1101337025
 30
0.0
 10
23.8429022351
 20
68.8434636887
 30
0.0
 10
23.8313315657
 20
69.5140110313
 30
0.0
 10
23.8197772107
 20
70.1199382146
 30
0.0
 10
23.8082383312
 20
70.6596778901
 30
0.0
 10
23.7967231467
 20
71.1320286192
 30
0.0
 10
23.7867673988
 20
71.4831164511
 30
0.0
 10
23.7786730639
 20
71.7296560546
 30
0.0
 10
23.7728894356
 20
71.8886007811
 30
0.0
 10
23.7671153959
 20
72.0300935966
 30
0.0
 10
23.7613559599
 20
72.1540391164
 30
0.0
 10
23.755614009
 20
72.2603396332
 30
0.0
 10
23.7499150263
 20
72.3489079724
 30
0.0
 10
23.7442499509
 20
72.4196368166
 30
0.0
 10
23.7392958331
 20
72.4673936448
 30
0.0
 10
23.7350829037
 20
72.496544874
 30
0.0
 10
23.7322906394
 20
72.5117558007
 30
0.0
 10
23.7295257051
 20
72.5224236022
 30
0.0
 10
23.7273570236
 20
72.5280781531
 30
0.0
 10
23.7260003785
 20
72.5298868213
 30
0.0
  0
SPLINE
  5
2C1
100
AcDbEntity
  8
0
100
AcDbSpline
 62
7
  6
CONTINUOUS
 70
0
 71
3
 72
20
 73
16
 74
0
 42
0.0000001
 43
0.0000001
 44
0.0000000001
 40
0.0
 40
0.0
 40
0.0
 40
0.0
 40
0.0025731636
 40
0.0067948179
 40
0.0216183308
 40
0.0454033368
 40
0.0781294543
 40
0.1195511951
 40
0.1693739166
 40
0.227182632
 40
0.292467443
 40
0.4431492077
 40
0.6158168784
 40
0.8040128658
 40
1.0
 40
1.0
 40
1.0
 40
1.0
 10
47.7228154627
 20
47.4621209514
 30
0.0
 10
47.7228154627
 20
47.4608283613
 30
0.0
 10
47.7206188845
 20
47.4576951874
 30
0.0
 10
47.7110808878
 20
47.452602884
 30
0.0
 10
47.6901610631
 20
47.4466310858
 30
0.0
 10
47.6550290171
 20
47.4400008807
 30
0.0
 10
47.6062455098
 20
47.4332326236
 30
0.0
 10
47.5443460046
 20
47.426509933
 30
0.0
 10
47.4697495765
 20
47.4199489163
 30
0.0
 10
47.3831159084
 20
47.4136489912
 30
0.0
 10
47.2458377904
 20
47.4053241348
 30
0.0
 10
47.050801991
 20
47.3965019834
 30
0.0
 10
46.7939465639
 20
47.3886819952
 30
0.0
 10
46.514257151
 20
47.3837693668
 30
0.0
 10
46.3212666526
 20
47.3826530612
 30
0.0
 10
46.2228154627
 20
47.3826530612
 30
0.0
  0
SPLINE
  5
2C2
100
AcDbEntity
  8
0
100
AcDbSpline
 62
7
  6
CONTINUOUS
 70
0
 71
3
 72
14
 73
10
 74
0
 42
0.0000001
 43
0.0000001
 44
0.0000000001
 40
0.0
 40
0.0
 40
0.0
 40
0.0
 40
0.0958049711
 40
0.1969869194
 40
0.3070886964
 40
0.4279987588
 40
0.5597451446
 40
0.7008676684
 40
1.0
 40
1.0
 40
1.0
 40
1.0
 10
47.7228154627
 20
58.0336960636
 30
0.0
 10
47.7228154627
 20
58.0960179348
 30
0.0
 10
47.7024705145
 20
58.224882785
 30
0.0
 10
47.6146632126
 20
58.4069388697
 30
0.0
 10
47.4740633578
 20
58.5735675921
 30
0.0
 10
47.2866260503
 20
58.7192470038
 30
0.0
 10
47.0588284381
 20
58.8390004125
 30
0.0
 10
46.7060289699
 20
58.9603011592
 30
0.0
 10
46.4174033472
 20
58.9959411823
 30
0.0
 10
46.2228154627
 20
58.9959411823
 30
0.0
  0
SPLINE
  5
2C3
100
AcDbEntity
  8
0
100
AcDbSpline
 62
7
  6
CONTINUOUS
 70
0
 71
3
 72
65
 73
61
 74
0
 42
0.0000001
 43
0.0000001
 44
0.0000000001
 40
0.0
 40
0.0
 40
0.0
 40
0.0
 40
0.0001122191
 40
0.0002940132
 40
0.000547885
 40
0.0008746936
 40
0.0017484885
 40
0.0029170039
 40
0.0043808814
 40
0.0061404878
 40
0.0081956735
 40
0.0105446082
 40
0.0131850165
 40
0.0161146031
 40
0.022832067
 40
0.0306784605
 40
0.0396351672
 40
0.0496835345
 40
0.0608048884
 40
0.0729774977
 40
0.0861680716
 40
0.1154589593
 40
0.1483892143
 40
0.1846679951
 40
0.2239526049
 40
0.2658509917
 40
0.3099691337
 40
0.3559020377
 40
0.4032044963
 40
0.4514220846
 40
0.50010016
 40
0.5487799239
 40
0.5969988255
 40
0.6442941808
 40
0.6902119307
 40
0.73432779
 40
0.7762238986
 40
0.815485108
 40
0.8517440766
 40
0.8846744196
 40
0.9139511074
 40
0.9271217551
 40
0.9392756237
 40
0.9503883502
 40
0.9604355808
 40
0.969392975
 40
0.9772362147
 40
0.9839410325
 40
0.9868598528
 40
0.9894881372
 40
0.9918252662
 40
0.9938706397
 40
0.9956236896
 40
0.9970839057
 40
0.9982508948
 40
0.9991245377
 40
0.9994515473
 40
0.9997056777
 40
0.999887692
 40
1.0
 40
1.0
 40
1.0
 40
1.0
 10
27.4699993321
 20
12.2350542024
 30
0.0
 10
27.468645773
 20
12.2368587918
 30
0.0
 10
27.4664756777
 20
12.2424857902
 30
0.0
 10
27.4637102061
 20
12.2530957898
 30
0.0
 10
27.4609164569
 20
12.2682013636
 30
0.0
 10
27.456702211
 20
12.2971227867
 30
0.0
 10
27.4517431229
 20
12.3445120006
 30
0.0
 10
27.4460752589
 20
12.4147605588
 30
0.0
 10
27.4403739551
 20
12.5028688673
 30
0.0
 10
27.434630775
 20
12.6088244079
 30
0.0
 10
27.4288724084
 20
12.7325938868
 30
0.0
 10
27.423098881
 20
12.8740844083
 30
0.0
 10
27.4173153206
 20
13.0331646235
 30
0.0
 10
27.4092204133
 20
13.2800325573
 30
0.0
 10
27.3992664096
 20
13.6315432386
 30
0.0
 10
27.3877519375
 20
14.1042097866
 30
0.0
 10
27.376210181
 20
14.6438502563
 30
0.0
 10
27.3646462685
 20
15.2493361199
 30
0.0
 10
27.3530691997
 20
15.9194777941
 30
0.0
 10
27.3414860042
 20
16.6527919543
 30
0.0
 10
27.3254645578
 20
17.7513213697
 30
0.0
 10
27.3056856884
 20
19.2671055571
 30
0.0
 10
27.2826300725
 20
21.2469989869
 30
0.0
 10
27.2595473898
 20
23.4277963608
 30
0.0
 10
27.2364410601
 20
25.7888784127
 30
0.0
 10
27.213306342
 20
28.307552604
 30
0.0
 10
27.1901547768
 20
30.9598747368
 30
0.0
 10
27.1670005756
 20
33.7208324455
 30
0.0
 10
27.1438372599
 20
36.5641991831
 30
0.0
 10
27.1206675183
 20
39.4627505819
 30
0.0
 10
27.0974957444
 20
42.3889891712
 30
0.0
 10
27.0743249099
 20
45.3152541689
 30
0.0
 10
27.051157199
 20
48.2137231348
 30
0.0
 10
27.0279946129
 20
51.0566688503
 30
0.0
 10
27.0048336827
 20
53.8171331835
 30
0.0
 10
26.9816855516
 20
56.4690590219
 30
0.0
 10
26.9585587732
 20
58.9871711936
 30
0.0
 10
26.9354448463
 20
61.3473386841
 30
0.0
 10
26.9123544014
 20
63.5272690408
 30
0.0
 10
26.8893115336
 20
65.5064806274
 30
0.0
 10
26.8695386499
 20
67.0215806267
 30
0.0
 10
26.8535068548
 20
68.1190470639
 30
0.0
 10
26.8419184225
 20
68.8514103184
 30
0.0
 10
26.8303421587
 20
69.520978915
 30
0.0
 10
26.8187809404
 20
70.1262823361
 30
0.0
 10
26.8072428983
 20
70.6658504456
 30
0.0
 10
26.7957338884
 20
71.1382132516
 30
0.0
 10
26.7857809543
 20
71.4891897655
 30
0.0
 10
26.7776798184
 20
71.7353427757
 30
0.0
 10
26.7718948826
 20
71.8937250345
 30
0.0
 10
26.7661194774
 20
72.0345366496
 30
0.0
 10
26.7603585394
 20
72.1577390311
 30
0.0
 10
26.7546149474
 20
72.263291304
 30
0.0
 10
26.7489137381
 20
72.3511630119
 30
0.0
 10
26.7432461508
 20
72.4213038788
 30
0.0
 10
26.7382882097
 20
72.4686633165
 30
0.0
 10
26.7340753123
 20
72.4975910709
 30
0.0
 10
26.7312820081
 20
72.5127107867
 30
0.0
 10
26.7285167109
 20
72.5233321659
 30
0.0
 10
26.7263476836
 20
72.5289667822
 30
0.0
 10
26.7249930783
 20
72.5307728226
 30
0.0
  0
SPLINE
  5
2C4
100
AcDbEntity
  8
0
100
AcDbSpline
 62
7
  6
CONTINUOUS
 70
0
 71
3
 72
15
 73
11
 74
0
 42
0.0000001
 43
0.0000001
 44
0.0000000001
 40
0.0
 40
0.0
 40
0.0
 40
0.0
 40
0.0881223043
 40
0.1828950978
 40
0.2890875056
 40
0.4090022728
 40
0.5425436393
 40
0.6877879985
 40
0.8416965255
 40
1.0
 40
1.0
 40
1.0
 40
1.0
 10
47.7228154627
 20
66.2524477546
 30
0.0
 10
47.7228154627
 20
66.3073336673
 30
0.0
 10
47.7020114349
 20
66.4220430705
 30
0.0
 10
47.6129376698
 20
66.5814532323
 30
0.0
 10
47.4717361041
 20
66.7254905286
 30
0.0
 10
47.2843353799
 20
66.8504618844
 30
0.0
 10
47.0570070649
 20
66.9526817611
 30
0.0
 10
46.7976948361
 20
67.0287374067
 30
0.0
 10
46.5160416625
 20
67.0755719244
 30
0.0
 10
46.3214128695
 20
67.0861111261
 30
0.0
 10
46.2228154627
 20
67.0861111261
 30
0.0
  0
SPLINE
  5
2C5
100
AcDbEntity
  8
0
100
AcDbSpline
 62
7
  6
CONTINUOUS
 70
0
 71
3
 72
65
 73
61
 74
0
 42
0.0000001
 43
0.0000001
 44
0.0000000001
 40
0.0
 40
0.0
 40
0.0
 40
0.0
 40
0.0001093902
 40
0.0002884177
 40
0.0005395406
 40
0.0008635978
 40
0.0017318751
 40
0.002894889
 40
0.0043533613
 40
0.0061076971
 40
0.0081570812
 40
0.0104996295
 40
0.0131333889
 40
0.0160563876
 40
0.0227621358
 40
0.0305996497
 40
0.0395496424
 40
0.0495925562
 40
0.0607062447
 40
0.0728650933
 40
0.0860430409
 40
0.1153222317
 40
0.1482425991
 40
0.1845058097
 40
0.2237810204
 40
0.2656719777
 40
0.3097862227
 40
0.3557138819
 40
0.4030120949
 40
0.4512304755
 40
0.4999116323
 40
0.5485927668
 40
0.5968149632
 40
0.6441176906
 40
0.6900453473
 40
0.7341686549
 40
0.7760714343
 40
0.8153500812
 40
0.8516231983
 40
0.8845604799
 40
0.9138552175
 40
0.9270373344
 40
0.9391985828
 40
0.9503167449
 40
0.9603698334
 40
0.9693339194
 40
0.9771835377
 40
0.983894036
 40
0.9868171263
 40
0.9894507554
 40
0.9917939485
 40
0.9938457438
 40
0.9956052029
 40
0.997071437
 40
0.9982436738
 40
0.9991214113
 40
0.9994499121
 40
0.9997050962
 40
0.9998876732
 40
1.0
 40
1.0
 40
1.0
 40
1.0
 10
19.9749663366
 20
73.530293113
 30
0.0
 10
19.9763300878
 20
73.5284760906
 30
0.0
 10
19.9784884619
 20
73.5227518032
 30
0.0
 10
19.9812496455
 20
73.5119481889
 30
0.0
 10
19.9840371675
 20
73.4964965653
 30
0.0
 10
19.9882545324
 20
73.4668287554
 30
0.0
 10
19.9932163954
 20
73.4181385814
 30
0.0
 10
19.9988919096
 20
73.3458885107
 30
0.0
 10
20.0046010742
 20
73.2551831898
 30
0.0
 10
20.0103489713
 20
73.1460464903
 30
0.0
 10
20.0161104139
 20
73.0185265674
 30
0.0
 10
20.0218850933
 20
72.8727274017
 30
0.0
 10
20.0276680779
 20
72.7087722038
 30
0.0
 10
20.0357623141
 20
72.4542266826
 30
0.0
 10
20.0457144112
 20
72.0916136984
 30
0.0
 10
20.0572272421
 20
71.6038292715
 30
0.0
 10
20.0687692854
 20
71.0467207352
 30
0.0
 10
20.0803326892
 20
70.4215586121
 30
0.0
 10
20.0919089502
 20
69.7297433899
 30
0.0
 10
20.1034977056
 20
68.9728101736
 30
0.0
 10
20.1195241539
 20
67.8386313277
 30
0.0
 10
20.1392977236
 20
66.2732780277
 30
0.0
 10
20.1623522809
 20
64.2284840615
 30
0.0
 10
20.1854417097
 20
61.9760762602
 30
0.0
 10
20.2085472925
 20
59.5373540599
 30
0.0
 10
20.231682715
 20
56.9355711585
 30
0.0
 10
20.2548334281
 20
54.1956219008
 30
0.0
 10
20.277991993
 20
51.3433683228
 30
0.0
 10
20.3011557287
 20
48.4058753562
 30
0.0
 10
20.3243250835
 20
45.4111946991
 30
0.0
 10
20.3474985275
 20
42.387792027
 30
0.0
 10
20.370671115
 20
39.3643100971
 30
0.0
 10
20.3938394035
 20
36.3694568839
 30
0.0
 10
20.4170024044
 20
33.4317909518
 30
0.0
 10
20.4401646661
 20
30.5792554726
 30
0.0
 10
20.4633129717
 20
27.8388724878
 30
0.0
 10
20.4864437726
 20
25.2365844167
 30
0.0
 10
20.5095559936
 20
22.7973396206
 30
0.0
 10
20.5326459309
 20
20.5443034031
 30
0.0
 10
20.5556962288
 20
18.4986294293
 30
0.0
 10
20.5754643274
 20
16.9325152374
 30
0.0
 10
20.5914986031
 20
15.7978771407
 30
0.0
 10
20.6030949908
 20
15.0407146739
 30
0.0
 10
20.614673469
 20
14.3485453877
 30
0.0
 10
20.6262172062
 20
13.7227858929
 30
0.0
 10
20.637733277
 20
13.1649212694
 30
0.0
 10
20.6492418132
 20
12.6764937523
 30
0.0
 10
20.6592591487
 20
12.3135303794
 30
0.0
 10
20.6674159428
 20
12.0588889546
 30
0.0
 10
20.673226933
 20
11.8949221779
 30
0.0
 10
20.6790006192
 20
11.7490622127
 30
0.0
 10
20.6847199732
 20
11.6213705023
 30
0.0
 10
20.6903642918
 20
11.5119105086
 30
0.0
 10
20.6959134464
 20
11.4207357077
 30
0.0
 10
20.7014188214
 20
11.3479217259
 30
0.0
 10
20.7062495475
 20
11.2987365181
 30
0.0
 10
20.7103949893
 20
11.2686812906
 30
0.0
 10
20.7131604338
 20
11.2529723716
 30
0.0
 10
20.7159248065
 20
11.2419415929
 30
0.0
 10
20.7181076693
 20
11.2360839522
 30
0.0
 10
20.7194904586
 20
11.23420509
 30
0.0
  0
SPLINE
  5
2C6
100
AcDbEntity
  8
0
100
AcDbSpline
 62
7
  6
CONTINUOUS
 70
0
 71
3
 72
15
 73
11
 74
0
 42
0.0000001
 43
0.0000001
 44
0.0000000001
 40
0.0
 40
0.0
 40
0.0
 40
0.0
 40
0.1227156712
 40
0.2459211552
 40
0.3696883413
 40
0.4942927883
 40
0.6197594938
 40
0.7459794487
 40
0.8728731932
 40
1.0
 40
1.0
 40
1.0
 40
1.0
 10
47.7228154627
 20
11.9792656339
 30
0.0
 10
47.7228154627
 20
11.8837750265
 30
0.0
 10
47.7037265012
 20
11.6918875294
 30
0.0
 10
47.6191902245
 20
11.4150508673
 30
0.0
 10
47.4812714088
 20
11.1587717659
 30
0.0
 10
47.2949403848
 20
10.9329527941
 30
0.0
 10
47.0666564804
 20
10.7466063523
 30
0.0
 10
46.8049239631
 20
10.6072954831
 30
0.0
 10
46.5199400162
 20
10.5212548357
 30
0.0
 10
46.3217385739
 20
10.5017882164
 30
0.0
 10
46.2228154627
 20
10.5017882164
 30
0.0
  0
SPLINE
  5
2C7
100
AcDbEntity
  8
0
100
AcDbSpline
 62
7
  6
CONTINUOUS
 70
0
 71
3
 72
65
 73
61
 74
0
 42
0.0000001
 43
0.0000001
 44
0.0000000001
 40
0.0
 40
0.0
 40
0.0
 40
0.0
 40
0.0001124802
 40
0.0002950312
 40
0.0005500201
 40
0.0008781618
 40
0.0017546961
 40
0.0029250919
 40
0.0043888474
 40
0.0061451876
 40
0.0081932211
 40
0.0105319987
 40
0.0131605395
 40
0.0160778433
 40
0.0227746775
 40
0.0306129117
 40
0.0395712713
 40
0.049622755
 40
0.0607403002
 40
0.07289683
 40
0.0860652587
 40
0.1153281637
 40
0.1482595763
 40
0.1845221609
 40
0.2237739107
 40
0.2656622371
 40
0.309778018
 40
0.3556933035
 40
0.4029796923
 40
0.451193182
 40
0.4998702093
 40
0.5485459716
 40
0.5967578296
 40
0.6440540454
 40
0.6899863087
 40
0.7341072332
 40
0.7759990764
 40
0.8152794004
 40
0.8515678398
 40
0.8844996318
 40
0.9137840542
 40
0.9269745214
 40
0.9391523763
 40
0.9502840398
 40
0.9603381448
 40
0.9692950515
 40
0.9771390202
 40
0.9838543502
 40
0.9867838896
 40
0.989425416
 40
0.991776998
 40
0.9938367231
 40
0.9956027117
 40
0.9970731428
 40
0.9982465652
 40
0.9991233851
 40
0.9994511186
 40
0.9997055868
 40
0.9998876962
 40
1.0
 40
1.0
 40
1.0
 40
1.0
 10
28.9700862745
 20
12.2340536339
 30
0.0
 10
28.9687295783
 20
12.2358624665
 30
0.0
 10
28.9665620471
 20
12.2415141997
 30
0.0
 10
28.9637971147
 20
12.2521674514
 30
0.0
 10
28.9610047776
 20
12.2673396123
 30
0.0
 10
28.9567925489
 20
12.2963667523
 30
0.0
 10
28.9518358239
 20
12.3438771811
 30
0.0
 10
28.9461689023
 20
12.4142172973
 30
0.0
 10
28.9404683095
 20
12.5022963572
 30
0.0
 10
28.9347252551
 20
12.6080410112
 30
0.0
 10
28.9289648301
 20
12.7313978761
 30
0.0
 10
28.9231899216
 20
12.8723031142
 30
0.0
 10
28.9174054697
 20
13.030695188
 30
0.0
 10
28.9093065678
 20
13.2766654338
 30
0.0
 10
28.8993465293
 20
13.6273544315
 30
0.0
 10
28.887838753
 20
14.0994814363
 30
0.0
 10
28.8763041458
 20
14.6390606648
 30
0.0
 10
28.8647455137
 20
15.2445735255
 30
0.0
 10
28.8531714244
 20
15.9143864425
 30
0.0
 10
28.8415849929
 20
16.6468646694
 30
0.0
 10
28.8255550478
 20
17.7440766777
 30
0.0
 10
28.8057729863
 20
19.2588953455
 30
0.0
 10
28.7827396706
 20
21.2379489642
 30
0.0
 10
28.7596557565
 20
23.4178107226
 30
0.0
 10
28.7365378181
 20
25.7777338185
 30
0.0
 10
28.7134116573
 20
28.2955293524
 30
0.0
 10
28.6902685097
 20
30.9472808916
 30
0.0
 10
28.6671105109
 20
33.707548461
 30
0.0
 10
28.6439466143
 20
36.5501911924
 30
0.0
 10
28.620781411
 20
39.4483524282
 30
0.0
 10
28.5976127745
 20
42.3744437941
 30
0.0
 10
28.5744439851
 20
45.3005023586
 30
0.0
 10
28.5512753205
 20
48.1988028849
 30
0.0
 10
28.5281121788
 20
51.0419516697
 30
0.0
 10
28.5049599126
 20
53.8028615371
 30
0.0
 10
28.4818145795
 20
56.4551284595
 30
0.0
 10
28.4586784554
 20
58.9736724247
 30
0.0
 10
28.4355685541
 20
61.3347604797
 30
0.0
 10
28.4124961298
 20
63.5157241914
 30
0.0
 10
28.3894433267
 20
65.4957375576
 30
0.0
 10
28.3696602138
 20
67.0114394553
 30
0.0
 10
28.3536395267
 20
68.1099559753
 30
0.0
 10
28.3420560983
 20
68.8435899011
 30
0.0
 10
28.3304858128
 20
69.5141681828
 30
0.0
 10
28.3189237935
 20
70.1199883382
 30
0.0
 10
28.307381632
 20
70.6597062007
 30
0.0
 10
28.2958663581
 20
71.1322910134
 30
0.0
 10
28.2859115088
 20
71.4837134491
 30
0.0
 10
28.2778173575
 20
71.7305631192
 30
0.0
 10
28.2720335128
 20
71.8897201062
 30
0.0
 10
28.2662594224
 20
72.0313794554
 30
0.0
 10
28.2605002749
 20
72.1554234936
 30
0.0
 10
28.2547589851
 20
72.2617322283
 30
0.0
 10
28.2490616881
 20
72.3502013286
 30
0.0
 10
28.2433954729
 20
72.4207429787
 30
0.0
 10
28.2384364162
 20
72.4683119331
 30
0.0
 10
28.2342215071
 20
72.4973258474
 30
0.0
 10
28.2314282709
 20
72.5124694915
 30
0.0
 10
28.2286629979
 20
72.5230999369
 30
0.0
 10
28.2264933117
 20
72.528736418
 30
0.0
 10
28.2251387338
 20
72.5305424069
 30
0.0
  0
SPLINE
  5
2C8
100
AcDbEntity
  8
0
100
AcDbSpline
 62
7
  6
CONTINUOUS
 70
0
 71
3
 72
15
 73
11
 74
0
 42
0.0000001
 43
0.0000001
 44
0.0000000001
 40
0.0
 40
0.0
 40
0.0
 40
0.0
 40
0.0881273908
 40
0.1829021875
 40
0.2890916548
 40
0.4090044256
 40
0.5425453605
 40
0.687789256
 40
0.8416970942
 40
1.0
 40
1.0
 40
1.0
 40
1.0
 10
47.7228154627
 20
18.5128583678
 30
0.0
 10
47.7228154627
 20
18.4579691004
 30
0.0
 10
47.7020123233
 20
18.3432549703
 30
0.0
 10
47.6129411929
 20
18.183838933
 30
0.0
 10
47.4717350021
 20
18.0398069332
 30
0.0
 10
47.2843340668
 20
17.9148415602
 30
0.0
 10
47.0570071682
 20
17.8126211767
 30
0.0
 10
46.7976950487
 20
17.7365649837
 30
0.0
 10
46.5160415268
 20
17.6897327154
 30
0.0
 10
46.3214128506
 20
17.6791949964
 30
0.0
 10
46.2228154627
 20
17.6791949964
 30
0.0
  0
SPLINE
  5
2C9
100
AcDbEntity
  8
0
100
AcDbSpline
 62
7
  6
CONTINUOUS
 70
0
 71
3
 72
65
 73
61
 74
0
 42
0.0000001
 43
0.0000001
 44
0.0000000001
 40
0.0
 40
0.0
 40
0.0
 40
0.0
 40
0.0001100573
 40
0.0002907342
 40
0.0005442939
 40
0.0008713711
 40
0.0017466265
 40
0.0029165226
 40
0.0043801729
 40
0.0061364514
 40
0.0081843818
 40
0.0105231306
 40
0.0131518389
 40
0.0160696296
 40
0.022768744
 40
0.0306071151
 40
0.0395633013
 40
0.0496151505
 40
0.0607373681
 40
0.0729013384
 40
0.0860782088
 40
0.1153493082
 40
0.1482922055
 40
0.1845750924
 40
0.2238450682
 40
0.2657520773
 40
0.3098871628
 40
0.3558235177
 40
0.4031325207
 40
0.4513634906
 40
0.5000573623
 40
0.5487514395
 40
0.5969786784
 40
0.6442842565
 40
0.6902234584
 40
0.7343504808
 40
0.7762458988
 40
0.8155177647
 40
0.8517960522
 40
0.884724427
 40
0.9139856672
 40
0.9271627032
 40
0.9393286393
 40
0.9504497208
 40
0.9604927807
 40
0.9694349419
 40
0.9772615626
 40
0.9839581624
 40
0.9868778702
 40
0.9895091242
 40
0.9918498925
 40
0.9938981643
 40
0.9956519913
 40
0.9971103226
 40
0.9982731705
 40
0.9991408461
 40
0.9994643014
 40
0.9997145388
 40
0.9998923197
 40
1.0
 40
1.0
 40
1.0
 40
1.0
 10
18.474949811
 20
73.5314156058
 30
0.0
 10
18.4763195821
 20
73.5295857344
 30
0.0
 10
18.4784740444
 20
73.5238057168
 30
0.0
 10
18.4812359398
 20
73.5129025461
 30
0.0
 10
18.4840222039
 20
73.4972995189
 30
0.0
 10
18.4882386394
 20
73.467370886
 30
0.0
 10
18.4931990256
 20
73.4183272697
 30
0.0
 10
18.4988753482
 20
73.3456796672
 30
0.0
 10
18.5045852823
 20
73.2546815643
 30
0.0
 10
18.5103358095
 20
73.1454254196
 30
0.0
 10
18.5161003742
 20
73.0179724159
 30
0.0
 10
18.5218771206
 20
72.8723851569
 30
0.0
 10
18.5276618129
 20
72.7087195339
 30
0.0
 10
18.5357606555
 20
72.4545210699
 30
0.0
 10
18.5457176115
 20
72.0921305673
 30
0.0
 10
18.5572312163
 20
71.6043296193
 30
0.0
 10
18.5687753448
 20
71.0468800535
 30
0.0
 10
18.5803393226
 20
70.4212164253
 30
0.0
 10
18.591915406
 20
69.7289208885
 30
0.0
 10
18.6035040506
 20
68.9717142959
 30
0.0
 10
18.6195348433
 20
67.837601283
 30
0.0
 10
18.6393315541
 20
66.2719455077
 30
0.0
 10
18.662373722
 20
64.2264098452
 30
0.0
 10
18.6854604868
 20
61.9731978168
 30
0.0
 10
18.7085880676
 20
59.5338031631
 30
0.0
 10
18.7317237883
 20
56.9313207955
 30
0.0
 10
18.7548754137
 20
54.1903805227
 30
0.0
 10
18.7780398503
 20
51.3372434443
 30
0.0
 10
18.8012121717
 20
48.3990369976
 30
0.0
 10
18.8243876309
 20
45.4035584425
 30
0.0
 10
18.847563303
 20
42.379312671
 30
0.0
 10
18.8707400694
 20
39.3551443995
 30
0.0
 10
18.8939169661
 20
36.3598102112
 30
0.0
 10
18.9170893805
 20
33.4216932606
 30
0.0
 10
18.9402488535
 20
30.5687356108
 30
0.0
 10
18.9634034935
 20
27.828144441
 30
0.0
 10
18.9865457948
 20
25.2260310863
 30
0.0
 10
19.0096644111
 20
22.7869333656
 30
0.0
 10
19.0327505457
 20
20.5340792303
 30
0.0
 10
19.0557999836
 20
18.4891455902
 30
0.0
 10
19.0755985601
 20
16.9239928242
 30
0.0
 10
19.0916240883
 20
15.7900402524
 30
0.0
 10
19.1032087144
 20
15.0328129255
 30
0.0
 10
19.1147823733
 20
14.3406826781
 30
0.0
 10
19.1263546146
 20
13.7155166967
 30
0.0
 10
19.1379115068
 20
13.1587854092
 30
0.0
 10
19.1494309587
 20
12.6715723428
 30
0.0
 10
19.159361586
 20
12.3094377288
 30
0.0
 10
19.1674332323
 20
12.0551979227
 30
0.0
 10
19.1732065078
 20
11.8913971714
 30
0.0
 10
19.1789829436
 20
11.7457078977
 30
0.0
 10
19.1847624659
 20
11.6182573831
 30
0.0
 10
19.1905525336
 20
11.5091577382
 30
0.0
 10
19.1963233089
 20
11.4184716332
 30
0.0
 10
19.2020571387
 20
11.3462441625
 30
0.0
 10
19.2070515479
 20
11.2975846766
 30
0.0
 10
19.2112717804
 20
11.2679617156
 30
0.0
 10
19.2140431992
 20
11.2525631258
 30
0.0
 10
19.2167763109
 20
11.2418381924
 30
0.0
 10
19.2188936694
 20
11.2361610322
 30
0.0
 10
19.2202408338
 20
11.2343759251
 30
0.0
  0
SPLINE
  5
2CA
100
AcDbEntity
  8
0
100
AcDbSpline
 62
7
  6
CONTINUOUS
 70
0
 71
3
 72
65
 73
61
 74
0
 42
0.0000001
 43
0.0000001
 44
0.0000000001
 40
0.0
 40
0.0
 40
0.0
 40
0.0
 40
0.0001122502
 40
0.0002941658
 40
0.0005482745
 40
0.000875459
 40
0.0017505184
 40
0.0029211401
 40
0.0043881558
 40
0.0061516206
 40
0.0082098565
 40
0.0105608018
 40
0.0132023617
 40
0.016132422
 40
0.0228495247
 40
0.0306950214
 40
0.0396517471
 40
0.0497025011
 40
0.0608295567
 40
0.0730061495
 40
0.0861977182
 40
0.1154864823
 40
0.1484172174
 40
0.1847023829
 40
0.2239863626
 40
0.2658820012
 40
0.3100016776
 40
0.3559354971
 40
0.4032356309
 40
0.4514505494
 40
0.5001276325
 40
0.5488064175
 40
0.597023007
 40
0.644313709
 40
0.6902295453
 40
0.7343452904
 40
0.7762378809
 40
0.8154927196
 40
0.8517523865
 40
0.8846831455
 40
0.9139521827
 40
0.9271202898
 40
0.9392744138
 40
0.9503888234
 40
0.9604377961
 40
0.9693956234
 40
0.9772366188
 40
0.983936198
 40
0.9868533624
 40
0.9894809785
 40
0.9918182348
 40
0.9938643393
 40
0.995618532
 40
0.9970801107
 40
0.9982484899
 40
0.9991233576
 40
0.9994508572
 40
0.9997053633
 40
0.9998876149
 40
1.0
 40
1.0
 40
1.0
 40
1.0
 10
30.4699729618
 20
12.2349522209
 30
0.0
 10
30.4686190224
 20
12.2367573233
 30
0.0
 10
30.4664490532
 20
12.2423879358
 30
0.0
 10
30.4636836593
 20
12.2530059478
 30
0.0
 10
30.4608901072
 20
12.2681267563
 30
0.0
 10
30.4566755282
 20
12.2970863942
 30
0.0
 10
30.4517164299
 20
12.3445516776
 30
0.0
 10
30.4460486881
 20
12.4149319175
 30
0.0
 10
30.4403484198
 20
12.5032242097
 30
0.0
 10
30.434607954
 20
12.6093827817
 30
0.0
 10
30.4288491186
 20
12.7333324633
 30
0.0
 10
30.4230752729
 20
12.8749488114
 30
0.0
 10
30.4172914829
 20
13.0341031144
 30
0.0
 10
30.4091970611
 20
13.280997982
 30
0.0
 10
30.3992426285
 20
13.6324950024
 30
0.0
 10
30.3877275889
 20
14.1051394864
 30
0.0
 10
30.3761855906
 20
14.644813557
 30
0.0
 10
30.3646215738
 20
15.2504660888
 30
0.0
 10
30.3530481671
 20
15.9208545841
 30
0.0
 10
30.3414653863
 20
16.6543879
 30
0.0
 10
30.3254443105
 20
17.7529813584
 30
0.0
 10
30.3056635258
 20
19.268761651
 30
0.0
 10
30.2826076865
 20
21.248762373
 30
0.0
 10
30.2595309996
 20
23.429698342
 30
0.0
 10
30.2364228732
 20
25.7908550955
 30
0.0
 10
30.2132871491
 20
28.309507448
 30
0.0
 10
30.190138066
 20
30.96183965
 30
0.0
 10
30.1669852289
 20
33.7228165855
 30
0.0
 10
30.1438218376
 20
36.5661185246
 30
0.0
 10
30.1206523493
 20
39.4645671084
 30
0.0
 10
30.097481868
 20
42.3907301157
 30
0.0
 10
30.0743120438
 20
45.3169267181
 30
0.0
 10
30.0511456026
 20
48.2152535275
 30
0.0
 10
30.0279822337
 20
51.058037946
 30
0.0
 10
30.0048223261
 20
53.8183846807
 30
0.0
 10
29.9816764614
 20
56.4702150947
 30
0.0
 10
29.9585508452
 20
58.9881414204
 30
0.0
 10
29.9354338334
 20
61.3481384028
 30
0.0
 10
29.9123463797
 20
63.5279763076
 30
0.0
 10
29.8893085571
 20
65.5070685314
 30
0.0
 10
29.8695318465
 20
67.0219811315
 30
0.0
 10
29.8534997567
 20
68.1192544528
 30
0.0
 10
29.841912304
 20
68.8516100471
 30
0.0
 10
29.8303369895
 20
69.5212567097
 30
0.0
 10
29.818777077
 20
70.1266413908
 30
0.0
 10
29.8072403021
 20
70.6662114025
 30
0.0
 10
29.7957337353
 20
71.1384353817
 30
0.0
 10
29.7857764191
 20
71.4892301206
 30
0.0
 10
29.777675682
 20
71.7352325219
 30
0.0
 10
29.771890972
 20
71.8935715544
 30
0.0
 10
29.7661157746
 20
72.034387849
 30
0.0
 10
29.7603550568
 20
72.1576312544
 30
0.0
 10
29.7546116962
 20
72.2632493277
 30
0.0
 10
29.748910752
 20
72.3512000577
 30
0.0
 10
29.7432434585
 20
72.421421554
 30
0.0
 10
29.7382860798
 20
72.468844129
 30
0.0
 10
29.7340735204
 20
72.4978144658
 30
0.0
 10
29.7312806444
 20
72.5129570821
 30
0.0
 10
29.7285155103
 20
72.5235925001
 30
0.0
 10
29.7263471596
 20
72.5292347155
 30
0.0
 10
29.7249916245
 20
72.5310420118
 30
0.0
  0
SPLINE
  5
2CB
100
AcDbEntity
  8
0
100
AcDbSpline
 62
7
  6
CONTINUOUS
 70
0
 71
3
 72
31
 73
27
 74
0
 42
0.0000001
 43
0.0000001
 44
0.0000000001
 40
0.0
 40
0.0
 40
0.0
 40
0.0
 40
0.0006407253
 40
0.0017819326
 40
0.0034377499
 40
0.0056124305
 40
0.0083078799
 40
0.011525168
 40
0.0195277326
 40
0.0296177083
 40
0.041780134
 40
0.0559983403
 40
0.0722553849
 40
0.0905332005
 40
0.1108116795
 40
0.1330704502
 40
0.1572891116
 40
0.2115077104
 40
0.2732372363
 40
0.3422218266
 40
0.4181542332
 40
0.5007109256
 40
0.5895481133
 40
0.6843082304
 40
0.7845996022
 40
1.0
 40
1.0
 40
1.0
 40
1.0
 10
31.2199846056
 20
11.2357411605
 30
0.0
 10
31.2179898318
 20
11.2384034677
 30
0.0
 10
31.2152664593
 20
11.2475358899
 30
0.0
 10
31.2115742057
 20
11.2648331363
 30
0.0
 10
31.2079593765
 20
11.2904885229
 30
0.0
 10
31.2041964551
 20
11.3241292287
 30
0.0
 10
31.2004435248
 20
11.3659675181
 30
0.0
 10
31.1950089137
 20
11.4380079529
 30
0.0
 10
31.1885062971
 20
11.5484694537
 30
0.0
 10
31.1811190483
 20
11.7053821338
 30
0.0
 10
31.1736982689
 20
11.8945979521
 30
0.0
 10
31.1662074358
 20
12.1158506978
 30
0.0
 10
31.1586141374
 20
12.3688681656
 30
0.0
 10
31.1508964653
 20
12.6533601621
 30
0.0
 10
31.1430942568
 20
12.9690219632
 30
0.0
 10
31.1352340041
 20
13.31553644
 30
0.0
 10
31.124302823
 20
13.8382463118
 30
0.0
 10
31.1108203991
 20
14.5658825137
 30
0.0
 10
31.0953262131
 20
15.5259474579
 30
0.0
 10
31.0800938853
 20
16.5987693389
 30
0.0
 10
31.0646980238
 20
17.7797353944
 30
0.0
 10
31.0488429862
 20
19.0637806196
 30
0.0
 10
31.0330892382
 20
20.4455894448
 30
0.0
 10
31.0178933134
 20
21.91948993
 30
0.0
 10
30.9974984928
 20
24.0504999711
 30
0.0
 10
30.9829693566
 20
25.6895391566
 30
0.0
 10
30.9730948082
 20
26.807876116
 30
0.0
  0
SPLINE
  5
2CC
100
AcDbEntity
  8
0
100
AcDbSpline
 62
7
  6
CONTINUOUS
 70
0
 71
3
 72
15
 73
11
 74
0
 42
0.0000001
 43
0.0000001
 44
0.0000000001
 40
0.0
 40
0.0
 40
0.0
 40
0.0
 40
0.1227144147
 40
0.2459193665
 40
0.3696873733
 40
0.4942924089
 40
0.6197591588
 40
0.7459791444
 40
0.872873066
 40
1.0
 40
1.0
 40
1.0
 40
1.0
 10
47.7228154627
 20
72.7860404886
 30
0.0
 10
47.7228154627
 20
72.8815300569
 30
0.0
 10
47.7037264115
 20
73.0734160625
 30
0.0
 10
47.6191896229
 20
73.3502514936
 30
0.0
 10
47.4812718281
 20
73.6065316052
 30
0.0
 10
47.2949410322
 20
73.832352134
 30
0.0
 10
47.0666564493
 20
74.0186983699
 30
0.0
 10
46.8049237956
 20
74.158008851
 30
0.0
 10
46.5199401337
 20
74.2440503825
 30
0.0
 10
46.3217386094
 20
74.2635179061
 30
0.0
 10
46.2228154627
 20
74.2635179061
 30
0.0
  0
SPLINE
  5
2CD
100
AcDbEntity
  8
0
100
AcDbSpline
 62
7
  6
CONTINUOUS
 70
0
 71
3
 72
11
 73
7
 74
0
 42
0.0000001
 43
0.0000001
 44
0.0000000001
 40
0.0
 40
0.0
 40
0.0
 40
0.0
 40
0.2430817517
 40
0.4909824042
 40
0.7438658325
 40
1.0
 40
1.0
 40
1.0
 40
1.0
 10
47.6509184204
 20
76.3628345403
 30
0.0
 10
47.6030841733
 20
76.5047080862
 30
0.0
 10
47.4582518264
 20
76.7772303301
 30
0.0
 10
47.1216225988
 20
77.0987386833
 30
0.0
 10
46.696166946
 20
77.3061270534
 30
0.0
 10
46.380575257
 20
77.3536878498
 30
0.0
 10
46.2228154627
 20
77.3536878498
 30
0.0
  0
SPLINE
  5
2CE
100
AcDbEntity
  8
0
100
AcDbSpline
 62
7
  6
CONTINUOUS
 70
0
 71
3
 72
65
 73
61
 74
0
 42
0.0000001
 43
0.0000001
 44
0.0000000001
 40
0.0
 40
0.0
 40
0.0
 40
0.0
 40
0.0001082424
 40
0.0002869602
 40
0.0005383866
 40
0.0008631679
 40
0.0017334604
 40
0.0028981392
 40
0.0043566347
 40
0.0061081382
 40
0.0081518507
 40
0.0104870158
 40
0.0131128471
 40
0.0160285379
 40
0.0227260696
 40
0.0305653293
 40
0.0395207095
 40
0.0495657019
 40
0.0606757422
 40
0.072828664
 40
0.0860020921
 40
0.1152810005
 40
0.1482117077
 40
0.1844797378
 40
0.2237503593
 40
0.2656539727
 40
0.3097812526
 40
0.3557120101
 40
0.4030216581
 40
0.4512531818
 40
0.4999452271
 40
0.5486390366
 40
0.5968694342
 40
0.6441806052
 40
0.6901243665
 40
0.7342524339
 40
0.7761550582
 40
0.8154431586
 40
0.8517209286
 40
0.8846517321
 40
0.9139360875
 40
0.9271191425
 40
0.939284917
 40
0.9504045825
 40
0.9604498989
 40
0.9693991837
 40
0.97723563
 40
0.9839425009
 40
0.9868668902
 40
0.9895022373
 40
0.9918462964
 40
0.9938968408
 40
0.9956517197
 40
0.9971100382
 40
0.9982723238
 40
0.9991394317
 40
0.9994627823
 40
0.9997131425
 40
0.9998913773
 40
1.0
 40
1.0
 40
1.0
 40
1.0
 10
34.2207939197
 20
11.2343851343
 30
0.0
 10
34.219445606
 20
11.2361839345
 30
0.0
 10
34.2173303991
 20
11.2418946051
 30
0.0
 10
34.2145972163
 20
11.2526768746
 30
0.0
 10
34.2118266652
 20
11.2681480939
 30
0.0
 10
34.2076086398
 20
11.2978784914
 30
0.0
 10
34.2026162649
 20
11.3466576799
 30
0.0
 10
34.1968833684
 20
11.4189800762
 30
0.0
 10
34.1911130733
 20
11.5096577426
 30
0.0
 10
34.1853213076
 20
11.61861568
 30
0.0
 10
34.1795393274
 20
11.745804299
 30
0.0
 10
34.1737610381
 20
11.8911670637
 30
0.0
 10
34.1679861931
 20
12.0546523334
 30
0.0
 10
34.1599081816
 20
12.3087107918
 30
0.0
 10
34.1499760303
 20
12.6710376755
 30
0.0
 10
34.1384667822
 20
13.1587991529
 30
0.0
 10
34.1269170538
 20
13.7160983019
 30
0.0
 10
34.1153448004
 20
14.3413389057
 30
0.0
 10
34.1037647797
 20
15.032997627
 30
0.0
 10
34.0921752159
 20
15.7896372763
 30
0.0
 10
34.0761453373
 20
16.9235920376
 30
0.0
 10
34.0563621609
 20
18.4890585944
 30
0.0
 10
34.0333106264
 20
20.5341594368
 30
0.0
 10
34.0102190863
 20
22.7867843764
 30
0.0
 10
33.9870965875
 20
25.2257714911
 30
0.0
 10
33.9639626816
 20
27.8279899372
 30
0.0
 10
33.940810342
 20
30.5685342254
 30
0.0
 10
33.9176422024
 20
33.4213572921
 30
0.0
 10
33.8944733782
 20
36.359421942
 30
0.0
 10
33.8712997177
 20
39.3548360209
 30
0.0
 10
33.8481225042
 20
42.3789978423
 30
0.0
 10
33.8249438275
 20
45.4031362645
 30
0.0
 10
33.8017683289
 20
48.398595215
 30
0.0
 10
33.7785985218
 20
51.3369381767
 30
0.0
 10
33.7554369163
 20
54.1900793617
 30
0.0
 10
33.7322803035
 20
56.9308895075
 30
0.0
 10
33.7091379083
 20
59.5334667135
 30
0.0
 10
33.6860277746
 20
61.9729987196
 30
0.0
 10
33.6629344906
 20
64.2261909685
 30
0.0
 10
33.6398754213
 20
66.2716091541
 30
0.0
 10
33.6200933915
 20
67.8373908053
 30
0.0
 10
33.6040643768
 20
68.9719256285
 30
0.0
 10
33.592474192
 20
69.7292321127
 30
0.0
 10
33.5808968558
 20
70.4213645079
 30
0.0
 10
33.5693308124
 20
71.0466852831
 30
0.0
 10
33.5577845126
 20
71.6038061743
 30
0.0
 10
33.5462667432
 20
72.0915764088
 30
0.0
 10
33.5363127322
 20
72.4542189871
 30
0.0
 10
33.5282180152
 20
72.7088494386
 30
0.0
 10
33.5224340902
 20
72.8728977222
 30
0.0
 10
33.5166585408
 20
73.018785214
 30
0.0
 10
33.5108963861
 20
73.1463718048
 30
0.0
 10
33.5051476298
 20
73.2555405436
 30
0.0
 10
33.4994374201
 20
73.3462387525
 30
0.0
 10
33.4937607945
 20
73.4184457064
 30
0.0
 10
33.4887979913
 20
73.4670818947
 30
0.0
 10
33.4845786414
 20
73.4966934774
 30
0.0
 10
33.4817911854
 20
73.5120984892
 30
0.0
 10
33.4790302547
 20
73.5228502625
 30
0.0
 10
33.4768710825
 20
73.5285432369
 30
0.0
 10
33.4755045714
 20
73.5303381904
 30
0.0
  0
SPLINE
  5
2CF
100
AcDbEntity
  8
0
100
AcDbSpline
 62
7
  6
CONTINUOUS
 70
0
 71
3
 72
62
 73
58
 74
0
 42
0.0000001
 43
0.0000001
 44
0.0000000001
 40
0.0
 40
0.0
 40
0.0
 40
0.0
 40
0.0001122233
 40
0.0002939897
 40
0.000547754
 40
0.0008743275
 40
0.0017470785
 40
0.0029134667
 40
0.0043737525
 40
0.0061279212
 40
0.0081758413
 40
0.0105173229
 40
0.0131519084
 40
0.0160775726
 40
0.0227914694
 40
0.030637616
 40
0.039594535
 40
0.049640712
 40
0.0607546106
 40
0.0729146815
 40
0.0860970461
 40
0.1153851572
 40
0.1483151782
 40
0.2038650399
 40
0.2657565568
 40
0.3326352951
 40
0.4031001674
 40
0.4756315446
 40
0.5486795473
 40
0.6206942942
 40
0.6901270741
 40
0.7554958442
 40
0.786224268
 40
0.8154200472
 40
0.8429192507
 40
0.8685858543
 40
0.8922902696
 40
0.9139029181
 40
0.9332947312
 40
0.9503592287
 40
0.9579951337
 40
0.9650213585
 40
0.9714288225
 40
0.9772084537
 40
0.9823511936
 40
0.9868480048
 40
0.9906900036
 40
0.9938719703
 40
0.9952151436
 40
0.996393021
 40
0.9974055718
 40
0.9982528183
 40
0.9989348868
 40
0.9994521408
 40
0.9998056227
 40
0.9999220351
 40
1.0
 40
1.0
 40
1.0
 40
1.0
 10
22.9709281717
 20
12.2361112476
 30
0.0
 10
22.9695746088
 20
12.2379158172
 30
0.0
 10
22.9674047317
 20
12.2435420898
 30
0.0
 10
22.9646392546
 20
12.2541488685
 30
0.0
 10
22.9618454827
 20
12.2692461665
 30
0.0
 10
22.9576319154
 20
12.2981382475
 30
0.0
 10
22.9526731906
 20
12.3454565225
 30
0.0
 10
22.9470052912
 20
12.4155656323
 30
0.0
 10
22.9413038522
 20
12.5034453364
 30
0.0
 10
22.9355600542
 20
12.6090681927
 30
0.0
 10
22.92979894
 20
12.7324265474
 30
0.0
 10
22.9240235313
 20
12.8734975944
 30
0.0
 10
22.9182403204
 20
13.0322249751
 30
0.0
 10
22.9101439419
 20
13.2788143868
 30
0.0
 10
22.9001908765
 20
13.6301542433
 30
0.0
 10
22.888678465
 20
14.1027278568
 30
0.0
 10
22.8771380808
 20
14.6423001484
 30
0.0
 10
22.8655750825
 20
15.2475700369
 30
0.0
 10
22.8539974237
 20
15.9172365619
 30
0.0
 10
22.8424085465
 20
16.6499517627
 30
0.0
 10
22.8263850066
 20
17.7479604649
 30
0.0
 10
22.8066089331
 20
19.2634532285
 30
0.0
 10
22.7790496157
 20
21.6305407872
 30
0.0
 10
22.7478952431
 20
24.6529878468
 30
0.0
 10
22.7134925978
 20
28.3578362634
 30
0.0
 10
22.6789999969
 20
32.362501492
 30
0.0
 10
22.6444810694
 20
36.5810450915
 30
0.0
 10
22.6099340221
 20
40.9236004708
 30
0.0
 10
22.5753788746
 20
45.2973106838
 30
0.0
 10
22.5408410877
 20
49.6087343782
 30
0.0
 10
22.506326845
 20
53.7657933792
 30
0.0
 10
22.4770299094
 20
57.0929729161
 30
0.0
 10
22.453347581
 20
59.6113683147
 30
0.0
 10
22.4359618187
 20
61.3685751394
 30
0.0
 10
22.4185784239
 20
63.0240293865
 30
0.0
 10
22.4012079373
 20
64.5690957314
 30
0.0
 10
22.3838562659
 20
65.9958289779
 30
0.0
 10
22.3665330998
 20
67.2964233298
 30
0.0
 10
22.349235977
 20
68.4635363797
 30
0.0
 10
22.3343524859
 20
69.3497073692
 30
0.0
 10
22.322303002
 20
69.9873288158
 30
0.0
 10
22.3136104422
 20
70.4107584889
 30
0.0
 10
22.304926616
 20
70.7968669566
 30
0.0
 10
22.2962541701
 20
71.1451054073
 30
0.0
 10
22.2875969503
 20
71.4549251185
 30
0.0
 10
22.2789651057
 20
71.7257804585
 30
0.0
 10
22.2703602702
 20
71.9572001687
 30
0.0
 10
22.2628735208
 20
72.1252236045
 30
0.0
 10
22.2567447702
 20
72.2396966855
 30
0.0
 10
22.2524201727
 20
72.3105939356
 30
0.0
 10
22.2481133065
 20
72.3715047961
 30
0.0
 10
22.2438208262
 20
72.4224158118
 30
0.0
 10
22.2395900684
 20
72.4633508462
 30
0.0
 10
22.2353771584
 20
72.4942587902
 30
0.0
 10
22.2317371216
 20
72.5138305243
 30
0.0
 10
22.228491283
 20
72.5243382948
 30
0.0
 10
22.226843058
 20
72.5279412912
 30
0.0
 10
22.2259026786
 20
72.5291949675
 30
0.0
  0
SPLINE
  5
2D0
100
AcDbEntity
  8
0
100
AcDbSpline
 62
7
  6
CONTINUOUS
 70
0
 71
3
 72
38
 73
34
 74
0
 42
0.0000001
 43
0.0000001
 44
0.0000000001
 40
0.0
 40
0.0
 40
0.0
 40
0.0
 40
0.0778023666
 40
0.1599672271
 40
0.2450585284
 40
0.3316424194
 40
0.4182517159
 40
0.5034220033
 40
0.5857223073
 40
0.6637363804
 40
0.7361317031
 40
0.7698580355
 40
0.8017392566
 40
0.8316296447
 40
0.8593975744
 40
0.8849193553
 40
0.9081030145
 40
0.9288680861
 40
0.9471232847
 40
0.9627703066
 40
0.9695901782
 40
0.9757324089
 40
0.9811910384
 40
0.9859601808
 40
0.9900359765
 40
0.9934173402
 40
0.9961035486
 40
0.9971858626
 40
0.9980943444
 40
0.9988291304
 40
0.9993904503
 40
0.9997792857
 40
1.0
 40
1.0
 40
1.0
 40
1.0
 10
16.7222519753
 20
27.308257131
 30
0.0
 10
16.7113644233
 20
28.4811447391
 30
0.0
 10
16.6903537356
 20
30.8926981441
 30
0.0
 10
16.6595089153
 20
34.5870391699
 30
0.0
 10
16.6286726668
 20
38.4137738917
 30
0.0
 10
16.5978485059
 20
42.3075145101
 30
0.0
 10
16.5670013441
 20
46.2024457794
 30
0.0
 10
16.536175583
 20
50.0327963883
 30
0.0
 10
16.5053727228
 20
53.7335624621
 30
0.0
 10
16.4745939709
 20
57.2417281049
 30
0.0
 10
16.4483938245
 20
60.0176105854
 30
0.0
 10
16.4272339253
 20
62.0980160952
 30
0.0
 10
16.4117478329
 20
63.5376471836
 30
0.0
 10
16.396266098
 20
64.887444728
 30
0.0
 10
16.3807966744
 20
66.1413616146
 30
0.0
 10
16.3653359845
 20
67.2941605824
 30
0.0
 10
16.3498934213
 20
68.3413752993
 30
0.0
 10
16.3344865211
 20
69.2790275188
 30
0.0
 10
16.3191243565
 20
70.1030418923
 30
0.0
 10
16.3058408712
 20
70.7168206544
 30
0.0
 10
16.2950248354
 20
71.1479928055
 30
0.0
 10
16.2872986808
 20
71.4255942102
 30
0.0
 10
16.279587698
 20
71.672266412
 30
0.0
 10
16.2718941178
 20
71.8877684065
 30
0.0
 10
16.2642321293
 20
72.0719335361
 30
0.0
 10
16.2566054995
 20
72.2246632207
 30
0.0
 10
16.2499426306
 20
72.3322573981
 30
0.0
 10
16.2444152375
 20
72.402546321
 30
0.0
 10
16.2406035725
 20
72.4434741743
 30
0.0
 10
16.2367941493
 20
72.4764610927
 30
0.0
 10
16.2331286208
 20
72.5016866908
 30
0.0
 10
16.2294068889
 20
72.5187884615
 30
0.0
 10
16.2266360805
 20
72.5278265588
 30
0.0
 10
16.2246460166
 20
72.5304933233
 30
0.0
  0
SPLINE
  5
2D1
100
AcDbEntity
  8
0
100
AcDbSpline
 62
7
  6
CONTINUOUS
 70
0
 71
3
 72
65
 73
61
 74
0
 42
0.0000001
 43
0.0000001
 44
0.0000000001
 40
0.0
 40
0.0
 40
0.0
 40
0.0
 40
0.000112311
 40
0.0002943317
 40
0.0005484718
 40
0.0008754944
 40
0.0017491716
 40
0.0029162043
 40
0.0043764712
 40
0.0061295766
 40
0.0081750083
 40
0.0105121959
 40
0.0131405368
 40
0.0160594095
 40
0.0227643124
 40
0.0306076119
 40
0.0395650456
 40
0.0496123001
 40
0.0607250399
 40
0.0728789161
 40
0.0860495706
 40
0.1153262817
 40
0.1482566558
 40
0.1845156536
 40
0.2237768808
 40
0.2656729911
 40
0.3097888389
 40
0.3557065679
 40
0.403001896
 40
0.4512207644
 40
0.4999004896
 40
0.5485785209
 40
0.5967960606
 40
0.6440984672
 40
0.6900313171
 40
0.7341494041
 40
0.7760477362
 40
0.8153322924
 40
0.8516110217
 40
0.8845412283
 40
0.9138320717
 40
0.9270226251
 40
0.9391952152
 40
0.9503165512
 40
0.9603649022
 40
0.969321594
 40
0.9771679742
 40
0.9838854266
 40
0.986815008
 40
0.9894554116
 40
0.991804342
 40
0.9938595238
 40
0.9956191268
 40
0.9970830015
 40
0.9982515145
 40
0.9991253076
 40
0.9994521154
 40
0.9997059868
 40
0.9998877807
 40
1.0
 40
1.0
 40
1.0
 40
1.0
 10
33.47096876
 20
12.2356788131
 30
0.0
 10
33.4696141442
 20
12.2374848118
 30
0.0
 10
33.4674451223
 20
12.2431194004
 30
0.0
 10
33.4646798296
 20
12.2537407371
 30
0.0
 10
33.4618865311
 20
12.2688604579
 30
0.0
 10
33.4576736383
 20
12.2977882415
 30
0.0
 10
33.4527157053
 20
12.3451476905
 30
0.0
 10
33.4470481233
 20
12.4152884554
 30
0.0
 10
33.4413469189
 20
12.5031598143
 30
0.0
 10
33.4356033313
 20
12.6087113553
 30
0.0
 10
33.4298423974
 20
12.7319124873
 30
0.0
 10
33.4240669963
 20
12.8727222004
 30
0.0
 10
33.4182820645
 20
13.0311017701
 30
0.0
 10
33.410180949
 20
13.2772492728
 30
0.0
 10
33.4002280236
 20
13.6282163401
 30
0.0
 10
33.3887190114
 20
14.1005648026
 30
0.0
 10
33.37718097
 20
14.640114772
 30
0.0
 10
33.3656197546
 20
15.2453966077
 30
0.0
 10
33.3540434949
 20
15.9149405255
 30
0.0
 10
33.3424550675
 20
16.6472763594
 30
0.0
 10
33.3264232791
 20
17.7447016302
 30
0.0
 10
33.30665041
 20
19.2597449841
 30
0.0
 10
33.2836075602
 20
21.2388826506
 30
0.0
 10
33.2605171328
 20
23.4187313113
 30
0.0
 10
33.2374032216
 20
25.7788096297
 30
0.0
 10
33.2142764566
 20
28.2968257792
 30
0.0
 10
33.1911283394
 20
30.9486497091
 30
0.0
 10
33.1679674234
 20
33.7090074079
 30
0.0
 10
33.1448048523
 20
36.5518429032
 30
0.0
 10
33.1216371563
 20
39.4501991688
 30
0.0
 10
33.0984663368
 20
42.3763500678
 30
0.0
 10
33.0752945779
 20
45.3024742486
 30
0.0
 10
33.0521248512
 20
48.2009120299
 30
0.0
 10
33.0289615504
 20
51.044167054
 30
0.0
 10
33.0058073641
 20
53.8050160677
 30
0.0
 10
32.9826558137
 20
56.4572336001
 30
0.0
 10
32.9595211107
 20
58.9758083074
 30
0.0
 10
32.936414796
 20
61.3367969631
 30
0.0
 10
32.9133321281
 20
63.5175079533
 30
0.0
 10
32.8902765272
 20
65.4973228562
 30
0.0
 10
32.8704976705
 20
67.0130468672
 30
0.0
 10
32.8544762342
 20
68.1115326275
 30
0.0
 10
32.8428930462
 20
68.8448176154
 30
0.0
 10
32.8313159849
 20
69.514932612
 30
0.0
 10
32.8197520799
 20
70.1203943556
 30
0.0
 10
32.8082103309
 20
70.6600133124
 30
0.0
 10
32.7966958663
 20
71.1326610001
 30
0.0
 10
32.786741869
 20
71.4841576425
 30
0.0
 10
32.7786469669
 20
71.7310157053
 30
0.0
 10
32.7728634103
 20
71.8900895513
 30
0.0
 10
32.7670898866
 20
72.0315744009
 30
0.0
 10
32.7613315238
 20
72.1553389108
 30
0.0
 10
32.7555883475
 20
72.2612901894
 30
0.0
 10
32.7498870473
 20
72.3493949451
 30
0.0
 10
32.7442191872
 20
72.4196406603
 30
0.0
 10
32.7392601015
 20
72.4670279477
 30
0.0
 10
32.7350458592
 20
72.4959481827
 30
0.0
 10
32.7322521092
 20
72.5110531333
 30
0.0
 10
32.7294866419
 20
72.5216626901
 30
0.0
 10
32.7273165397
 20
72.5272894461
 30
0.0
 10
32.7259629895
 20
72.5290939403
 30
0.0
  0
SPLINE
  5
2D2
100
AcDbEntity
  8
0
100
AcDbSpline
 62
7
  6
CONTINUOUS
 70
0
 71
3
 72
65
 73
61
 74
0
 42
0.0000001
 43
0.0000001
 44
0.0000000001
 40
0.0
 40
0.0
 40
0.0
 40
0.0
 40
0.0001122566
 40
0.0002941152
 40
0.0005480077
 40
0.0008747212
 40
0.0017476918
 40
0.0029140596
 40
0.0043738939
 40
0.0061269893
 40
0.0081730236
 40
0.0105116165
 40
0.0131423555
 40
0.0160646343
 40
0.0227746816
 40
0.030619717
 40
0.039576856
 40
0.0496231764
 40
0.0607357341
 40
0.0728915717
 40
0.0860675466
 40
0.1153509629
 40
0.1482811089
 40
0.1845417645
 40
0.223810954
 40
0.2657095465
 40
0.3098255939
 40
0.3557466644
 40
0.4030459023
 40
0.4512660416
 40
0.4999459606
 40
0.5486248048
 40
0.5968442142
 40
0.6441471846
 40
0.6900768585
 40
0.7341938515
 40
0.7760936089
 40
0.8153757115
 40
0.8516469767
 40
0.8845769887
 40
0.9138676029
 40
0.9270550609
 40
0.9392213899
 40
0.9503381925
 40
0.9603850315
 40
0.9693417947
 40
0.977188391
 40
0.9839047664
 40
0.9868328754
 40
0.9894709443
 40
0.991816499
 40
0.9938675987
 40
0.995623934
 40
0.9970855639
 40
0.9982526646
 40
0.9991256871
 40
0.9994522907
 40
0.9997060468
 40
0.9998877903
 40
1.0
 40
1.0
 40
1.0
 40
1.0
 10
21.47095314
 20
12.2359226668
 30
0.0
 10
21.4695991782
 20
12.2377277791
 30
0.0
 10
21.4674296505
 20
12.2433571172
 30
0.0
 10
21.4646642423
 20
12.2539690246
 30
0.0
 10
21.461870646
 20
12.2690738115
 30
0.0
 10
21.4576574164
 20
12.2979758435
 30
0.0
 10
21.4526990347
 20
12.3453010715
 30
0.0
 10
21.4470312502
 20
12.4154051807
 30
0.0
 10
21.4413298804
 20
12.5032538703
 30
0.0
 10
21.4355861475
 20
12.6088082072
 30
0.0
 10
21.4298250766
 20
12.7320490487
 30
0.0
 10
21.4240495606
 20
12.8729468377
 30
0.0
 10
21.4182645682
 20
13.0314707914
 30
0.0
 10
21.410166513
 20
13.2778376085
 30
0.0
 10
21.4002140661
 20
13.6290101236
 30
0.0
 10
21.3887030891
 20
14.1014890694
 30
0.0
 10
21.3771637933
 20
14.641047055
 30
0.0
 10
21.3656015535
 20
15.246298093
 30
0.0
 10
21.3540245466
 20
15.9158563214
 30
0.0
 10
21.3424352775
 20
16.6483319528
 30
0.0
 10
21.3264071012
 20
17.7460340856
 30
0.0
 10
21.3066342569
 20
19.2613085562
 30
0.0
 10
21.2835873894
 20
21.2406018185
 30
0.0
 10
21.2604951037
 20
23.420630572
 30
0.0
 10
21.2373852145
 20
25.7809428045
 30
0.0
 10
21.214256257
 20
28.2991628636
 30
0.0
 10
21.1911062199
 20
30.9510972884
 30
0.0
 10
21.1679457043
 20
33.7115937668
 30
0.0
 10
21.14478352
 20
36.5545892468
 30
0.0
 10
21.1216148456
 20
39.4530419892
 30
0.0
 10
21.0984431756
 20
42.3792270013
 30
0.0
 10
21.0752708165
 20
45.3053973355
 30
0.0
 10
21.0521011783
 20
48.2038888241
 30
0.0
 10
21.0289383345
 20
51.0471175968
 30
0.0
 10
21.0057819023
 20
53.8078810894
 30
0.0
 10
20.9826296868
 20
56.4600308637
 30
0.0
 10
20.9594963781
 20
58.9785528836
 30
0.0
 10
20.9363909066
 20
61.3393614272
 30
0.0
 10
20.9133025216
 20
63.5198603862
 30
0.0
 10
20.8902493063
 20
65.4995088589
 30
0.0
 10
20.8704719919
 20
67.015156104
 30
0.0
 10
20.8544503423
 20
68.1134447847
 30
0.0
 10
20.8428642741
 20
68.8464475698
 30
0.0
 10
20.8312861055
 20
69.5163124665
 30
0.0
 10
20.819722607
 20
70.1216516951
 30
0.0
 10
20.8081813958
 20
70.6612438924
 30
0.0
 10
20.796667809
 20
71.1338738412
 30
0.0
 10
20.7867142637
 20
71.4853221808
 30
0.0
 10
20.7786187095
 20
71.7320810136
 30
0.0
 10
20.7728354924
 20
71.8910097618
 30
0.0
 10
20.7670621825
 20
72.0322970632
 30
0.0
 10
20.7613013937
 20
72.1558451424
 30
0.0
 10
20.7555576153
 20
72.2616028212
 30
0.0
 10
20.7498562046
 20
72.3495677199
 30
0.0
 10
20.7441882798
 20
72.4197238701
 30
0.0
 10
20.739229321
 20
72.4670626981
 30
0.0
 10
20.7350154151
 20
72.4959607391
 30
0.0
 10
20.7322215931
 20
72.5110580143
 30
0.0
 10
20.7294560977
 20
72.5216639298
 30
0.0
 10
20.7272860287
 20
72.5272892939
 30
0.0
 10
20.7259325998
 20
72.5290936258
 30
0.0
  0
SPLINE
  5
2D3
100
AcDbEntity
  8
0
100
AcDbSpline
 62
7
  6
CONTINUOUS
 70
0
 71
3
 72
65
 73
61
 74
0
 42
0.0000001
 43
0.0000001
 44
0.0000000001
 40
0.0
 40
0.0
 40
0.0
 40
0.0
 40
0.0001117574
 40
0.0002936935
 40
0.0005482023
 40
0.0008760317
 40
0.0017525952
 40
0.0029241534
 40
0.0043905302
 40
0.0061512466
 40
0.0082051863
 40
0.0105507652
 40
0.01318636
 40
0.0161103305
 40
0.0228167591
 40
0.0306555757
 40
0.0396105793
 40
0.0496651642
 40
0.0607952885
 40
0.0729683313
 40
0.0861512736
 40
0.1154240133
 40
0.1483664638
 40
0.1846537826
 40
0.2239275391
 40
0.265827663
 40
0.3099570992
 40
0.3558926115
 40
0.4031940657
 40
0.4514160193
 40
0.5001025384
 40
0.5487877962
 40
0.5970075475
 40
0.6443044042
 40
0.690230831
 40
0.7343528563
 40
0.7762447164
 40
0.8155034752
 40
0.8517763349
 40
0.8847060793
 40
0.9139629013
 40
0.9271355895
 40
0.9392974396
 40
0.9504171651
 40
0.9604637756
 40
0.9694124937
 40
0.9772440877
 40
0.9839399086
 40
0.9868573979
 40
0.9894862324
 40
0.9918251663
 40
0.9938729733
 40
0.9956284621
 40
0.9970905942
 40
0.9982585575
 40
0.9991317973
 40
0.9994579339
 40
0.9997106438
 40
0.9998905837
 40
1.0
 40
1.0
 40
1.0
 40
1.0
 10
22.9750938139
 20
73.5310161681
 30
0.0
 10
22.9764786999
 20
73.5291535198
 30
0.0
 10
22.9786719056
 20
73.5233256343
 30
0.0
 10
22.9814605052
 20
73.5123417665
 30
0.0
 10
22.9842620582
 20
73.4966805351
 30
0.0
 10
22.9884764037
 20
73.4666874001
 30
0.0
 10
22.9934068128
 20
73.4175634888
 30
0.0
 10
22.9990287982
 20
73.344792764
 30
0.0
 10
23.0046814974
 20
73.2536075897
 30
0.0
 10
23.01039244
 20
73.1440754446
 30
0.0
 10
23.0161393733
 20
73.016262508
 30
0.0
 10
23.0219139644
 20
72.8702651811
 30
0.0
 10
23.0277072219
 20
72.7061863963
 30
0.0
 10
23.0358227477
 20
72.4515649859
 30
0.0
 10
23.0457994963
 20
72.0888854186
 30
0.0
 10
23.057315863
 20
71.600947894
 30
0.0
 10
23.0688527848
 20
71.0434566764
 30
0.0
 10
23.0804084968
 20
70.4175964085
 30
0.0
 10
23.0919808488
 20
69.7248913193
 30
0.0
 10
23.1035684382
 20
68.9672059329
 30
0.0
 10
23.1195963003
 20
67.8327442794
 30
0.0
 10
23.1393900463
 20
66.2669376082
 30
0.0
 10
23.16243168
 20
64.2212851567
 30
0.0
 10
23.1855139074
 20
61.9679118495
 30
0.0
 10
23.208632303
 20
59.5284896107
 30
0.0
 10
23.2317689592
 20
56.9261891397
 30
0.0
 10
23.2549184365
 20
54.1855267622
 30
0.0
 10
23.2780751549
 20
51.3326813204
 30
0.0
 10
23.3012441207
 20
48.3948364812
 30
0.0
 10
23.3244168261
 20
45.3998547485
 30
0.0
 10
23.3475889695
 20
42.3761321822
 30
0.0
 10
23.3707607302
 20
39.3524553536
 30
0.0
 10
23.3939329239
 20
36.3576410403
 30
0.0
 10
23.4171018241
 20
33.4201261293
 30
0.0
 10
23.4402602825
 20
30.5677188125
 30
0.0
 10
23.4634085879
 20
27.8275706845
 30
0.0
 10
23.4865427997
 20
25.2259072462
 30
0.0
 10
23.5096646464
 20
22.7872684883
 30
0.0
 10
23.532746005
 20
20.5347708932
 30
0.0
 10
23.5557850273
 20
18.4900132487
 30
0.0
 10
23.5755817826
 20
16.9250141259
 30
0.0
 10
23.591607562
 20
15.7913285389
 30
0.0
 10
23.6031918232
 20
15.0343045743
 30
0.0
 10
23.6147644317
 20
14.3422136191
 30
0.0
 10
23.6263303888
 20
13.7168657549
 30
0.0
 10
23.6378792055
 20
13.1598210422
 30
0.0
 10
23.649393472
 20
12.6723844988
 30
0.0
 10
23.6593352481
 20
12.3102091165
 30
0.0
 10
23.6674183238
 20
12.056082238
 30
0.0
 10
23.6731956984
 20
11.8924161509
 30
0.0
 10
23.6789712244
 20
11.7468249306
 30
0.0
 10
23.6847432015
 20
11.6193873735
 30
0.0
 10
23.6905144369
 20
11.5101828209
 30
0.0
 10
23.6962569704
 20
11.4192749758
 30
0.0
 10
23.701964321
 20
11.3467435906
 30
0.0
 10
23.7069427025
 20
11.2978040492
 30
0.0
 10
23.7111598134
 20
11.2679552919
 30
0.0
 10
23.713937809
 20
11.2524044923
 30
0.0
 10
23.7166841143
 20
11.2415446858
 30
0.0
 10
23.7188169677
 20
11.2357892613
 30
0.0
 10
23.7201732138
 20
11.2339659073
 30
0.0
  0
SPLINE
  5
2D4
100
AcDbEntity
  8
0
100
AcDbSpline
 62
7
  6
CONTINUOUS
 70
0
 71
3
 72
30
 73
26
 74
0
 42
0.0000001
 43
0.0000001
 44
0.0000000001
 40
0.0
 40
0.0
 40
0.0
 40
0.0
 40
0.0006507467
 40
0.0017998375
 40
0.0034623591
 40
0.0056432157
 40
0.0083448532
 40
0.0115688374
 40
0.0195881846
 40
0.0296995793
 40
0.0418833302
 40
0.0561175237
 40
0.0723800459
 40
0.0906509558
 40
0.1109148937
 40
0.1573623991
 40
0.2115726281
 40
0.2733035267
 40
0.3422825257
 40
0.4181950126
 40
0.5007195537
 40
0.5895394903
 40
0.684315223
 40
0.7846219818
 40
1.0
 40
1.0
 40
1.0
 40
1.0
 10
32.720062753
 20
11.2354225559
 30
0.0
 10
32.7180402628
 20
11.2381291751
 30
0.0
 10
32.7152498247
 20
11.2473345734
 30
0.0
 10
32.7115254493
 20
11.2647620358
 30
0.0
 10
32.707886678
 20
11.290520312
 30
0.0
 10
32.7041202223
 20
11.3242622164
 30
0.0
 10
32.7003648588
 20
11.3661997406
 30
0.0
 10
32.6949207204
 20
11.4383952388
 30
0.0
 10
32.6883528328
 20
11.549087522
 30
0.0
 10
32.6807899274
 20
11.7063036728
 30
0.0
 10
32.6731639511
 20
11.8958194988
 30
0.0
 10
32.6654894147
 20
12.1172917998
 30
0.0
 10
32.6577996853
 20
12.370386038
 30
0.0
 10
32.6501083382
 20
12.6548002987
 30
0.0
 10
32.6393559847
 20
13.0959134396
 30
0.0
 10
32.6261463989
 20
13.7236232279
 30
0.0
 10
32.6108607496
 20
14.5666365249
 30
0.0
 10
32.5955287496
 20
15.5266534521
 30
0.0
 10
32.5801665035
 20
16.5993646116
 30
0.0
 10
32.5648007458
 20
17.7800500513
 30
0.0
 10
32.5494491989
 20
19.0637613268
 30
0.0
 10
32.5340247641
 20
20.4454196032
 30
0.0
 10
32.5184668429
 20
21.9194103509
 30
0.0
 10
32.4975141632
 20
24.0504928168
 30
0.0
 10
32.4832814184
 20
25.6895237529
 30
0.0
 10
32.4730927246
 20
26.8077589657
 30
0.0
  0
SPLINE
  5
2D5
100
AcDbEntity
  8
0
100
AcDbSpline
 62
7
  6
CONTINUOUS
 70
0
 71
3
 72
67
 73
63
 74
0
 42
0.0000001
 43
0.0000001
 44
0.0000000001
 40
0.0
 40
0.0
 40
0.0
 40
0.0
 40
0.0001099113
 40
0.0002898755
 40
0.000542232
 40
0.00086769
 40
0.001738742
 40
0.0029036096
 40
0.0043619517
 40
0.006113167
 40
0.0081565438
 40
0.0104913158
 40
0.0131166861
 40
0.01603184
 40
0.0227280965
 40
0.0305667422
 40
0.0395231807
 40
0.0495716926
 40
0.0606865378
 40
0.0728419631
 40
0.0860122067
 40
0.1152879285
 40
0.1482283977
 40
0.1845004331
 40
0.223769923
 40
0.2656790374
 40
0.3098127099
 40
0.3557474042
 40
0.4030574059
 40
0.4512931926
 40
0.4999905516
 40
0.5486850683
 40
0.5969157885
 40
0.6442295977
 40
0.6901744623
 40
0.7343021175
 40
0.7762023946
 40
0.8154872503
 40
0.8517691087
 40
0.8846923423
 40
0.8998040292
 40
0.913969267
 40
0.9271531881
 40
0.9393209289
 40
0.9504379117
 40
0.9604775145
 40
0.9694220235
 40
0.9772542147
 40
0.9839568981
 40
0.9868793221
 40
0.9895129561
 40
0.9918556811
 40
0.9939053966
 40
0.9956600339
 40
0.9971179401
 40
0.9982792012
 40
0.9987488382
 40
0.9991446665
 40
0.9994669225
 40
0.99971602
 40
0.9998928425
 40
1.0
 40
1.0
 40
1.0
 40
1.0
 10
28.9749017697
 20
73.5310982884
 30
0.0
 10
28.9762714225
 20
73.5292721479
 30
0.0
 10
28.9784338015
 20
73.5235156184
 30
0.0
 10
28.9811997206
 20
73.5126563467
 30
0.0
 10
28.983989322
 20
73.4971292639
 30
0.0
 10
28.9882061304
 20
73.467347959
 30
0.0
 10
28.9931632736
 20
73.4185311621
 30
0.0
 10
28.9988320843
 20
73.346186532
 30
0.0
 10
29.0045341576
 20
73.255509382
 30
0.0
 10
29.0102793439
 20
73.1465645035
 30
0.0
 10
29.0160419048
 20
73.0193953681
 30
0.0
 10
29.0218190817
 20
72.8740563489
 30
0.0
 10
29.0276058126
 20
72.7105993405
 30
0.0
 10
29.0357099917
 20
72.4565872696
 30
0.0
 10
29.0456711727
 20
72.0943091553
 30
0.0
 10
29.0571817254
 20
71.6065617174
 30
0.0
 10
29.0687225754
 20
71.0491763654
 30
0.0
 10
29.0802866362
 20
70.4237365837
 30
0.0
 10
29.0918661408
 20
69.7318483786
 30
0.0
 10
29.1034578141
 20
68.9751181089
 30
0.0
 10
29.1194961444
 20
67.8412363131
 30
0.0
 10
29.1392803066
 20
66.2756889933
 30
0.0
 10
29.1623264364
 20
64.2303548333
 30
0.0
 10
29.1854222843
 20
61.9774526313
 30
0.0
 10
29.2085477339
 20
59.5382755036
 30
0.0
 10
29.2316818086
 20
56.9358163587
 30
0.0
 10
29.2548361593
 20
54.194925209
 30
0.0
 10
29.2780045658
 20
51.3418614312
 30
0.0
 10
29.3011764266
 20
48.4035997609
 30
0.0
 10
29.324351373
 20
45.4079596701
 30
0.0
 10
29.3475296989
 20
42.3835643058
 30
0.0
 10
29.3707086816
 20
39.3592741732
 30
0.0
 10
29.3938866582
 20
36.3637192862
 30
0.0
 10
29.4170585079
 20
33.4252725354
 30
0.0
 10
29.4402198074
 20
30.5720433671
 30
0.0
 10
29.4633772917
 20
27.8312495306
 30
0.0
 10
29.4865215874
 20
25.2287798663
 30
0.0
 10
29.5096372647
 20
22.7892630195
 30
0.0
 10
29.5327245962
 20
20.5361955918
 30
0.0
 10
29.5524646604
 20
18.7851640403
 30
0.0
 10
29.568403204
 20
17.4934514003
 30
0.0
 10
29.5800071662
 20
16.6116748689
 30
0.0
 10
29.5916034212
 20
15.7910455499
 30
0.0
 10
29.6031897918
 20
15.0337308983
 30
0.0
 10
29.6147674751
 20
14.3417274968
 30
0.0
 10
29.6263354649
 20
13.7166762399
 30
0.0
 10
29.6378813117
 20
13.1598579522
 30
0.0
 10
29.6493999882
 20
12.6723591122
 30
0.0
 10
29.6593584592
 20
12.3099305098
 30
0.0
 10
29.6674568635
 20
12.0554619131
 30
0.0
 10
29.6732426702
 20
11.8915168472
 30
0.0
 10
29.679017755
 20
11.745708736
 30
0.0
 10
29.6847796202
 20
11.6181719029
 30
0.0
 10
29.6905168393
 20
11.5090309111
 30
0.0
 10
29.6962304008
 20
11.4183721403
 30
0.0
 10
29.7012238346
 20
11.3544097012
 30
0.0
 10
29.7053584819
 20
11.3125217634
 30
0.0
 10
29.7082203474
 20
11.2880139581
 30
0.0
 10
29.7110683528
 20
11.2681410353
 30
0.0
 10
29.713854992
 20
11.2528123199
 30
0.0
 10
29.7166180979
 20
11.2421550542
 30
0.0
 10
29.718783029
 20
11.2365190558
 30
0.0
 10
29.7201590222
 20
11.2347698983
 30
0.0
  0
SPLINE
  5
2D6
100
AcDbEntity
  8
0
100
AcDbSpline
 62
7
  6
CONTINUOUS
 70
0
 71
3
 72
65
 73
61
 74
0
 42
0.0000001
 43
0.0000001
 44
0.0000000001
 40
0.0
 40
0.0
 40
0.0
 40
0.0
 40
0.0001098177
 40
0.0002895114
 40
0.000541442
 40
0.0008663432
 40
0.0017359859
 40
0.002899212
 40
0.0043558733
 40
0.0061055614
 40
0.0081477569
 40
0.0104818859
 40
0.0131073438
 40
0.0160235082
 40
0.0227235528
 40
0.0305627706
 40
0.0395168699
 40
0.0495615092
 40
0.0606723262
 40
0.0728249457
 40
0.0859949842
 40
0.115272386
 40
0.1482059143
 40
0.1844702808
 40
0.2237388515
 40
0.2656440639
 40
0.3097704575
 40
0.3556998433
 40
0.4030076051
 40
0.4512393295
 40
0.4999319694
 40
0.5486226117
 40
0.5968521027
 40
0.644165444
 40
0.6901078538
 40
0.7342338239
 40
0.7761380971
 40
0.8154263414
 40
0.8517062278
 40
0.884634995
 40
0.9139216067
 40
0.9271089241
 40
0.9392774924
 40
0.9503940522
 40
0.9604369161
 40
0.9693873925
 40
0.9772268101
 40
0.9839365318
 40
0.9868619522
 40
0.9894979929
 40
0.9918423543
 40
0.9938927553
 40
0.9956473811
 40
0.9971060946
 40
0.9982692485
 40
0.9991374584
 40
0.9994613734
 40
0.9997122686
 40
0.9998909812
 40
1.0
 40
1.0
 40
1.0
 40
1.0
 10
25.9749024387
 20
73.5308212207
 30
0.0
 10
25.9762709251
 20
73.5289966565
 30
0.0
 10
25.978433835
 20
73.5232490593
 30
0.0
 10
25.9811995697
 20
73.512406302
 30
0.0
 10
25.9839893224
 20
73.4969060331
 30
0.0
 10
25.9882059848
 20
73.467175004
 30
0.0
 10
25.993163152
 20
73.418433974
 30
0.0
 10
25.9988316238
 20
73.3461884412
 30
0.0
 10
26.0045333314
 20
73.2556129342
 30
0.0
 10
26.0102781107
 20
73.146760209
 30
0.0
 10
26.0160402521
 20
73.0196617758
 30
0.0
 10
26.0218169952
 20
72.8743600282
 30
0.0
 10
26.027603308
 20
72.710894889
 30
0.0
 10
26.0357070126
 20
72.456783359
 30
0.0
 10
26.0456626899
 20
72.0943964936
 30
0.0
 10
26.0571743956
 20
71.6066111194
 30
0.0
 10
26.0687152346
 20
71.0493474995
 30
0.0
 10
26.0802793174
 20
70.4241255641
 30
0.0
 10
26.0918584862
 20
69.732465429
 30
0.0
 10
26.103449851
 20
68.9758875807
 30
0.0
 10
26.1194861434
 20
67.8420427157
 30
0.0
 10
26.1392642993
 20
66.2766217177
 30
0.0
 10
26.1623129177
 20
64.2315729421
 30
0.0
 10
26.185409196
 20
61.9790117835
 30
0.0
 10
26.2085290185
 20
59.5401140526
 30
0.0
 10
26.2316616938
 20
56.9379275904
 30
0.0
 10
26.2548157472
 20
54.1974014276
 30
0.0
 10
26.2779826156
 20
51.3446690295
 30
0.0
 10
26.3011511444
 20
48.4066726172
 30
0.0
 10
26.3243248025
 20
45.411286031
 30
0.0
 10
26.3475015863
 20
42.3871783531
 30
0.0
 10
26.3706793093
 20
39.3631170686
 30
0.0
 10
26.393854994
 20
36.3677024924
 30
0.0
 10
26.4170242398
 20
33.4293660962
 30
0.0
 10
26.4401843696
 20
30.5762560604
 30
0.0
 10
26.4633418529
 20
27.83548773
 30
0.0
 10
26.4864824433
 20
25.2329210339
 30
0.0
 10
26.5095945944
 20
22.7933117949
 30
0.0
 10
26.5326831186
 20
20.5401184837
 30
0.0
 10
26.5557444385
 20
18.4946550991
 30
0.0
 10
26.5755286209
 20
16.9287829056
 30
0.0
 10
26.5915546712
 20
15.7940564511
 30
0.0
 10
26.6031407912
 20
15.0366690671
 30
0.0
 10
26.6147207669
 20
14.3445952544
 30
0.0
 10
26.6262875018
 20
13.7193662071
 30
0.0
 10
26.637831994
 20
13.1622106525
 30
0.0
 10
26.6493490904
 20
12.674295484
 30
0.0
 10
26.6593058531
 20
12.3115111795
 30
0.0
 10
26.6674034711
 20
12.0567861584
 30
0.0
 10
26.6731883598
 20
11.8926960529
 30
0.0
 10
26.6789631498
 20
11.7467910503
 30
0.0
 10
26.6847226363
 20
11.6192065077
 30
0.0
 10
26.6904669195
 20
11.510037749
 30
0.0
 10
26.696168434
 20
11.4193181608
 30
0.0
 10
26.701836896
 20
11.3470613872
 30
0.0
 10
26.7067948062
 20
11.2983719525
 30
0.0
 10
26.7110134177
 20
11.2687140337
 30
0.0
 10
26.7138029647
 20
11.2532762863
 30
0.0
 10
26.7165679965
 20
11.2424950585
 30
0.0
 10
26.7187322441
 20
11.2367848712
 30
0.0
 10
26.7201018027
 20
11.2349819054
 30
0.0
  0
SPLINE
  5
2D7
100
AcDbEntity
  8
0
100
AcDbSpline
 62
7
  6
CONTINUOUS
 70
0
 71
3
 72
30
 73
26
 74
0
 42
0.0000001
 43
0.0000001
 44
0.0000000001
 40
0.0
 40
0.0
 40
0.0
 40
0.0
 40
0.0006557791
 40
0.0018119851
 40
0.0034835839
 40
0.005675408
 40
0.0083898363
 40
0.0116283638
 40
0.0196767828
 40
0.0298074967
 40
0.0420031405
 40
0.0562458344
 40
0.0725174475
 40
0.0907997129
 40
0.1110742829
 40
0.1575266894
 40
0.2117264419
 40
0.2734673499
 40
0.3424443733
 40
0.4183426946
 40
0.5008474386
 40
0.5896436911
 40
0.6843917744
 40
0.7846646937
 40
1.0
 40
1.0
 40
1.0
 40
1.0
 10
31.9708236035
 20
12.2359211045
 30
0.0
 10
31.9688460853
 20
12.238557551
 30
0.0
 10
31.966086321
 20
12.2475111834
 30
0.0
 10
31.9623858835
 20
12.2644699769
 30
0.0
 10
31.9587396682
 20
12.2895210264
 30
0.0
 10
31.9549514699
 20
12.3223306513
 30
0.0
 10
31.9511610749
 20
12.3631015603
 30
0.0
 10
31.945662665
 20
12.4332473897
 30
0.0
 10
31.9390417925
 20
12.5406892466
 30
0.0
 10
31.9314610955
 20
12.6931515185
 30
0.0
 10
31.9238444259
 20
12.8767765067
 30
0.0
 10
31.9161937277
 20
13.0912828185
 30
0.0
 10
31.9085254082
 20
13.3363945156
 30
0.0
 10
31.9008426888
 20
13.6118323554
 30
0.0
 10
31.8900931174
 20
14.0389179966
 30
0.0
 10
31.8768735722
 20
14.6465023786
 30
0.0
 10
31.8615862531
 20
15.4624787805
 30
0.0
 10
31.8462720551
 20
16.3916712471
 30
0.0
 10
31.8309233125
 20
17.4299240204
 30
0.0
 10
31.8155529803
 20
18.5725370234
 30
0.0
 10
31.8001659258
 20
19.8147610835
 30
0.0
 10
31.7847685521
 20
21.1517226554
 30
0.0
 10
31.7693688879
 20
22.5779850479
 30
0.0
 10
31.7483220167
 20
24.6401548953
 30
0.0
 10
31.7333130548
 20
26.2261975159
 30
0.0
 10
31.7234165435
 20
27.3083363916
 30
0.0
  0
SPLINE
  5
2D8
100
AcDbEntity
  8
0
100
AcDbSpline
 62
7
  6
CONTINUOUS
 70
0
 71
3
 72
65
 73
61
 74
0
 42
0.0000001
 43
0.0000001
 44
0.0000000001
 40
0.0
 40
0.0
 40
0.0
 40
0.0
 40
0.0001097891
 40
0.0002895271
 40
0.0005417179
 40
0.0008672382
 40
0.0017397678
 40
0.0029090301
 40
0.0043754232
 40
0.006137493
 40
0.008193409
 40
0.0105412855
 40
0.0131792058
 40
0.0161052353
 40
0.0228138248
 40
0.0306514131
 40
0.039602288
 40
0.0496507015
 40
0.0607770679
 40
0.0729500528
 40
0.0861360651
 40
0.1154127772
 40
0.1483383843
 40
0.1846222357
 40
0.2238995865
 40
0.2657899518
 40
0.3099107995
 40
0.3558443755
 40
0.4031431692
 40
0.4513587313
 40
0.5000392026
 40
0.548721814
 40
0.596941619
 40
0.6442349
 40
0.6901574719
 40
0.734280795
 40
0.7761767853
 40
0.815436128
 40
0.8517060779
 40
0.8846445196
 40
0.913913987
 40
0.9270854612
 40
0.9392448636
 40
0.9503650984
 40
0.9604190785
 40
0.9693797294
 40
0.9772200367
 40
0.9839186972
 40
0.9868368147
 40
0.9894661001
 40
0.9918055501
 40
0.9938541794
 40
0.9956110323
 40
0.9970752077
 40
0.998245913
 40
0.9991226117
 40
0.9994507559
 40
0.9997056668
 40
0.9998880073
 40
1.0
 40
1.0
 40
1.0
 40
1.0
 10
27.4750489157
 20
73.5305820672
 30
0.0
 10
27.4764170708
 20
73.5287579716
 30
0.0
 10
27.4785803489
 20
73.5230100897
 30
0.0
 10
27.481345615
 20
73.5121611424
 30
0.0
 10
27.4841348808
 20
73.4966410924
 30
0.0
 10
27.4883528752
 20
73.4668309851
 30
0.0
 10
27.4933103694
 20
73.4178901719
 30
0.0
 10
27.4989766201
 20
73.3452551964
 30
0.0
 10
27.5046735013
 20
73.2540927227
 30
0.0
 10
27.5104150527
 20
73.1444935866
 30
0.0
 10
27.5161744803
 20
73.0165653827
 30
0.0
 10
27.5219489856
 20
72.8704322504
 30
0.0
 10
27.527733285
 20
72.7062158252
 30
0.0
 10
27.5358286885
 20
72.451460167
 30
0.0
 10
27.5457846639
 20
72.0887213316
 30
0.0
 10
27.5573008316
 20
71.6008548223
 30
0.0
 10
27.5688439599
 20
71.0436084672
 30
0.0
 10
27.5804070488
 20
70.4180462425
 30
0.0
 10
27.5919784083
 20
69.7255551051
 30
0.0
 10
27.603562916
 20
68.9678923
 30
0.0
 10
27.6195855465
 20
67.8332961844
 30
0.0
 10
27.6393707813
 20
66.2677077321
 30
0.0
 10
27.6624257524
 20
64.2224140495
 30
0.0
 10
27.6855003614
 20
61.9694090788
 30
0.0
 10
27.708612454
 20
59.5302098064
 30
0.0
 10
27.7317508133
 20
56.9282402665
 30
0.0
 10
27.7548984299
 20
54.1880249597
 30
0.0
 10
27.7780529573
 20
51.3354802191
 30
0.0
 10
27.8012183744
 20
48.39789124
 30
0.0
 10
27.8243893285
 20
45.4032513126
 30
0.0
 10
27.8475604128
 20
42.3798705349
 30
0.0
 10
27.870731346
 20
39.3564016367
 30
0.0
 10
27.8938988497
 20
36.3617436055
 30
0.0
 10
27.9170650396
 20
33.4244095529
 30
0.0
 10
27.9402253468
 20
30.57215649
 30
0.0
 10
27.9633708079
 20
27.8320014742
 30
0.0
 10
27.9864992616
 20
25.2302376241
 30
0.0
 10
28.0096195014
 20
22.7915843418
 30
0.0
 10
28.0327057316
 20
20.5389756814
 30
0.0
 10
28.0557413601
 20
18.4938544173
 30
0.0
 10
28.0755253374
 20
16.9284517882
 30
0.0
 10
28.0915568494
 20
15.794590358
 30
0.0
 10
28.1031444428
 20
15.0376390542
 30
0.0
 10
28.1147196941
 20
14.3454418538
 30
0.0
 10
28.1262794872
 20
13.7196882454
 30
0.0
 10
28.1378152569
 20
13.1620665459
 30
0.0
 10
28.1493241798
 20
12.6741465405
 30
0.0
 10
28.1592851969
 20
12.3117219874
 30
0.0
 10
28.1673848923
 20
12.0575166058
 30
0.0
 10
28.1731699206
 20
11.8938191893
 30
0.0
 10
28.1789454097
 20
11.7481921569
 30
0.0
 10
28.1847063893
 20
11.6206991817
 30
0.0
 10
28.1904500479
 20
11.5114062413
 30
0.0
 10
28.1961510396
 20
11.4203689647
 30
0.0
 10
28.2018187527
 20
11.3476629457
 30
0.0
 10
28.2067750706
 20
11.2985513852
 30
0.0
 10
28.2109886565
 20
11.2685400367
 30
0.0
 10
28.2137789431
 20
11.2528548498
 30
0.0
 10
28.216546162
 20
11.2418411045
 30
0.0
 10
28.218706856
 20
11.2359932888
 30
0.0
 10
28.2200709523
 20
11.2341093516
 30
0.0
  0
ENDSEC
  0
SECTION
  2
OBJECTS
  0
DICTIONARY
  5
C
100
AcDbDictionary
280
0
281
1
  3
ACAD_GROUP
350
D
  3
ACAD_MLINESTYLE
350
17
  3
ACAD_LAYOUT
350
1A
  3
ACAD_PLOTSETTINGS
350
19
  3
ACAD_PLOTSTYLENAME
350
E
  0
DICTIONARY
  5
D
102
{ACAD_REACTORS
330
C
102
}
100
AcDbDictionary
280
0
281
1
  0
ACDBDICTIONARYWDFLT
  5
E
102
{ACAD_REACTORS
330
C
102
}
100
AcDbDictionary
281
1
  3
Normal
350
F
100
AcDbDictionaryWithDefault
340
F
  0
DICTIONARY
  5
17
102
{ACAD_REACTORS
330
C
102
}
100
AcDbDictionary
280
0
281
1
  3
Standard
350
18
  0
DICTIONARY
  5
19
102
{ACAD_REACTORS
330
C
102
}
100
AcDbDictionary
281
1
  0
DICTIONARY
  5
1A
102
{ACAD_REACTORS
330
C
102
}
100
AcDbDictionary
281
1
  3
Model
350
2D9
  3
Layout1
350
2DA
  0
ACDBPLACEHOLDER
  5
F
102
{ACAD_REACTORS
330
E
102
}
  0
MLINESTYLE
  5
18
102
{ACAD_REACTORS
330
17
102
}
100
AcDbMlineStyle
  2
STANDARD
 70
0
  3

 62
256
 51
90.0
 52
90.0
 71
2
 49
0.5
 62
256
  6
BYLAYER
 49
-0.5
 62
256
  6
BYLAYER
  0
LAYOUT
  5
2D9
102
{ACAD_REACTORS
330
1A
102
}
100
AcDbPlotSettings
  1

  2
none_device
  4

  6

 40
0.0
 41
0.0
 42
0.0
 43
0.0
 44
210.0
 45
297.0
 46
0.0
 47
0.0
 48
0.0
 49
0.0
140
0.0
141
0.0
142
1.0
143
1.0
 70
1024
 72
1
 73
0
 74
0
  7

 75
0
147
1.0
148
0.0
149
0.0
100
AcDbLayout
  1
Model
 70
0
 71
0
 10
0.0
 20
0.0
 11
210.0
 21
297.0
 12
0.0
 22
0.0
 32
0.0
 14
0.0
 24
0.0
 34
0.0
 15
0.0
 25
0.0
 35
0.0
146
0.0
 13
0.0
 23
0.0
 33
0.0
 16
1.0
 26
0.0
 36
0.0
 17
0.0
 27
1.0
 37
0.0
 76
0
330
210
345
0
346
0
  0
LAYOUT
  5
2DA
102
{ACAD_REACTORS
330
1A
102
}
100
AcDbPlotSettings
  1

  2
none_device
  4

  6

 40
0.0
 41
0.0
 42
0.0
 43
0.0
 44
210.0
 45
297.0
 46
0.0
 47
0.0
 48
0.0
 49
0.0
140
0.0
141
0.0
142
1.0
143
1.0
 70
0
 72
1
 73
0
 74
0
  7

 75
0
147
1.0
148
0.0
149
0.0
100
AcDbLayout
  1
Layout1
 70
0
 71
1
 10
0.0
 20
0.0
 11
210.0
 21
297.0
 12
0.0
 22
0.0
 32
0.0
 14
0.0
 24
0.0
 34
0.0
 15
0.0
 25
0.0
 35
0.0
146
0.0
 13
0.0
 23
0.0
 33
0.0
 16
1.0
 26
0.0
 36
0.0
 17
0.0
 27
1.0
 37
0.0
 76
0
330
211
345
0
346
0
  0
ENDSEC
  0
EOF
