999
DXF file: C:\Users\sesa63760\Dev\_Creo\CAD\MCADID0000524_3D-CAD\drw0001_7.dxf
999
Pro/ENGINEER 2019471 by Parametric Technology Corporation
  0
SECTION
  2
HEADER
  9
$ACADVER
  1
AC1024
  9
$DWGCODEPAGE
  3
ANSI_1252
  9
$EXTMAX
 10
75.5909643481
 20
106.9072210066
 30
0.0
  9
$EXTMIN
 10
0.0
 20
0.0
 30
0.0
  9
$LIMMIN
 10
0.0
 20
0.0
  9
$LIMMAX
 10
75.5909643481
 20
106.9072210066
  9
$VIEWCTR
 10
37.795482174
 20
53.4536105033
  9
$VIEWSIZE
 40
106.9072210066
  9
$CLAYER
  8
0
  9
$LTSCALE
 40
6.9687669989
  9
$CELTYPE
  6
BYLAYER
  9
$DIMSCALE
 40
1.0
  9
$DIMASZ
 40
0.8998924327
  9
$DIMEXO
 40
1.0
  9
$DIMDLI
 40
4.814784472
  9
$DIMEXE
 40
1.0
  9
$DIMCEN
 40
1.1403436907
  9
$DIMLFAC
 40
1.0
  9
$DIMBLK
  1
_FILLED
  9
$DIMALT
 70
0
  9
$DIMALTF
 40
0.0393700787
  9
$DIMTXT
 40
1.2598494058
  9
$DIMTOL
 70
1
  9
$DIMLIM
 70
0
  9
$DIMTFAC
 40
1.0
  9
$DIMTP
 40
0.01
  9
$DIMTM
 40
0.01
  9
$DIMGAP
 40
0.625
  9
$DIMDSEP
 70
46
  9
$AUNITS
 70
0
  9
$PDMODE
 70
3
  9
$PDSIZE
 40
0.3125
  9
$HANDSEED
  5
60D
  9
$TILEMODE
 70
1
  9
$MEASUREMENT
 70
1
  9
$INSUNITS
 70
4
  0
ENDSEC
  0
SECTION
  2
CLASSES
  0
CLASS
  1
ACDBDICTIONARYWDFLT
  2
AcDbDictionaryWithDefault
  3
AutoCAD 2000
 90
0
 91
1
280
0
281
0
  0
CLASS
  1
ACDBPLACEHOLDER
  2
AcDbPlaceHolder
  3
AutoCAD 2000
 90
0
 91
1
280
0
281
0
  0
CLASS
  1
LAYOUT
  2
AcDbLayout
  3
AutoCAD 2000
 90
0
 91
0
280
0
281
0
  0
ENDSEC
  0
SECTION
  2
TABLES
  0
TABLE
  2
VPORT
  5
8
100
AcDbSymbolTable
 70
2
  0
VPORT
  5
1F4
100
AcDbSymbolTableRecord
100
AcDbViewportTableRecord
  2
*ACTIVE
 70
0
 10
0.0
 20
0.0
 11
1.0
 21
1.0
 12
37.795482174
 22
53.4536105033
 13
0.0
 23
0.0
 14
1.0
 24
1.0
 15
0.0
 25
0.0
 16
0.0
 26
0.0
 36
1.0
 17
0.0
 27
0.0
 37
0.0
 40
106.9072210066
 41
0.7070707071
 42
50.0
 43
0.0
 44
0.0
 50
0.0
 51
0.0
 71
0
 72
100
 73
1
 74
1
 75
0
 76
0
 77
0
 78
0
  0
ENDTAB
  0
TABLE
  2
LTYPE
  5
5
100
AcDbSymbolTable
 70
6
  0
LTYPE
  5
14
100
AcDbSymbolTableRecord
100
AcDbLinetypeTableRecord
  2
BYBLOCK
 70
0
  3

 72
65
 73
0
 40
0.0
  0
LTYPE
  5
15
100
AcDbSymbolTableRecord
100
AcDbLinetypeTableRecord
  2
BYLAYER
 70
0
  3

 72
65
 73
0
 40
0.0
  0
LTYPE
  5
16
100
AcDbSymbolTableRecord
100
AcDbLinetypeTableRecord
  2
CONTINUOUS
 70
64
  3
Solid line
 72
65
 73
0
 40
0.0
  0
LTYPE
  5
1F5
100
AcDbSymbolTableRecord
100
AcDbLinetypeTableRecord
  2
CENTER
 70
64
  3
____ _ ____ _ ____ _ ____ _ ____ _ ____ _ ____
 72
65
 73
4
 40
0.6
 49
0.375
 74
0
 49
-0.075
 74
0
 49
0.075
 74
0
 49
-0.075
 74
0
  0
LTYPE
  5
1F6
100
AcDbSymbolTableRecord
100
AcDbLinetypeTableRecord
  2
HIDDEN
 70
64
  3
- - - - - - - - - - - - - - - - - - - -
 72
65
 73
2
 40
0.2
 49
0.1
 74
0
 49
-0.1
 74
0
  0
LTYPE
  5
1F7
100
AcDbSymbolTableRecord
100
AcDbLinetypeTableRecord
  2
PHANTOM
 70
64
  3
_____ _ _ _____ _ _ _____ _ _ _____
 72
65
 73
6
 40
0.8
 49
0.45
 74
0
 49
-0.05
 74
0
 49
0.1
 74
0
 49
-0.05
 74
0
 49
0.1
 74
0
 49
-0.05
 74
0
  0
LTYPE
  5
1F8
100
AcDbSymbolTableRecord
100
AcDbLinetypeTableRecord
  2
DOT
 70
64
  3
. . . . . . . . . . . . . . . . . . . .
 72
65
 73
2
 40
0.2
 49
0.1
 74
0
 49
-0.1
 74
0
  0
LTYPE
  5
1F9
100
AcDbSymbolTableRecord
100
AcDbLinetypeTableRecord
  2
DASHED
 70
64
  3
- - - - - - - - - - - - - - - - - - - -
 72
65
 73
2
 40
0.2
 49
0.1
 74
0
 49
-0.1
 74
0
  0
ENDTAB
  0
TABLE
  2
LAYER
  5
2
100
AcDbSymbolTable
 70
36
  0
LAYER
  5
10
100
AcDbSymbolTableRecord
100
AcDbLayerTableRecord
  2
0
 70
0
 62
7
  6
CONTINUOUS
370
-3
390
F
  0
LAYER
  5
1FA
100
AcDbSymbolTableRecord
100
AcDbLayerTableRecord
  2
DEFAULT_1
 70
0
 62
7
  6
CENTER
370
-3
390
F
  0
LAYER
  5
1FB
100
AcDbSymbolTableRecord
100
AcDbLayerTableRecord
  2
DEFAULT_2
 70
0
 62
8
  6
HIDDEN
370
-3
390
F
  0
LAYER
  5
1FC
100
AcDbSymbolTableRecord
100
AcDbLayerTableRecord
  2
DEFAULT_3
 70
0
 62
7
  6
PHANTOM
370
-3
390
F
  0
LAYER
  5
1FD
100
AcDbSymbolTableRecord
100
AcDbLayerTableRecord
  2
00_COMPONENTS
 70
0
 62
7
  6
CONTINUOUS
370
-3
390
F
  0
LAYER
  5
1FE
100
AcDbSymbolTableRecord
100
AcDbLayerTableRecord
  2
01_1_DEFAULT_DATUMS
 70
0
 62
7
  6
CONTINUOUS
370
-3
390
F
  0
LAYER
  5
1FF
100
AcDbSymbolTableRecord
100
AcDbLayerTableRecord
  2
01_PLANES
 70
0
 62
7
  6
CONTINUOUS
370
-3
390
F
  0
LAYER
  5
200
100
AcDbSymbolTableRecord
100
AcDbLayerTableRecord
  2
02_COORD_SYS
 70
0
 62
7
  6
CONTINUOUS
370
-3
390
F
  0
LAYER
  5
201
100
AcDbSymbolTableRecord
100
AcDbLayerTableRecord
  2
03_AXES
 70
0
 62
7
  6
CONTINUOUS
370
-3
390
F
  0
LAYER
  5
202
100
AcDbSymbolTableRecord
100
AcDbLayerTableRecord
  2
04_POINTS
 70
0
 62
7
  6
CONTINUOUS
370
-3
390
F
  0
LAYER
  5
203
100
AcDbSymbolTableRecord
100
AcDbLayerTableRecord
  2
05_CURVES
 70
0
 62
7
  6
CONTINUOUS
370
-3
390
F
  0
LAYER
  5
204
100
AcDbSymbolTableRecord
100
AcDbLayerTableRecord
  2
06_SURFS
 70
0
 62
7
  6
CONTINUOUS
370
-3
390
F
  0
LAYER
  5
205
100
AcDbSymbolTableRecord
100
AcDbLayerTableRecord
  2
07_COSMETICS
 70
0
 62
7
  6
CONTINUOUS
370
-3
390
F
  0
LAYER
  5
206
100
AcDbSymbolTableRecord
100
AcDbLayerTableRecord
  2
10_NOTES
 70
0
 62
7
  6
CONTINUOUS
370
-3
390
F
  0
LAYER
  5
207
100
AcDbSymbolTableRecord
100
AcDbLayerTableRecord
  2
11_NOTES_PUB
 70
0
 62
7
  6
CONTINUOUS
370
-3
390
F
  0
LAYER
  5
208
100
AcDbSymbolTableRecord
100
AcDbLayerTableRecord
  2
13_REF_GTOL
 70
0
 62
7
  6
CONTINUOUS
370
-3
390
F
  0
LAYER
  5
209
100
AcDbSymbolTableRecord
100
AcDbLayerTableRecord
  2
16_MISC
 70
0
 62
7
  6
CONTINUOUS
370
-3
390
F
  0
LAYER
  5
20A
100
AcDbSymbolTableRecord
100
AcDbLayerTableRecord
  2
17_NO_PRINT
 70
0
 62
7
  6
CONTINUOUS
370
-3
390
F
  0
LAYER
  5
20B
100
AcDbSymbolTableRecord
100
AcDbLayerTableRecord
  2
18_DATUM_CAMS_JOINTS
 70
0
 62
7
  6
CONTINUOUS
370
-3
390
F
  0
LAYER
  5
20C
100
AcDbSymbolTableRecord
100
AcDbLayerTableRecord
  2
19_DATUM_FUNCTIONAL
 70
0
 62
7
  6
CONTINUOUS
370
-3
390
F
  0
LAYER
  5
20D
100
AcDbSymbolTableRecord
100
AcDbLayerTableRecord
  2
20_DATUM_KINEMATIC_SCHEME
 70
0
 62
7
  6
CONTINUOUS
370
-3
390
F
  0
ENDTAB
  0
TABLE
  2
STYLE
  5
3
100
AcDbSymbolTable
 70
1
  0
STYLE
  5
11
100
AcDbSymbolTableRecord
100
AcDbTextStyleTableRecord
  2
STANDARD
 70
0
 40
0.0
 41
0.8
 50
0.0
 71
0
 42
0.2
  3
txt
  4

  0
STYLE
  5
20E
100
AcDbSymbolTableRecord
100
AcDbTextStyleTableRecord
  2
TEXTSTYLE_1
 70
0
 40
0.0
 41
0.8
 50
0.0
 71
0
 42
0.2
  3
gdt
  4

  0
ENDTAB
  0
TABLE
  2
VIEW
  5
6
100
AcDbSymbolTable
 70
0
  0
ENDTAB
  0
TABLE
  2
UCS
  5
7
100
AcDbSymbolTable
 70
0
  0
ENDTAB
  0
TABLE
  2
APPID
  5
9
100
AcDbSymbolTable
 70
1
  0
APPID
  5
20F
100
AcDbSymbolTableRecord
100
AcDbRegAppTableRecord
  2
ACAD
 70
0
  0
ENDTAB
  0
TABLE
  2
BLOCK_RECORD
  5
1
100
AcDbSymbolTable
 70
0
  0
BLOCK_RECORD
  5
210
100
AcDbSymbolTableRecord
100
AcDbBlockTableRecord
  2
*Model_Space
  0
BLOCK_RECORD
  5
211
100
AcDbSymbolTableRecord
100
AcDbBlockTableRecord
  2
*Paper_Space
  0
BLOCK_RECORD
  5
212
100
AcDbSymbolTableRecord
100
AcDbBlockTableRecord
  2
_FILLED
  0
ENDTAB
  0
TABLE
  2
DIMSTYLE
  5
A
100
AcDbSymbolTable
 70
1
100
AcDbDimStyleTable
 71
0
  0
DIMSTYLE
105
213
100
AcDbSymbolTableRecord
100
AcDbDimStyleTableRecord
  2
STANDARD
 70
0
  3

  4

 40
1.0
 41
0.8998924327
 42
1.0
 43
0.38
 44
1.0
 45
0.0
 46
0.0
 47
0.01
 48
0.01
140
1.2598494058
141
0.09
142
0.0
143
25.4
144
1.0
145
0.0
146
1.0
147
0.625
 71
1
 72
0
 73
0
 74
0
 75
0
 76
0
 77
1
 78
8
 79
2
170
0
171
1
172
0
173
0
174
0
175
0
176
0
177
0
178
0
270
2
179
2
271
2
272
2
273
2
274
2
275
0
280
0
281
0
282
0
283
1
284
8
285
0
286
0
287
3
288
0
340
11
278
46
341
212
342
212
343
212
344
212
  0
ENDTAB
  0
ENDSEC
  0
SECTION
  2
BLOCKS
  0
BLOCK
  5
20
100
AcDbEntity
  8
0
100
AcDbBlockBegin
  2
*Model_Space
 70
0
 10
0.0
 20
0.0
 30
0.0
  3
*Model_Space
  1

  0
ENDBLK
  5
21
100
AcDbEntity
  8
0
100
AcDbBlockEnd
  0
BLOCK
  5
1C
100
AcDbEntity
  8
0
100
AcDbBlockBegin
  2
*Paper_Space
 70
0
 10
0.0
 20
0.0
 30
0.0
  3
*Paper_Space
  1

  0
ENDBLK
  5
1D
100
AcDbEntity
  8
0
100
AcDbBlockEnd
  0
BLOCK
  5
214
100
AcDbEntity
  8
0
100
AcDbBlockBegin
  2
_FILLED
 70
64
 10
0.0
 20
0.0
  3
_FILLED
  1

  0
SOLID
  5
215
100
AcDbEntity
  8
0
  6
BYBLOCK
 62
0
100
AcDbTrace
 10
0.0
 20
0.0
 11
-1.0
 21
0.25
 12
-1.0
 22
-0.25
 13
-1.0
 23
-0.25
  0
ENDBLK
  5
216
100
AcDbEntity
  8
0
  6
BYBLOCK
 62
0
100
AcDbBlockEnd
  0
ENDSEC
  0
SECTION
  2
ENTITIES
  0
LINE
  5
217
100
AcDbEntity
  8
0
100
AcDbLine
 62
7
  6
CONTINUOUS
 10
10.0130281308
 20
87.2792413062
 11
10.1637967983
 21
87.4300099737
  0
LINE
  5
218
100
AcDbEntity
  8
0
100
AcDbLine
 62
7
  6
CONTINUOUS
 10
44.9263355657
 20
10.1682442932
 11
30.9263355657
 21
10.1682442932
  0
LINE
  5
219
100
AcDbEntity
  8
0
100
AcDbLine
 62
7
  6
CONTINUOUS
 10
40.2593425316
 20
12.6014609137
 11
39.9262514698
 21
12.5163012637
  0
LINE
  5
21A
100
AcDbEntity
  8
0
100
AcDbLine
 62
7
  6
CONTINUOUS
 10
36.4260095163
 20
12.6014609138
 11
36.0929179776
 21
12.5163012637
  0
LINE
  5
21B
100
AcDbEntity
  8
0
100
AcDbLine
 62
7
  6
CONTINUOUS
 10
40.3430396605
 20
12.0899940448
 11
39.9263355657
 21
12.00499365
  0
LINE
  5
21C
100
AcDbEntity
  8
0
100
AcDbLine
 62
7
  6
CONTINUOUS
 10
36.5097061682
 20
12.0899940448
 11
36.0930020734
 21
12.00499365
  0
LINE
  5
21D
100
AcDbEntity
  8
0
100
AcDbLine
 62
7
  6
CONTINUOUS
 10
34.9281183563
 20
13.3669107666
 11
34.930792608
 21
13.3672333227
  0
LINE
  5
21E
100
AcDbEntity
  8
0
100
AcDbLine
 62
7
  6
CONTINUOUS
 10
34.4245532829
 20
13.3665228613
 11
34.4218797929
 21
13.3662635451
  0
LINE
  5
21F
100
AcDbEntity
  8
0
100
AcDbLine
 62
7
  6
CONTINUOUS
 10
45.1763355657
 20
12.00499365
 11
44.6763355657
 21
12.00499365
  0
LINE
  5
220
100
AcDbEntity
  8
0
100
AcDbLine
 62
7
  6
CONTINUOUS
 10
42.3430025503
 20
12.00499365
 11
41.8430025503
 21
12.00499365
  0
LINE
  5
221
100
AcDbEntity
  8
0
100
AcDbLine
 62
7
  6
CONTINUOUS
 10
39.9263355657
 20
12.00499365
 11
39.2596685812
 21
12.00499365
  0
LINE
  5
222
100
AcDbEntity
  8
0
100
AcDbLine
 62
7
  6
CONTINUOUS
 10
36.0930020734
 20
12.00499365
 11
35.759669058
 21
12.00499365
  0
LINE
  5
223
100
AcDbEntity
  8
0
100
AcDbLine
 62
7
  6
CONTINUOUS
 10
31.1763355657
 20
12.00499365
 11
30.6763355657
 21
12.00499365
  0
LINE
  5
224
100
AcDbEntity
  8
0
100
AcDbLine
 62
7
  6
CONTINUOUS
 10
35.7597531538
 20
12.5163012637
 11
36.0929179776
 21
12.5163012637
  0
LINE
  5
225
100
AcDbEntity
  8
0
100
AcDbLine
 62
7
  6
CONTINUOUS
 10
39.2597526771
 20
12.5163012637
 11
39.9262514698
 21
12.5163012637
  0
LINE
  5
226
100
AcDbEntity
  8
0
100
AcDbLine
 62
7
  6
CONTINUOUS
 10
38.0911540742
 20
13.112826803
 11
38.5940542245
 21
13.112826803
  0
LINE
  5
227
100
AcDbEntity
  8
0
100
AcDbLine
 62
7
  6
CONTINUOUS
 10
39.9260419995
 20
13.7898912331
 11
39.4260419995
 21
13.7898912331
  0
LINE
  5
228
100
AcDbEntity
  8
0
100
AcDbLine
 62
7
  6
CONTINUOUS
 10
32.6765717472
 20
13.7898912331
 11
31.1786720505
 21
13.7898912331
  0
LINE
  5
229
100
AcDbEntity
  8
0
100
AcDbLine
 62
7
  6
CONTINUOUS
 10
44.6738878198
 20
13.8748863448
 11
42.3454502962
 21
13.8748863448
  0
LINE
  5
22A
100
AcDbEntity
  8
0
100
AcDbLine
 62
7
  6
CONTINUOUS
 10
30.0144463548
 20
14.2917902801
 11
45.8382247766
 21
14.2917902801
  0
LINE
  5
22B
100
AcDbEntity
  8
0
100
AcDbLine
 62
7
  6
CONTINUOUS
 10
52.3278810074
 20
14.4797502801
 11
48.518390124
 21
14.4797502801
  0
LINE
  5
22C
100
AcDbEntity
  8
0
100
AcDbLine
 62
7
  6
CONTINUOUS
 10
27.3342810074
 20
14.4797502801
 11
23.524790124
 21
14.4797502801
  0
LINE
  5
22D
100
AcDbEntity
  8
0
100
AcDbLine
 62
7
  6
CONTINUOUS
 10
46.1432355657
 20
15.117192582
 11
29.7094355657
 21
15.117192582
  0
LINE
  5
22E
100
AcDbEntity
  8
0
100
AcDbLine
 62
7
  6
CONTINUOUS
 10
37.4281178485
 20
13.3665228608
 11
37.4307913385
 21
13.3662635439
  0
LINE
  5
22F
100
AcDbEntity
  8
0
100
AcDbLine
 62
7
  6
CONTINUOUS
 10
35.759669058
 20
12.00499365
 11
35.3429649633
 21
12.0899940448
  0
LINE
  5
230
100
AcDbEntity
  8
0
100
AcDbLine
 62
7
  6
CONTINUOUS
 10
39.2596685812
 20
12.00499365
 11
38.8429611046
 21
12.0899949291
  0
LINE
  5
231
100
AcDbEntity
  8
0
100
AcDbLine
 62
7
  6
CONTINUOUS
 10
41.1775606693
 20
12.9408800683
 11
41.1802336881
 21
12.9402608487
  0
LINE
  5
232
100
AcDbEntity
  8
0
100
AcDbLine
 62
7
  6
CONTINUOUS
 10
39.4260419995
 20
13.7898912331
 11
39.0921324396
 21
13.8750297848
  0
LINE
  5
233
100
AcDbEntity
  8
0
100
AcDbLine
 62
7
  6
CONTINUOUS
 10
35.7597531538
 20
12.5163012637
 11
35.4266616152
 21
12.6014609138
  0
LINE
  5
234
100
AcDbEntity
  8
0
100
AcDbLine
 62
7
  6
CONTINUOUS
 10
39.2597526771
 20
12.5163012637
 11
38.926740505
 21
12.6014407444
  0
LINE
  5
235
100
AcDbEntity
  8
0
100
AcDbLine
 62
7
  6
CONTINUOUS
 10
37.3441731943
 20
12.9407701337
 11
37.3467284299
 21
12.9399110509
  0
LINE
  5
236
100
AcDbEntity
  8
0
100
AcDbLine
 62
7
  6
CONTINUOUS
 10
17.6763355657
 20
87.3123902801
 11
20.6763355657
 21
90.3123902801
  0
LINE
  5
237
100
AcDbEntity
  8
0
100
AcDbLine
 62
7
  6
CONTINUOUS
 10
20.4869957375
 20
89.6230504519
 11
18.3656753939
 21
87.5017301083
  0
LINE
  5
238
100
AcDbEntity
  8
0
100
AcDbLine
 62
7
  6
CONTINUOUS
 10
33.0940438654
 20
13.8750483326
 11
32.6765717472
 21
13.7898912331
  0
LINE
  5
239
100
AcDbEntity
  8
0
100
AcDbLine
 62
7
  6
CONTINUOUS
 10
47.951766523
 20
17.316133183
 11
46.1432355657
 21
17.316133183
  0
LINE
  5
23A
100
AcDbEntity
  8
0
100
AcDbLine
 62
7
  6
CONTINUOUS
 10
29.7094355657
 20
17.316133183
 11
27.9009046085
 21
17.316133183
  0
LINE
  5
23B
100
AcDbEntity
  8
0
100
AcDbLine
 62
7
  6
CONTINUOUS
 10
40.3439698238
 20
14.2205220851
 11
39.9955184852
 21
14.2917902801
  0
LINE
  5
23C
100
AcDbEntity
  8
0
100
AcDbLine
 62
7
  6
CONTINUOUS
 10
40.2587392655
 20
13.705061786
 11
39.9260419995
 21
13.7898912331
  0
LINE
  5
23D
100
AcDbEntity
  8
0
100
AcDbLine
 62
7
  6
CONTINUOUS
 10
40.674998163
 20
13.0266681228
 11
40.6723232919
 21
13.0274639015
  0
LINE
  5
23E
100
AcDbEntity
  8
0
100
AcDbLine
 62
7
  6
CONTINUOUS
 10
36.8417571535
 20
13.0268101378
 11
36.8392672526
 21
13.0278899536
  0
LINE
  5
23F
100
AcDbEntity
  8
0
100
AcDbLine
 62
7
  6
CONTINUOUS
 10
35.3429649633
 20
12.0899940448
 11
35.0094686596
 21
12.2600402566
  0
LINE
  5
240
100
AcDbEntity
  8
0
100
AcDbLine
 62
7
  6
CONTINUOUS
 10
39.0921324396
 20
13.8750297847
 11
38.7580653939
 21
14.0453665023
  0
LINE
  5
241
100
AcDbEntity
  8
0
100
AcDbLine
 62
7
  6
CONTINUOUS
 10
38.8429611046
 20
12.0899949291
 11
38.4260080725
 21
12.3450977054
  0
LINE
  5
242
100
AcDbEntity
  8
0
100
AcDbLine
 62
7
  6
CONTINUOUS
 10
35.1770662637
 20
12.7716677589
 11
35.4266616152
 21
12.6014609138
  0
LINE
  5
243
100
AcDbEntity
  8
0
100
AcDbLine
 62
7
  6
CONTINUOUS
 10
17.3058956177
 20
20.3754815788
 11
17.3189869164
 21
20.3623902801
  0
LINE
  5
244
100
AcDbEntity
  8
0
100
AcDbLine
 62
7
  6
CONTINUOUS
 10
18.9542298299
 20
22.8623902801
 11
18.9263355657
 21
22.8902845443
  0
LINE
  5
245
100
AcDbEntity
  8
0
100
AcDbLine
 62
7
  6
CONTINUOUS
 10
9.9263355657
 20
78.5792581807
 11
10.1637967983
 21
78.6967795327
  0
LINE
  5
246
100
AcDbEntity
  8
0
100
AcDbLine
 62
7
  6
CONTINUOUS
 10
14.9263355657
 20
20.2623902801
 11
23.5245355657
 21
20.2623902801
  0
LINE
  5
247
100
AcDbEntity
  8
0
100
AcDbLine
 62
7
  6
CONTINUOUS
 10
27.3345355657
 20
20.2623902801
 11
29.7094355657
 21
20.2623902801
  0
LINE
  5
248
100
AcDbEntity
  8
0
100
AcDbLine
 62
7
  6
CONTINUOUS
 10
46.1432355657
 20
20.2623902801
 11
48.5181355657
 21
20.2623902801
  0
LINE
  5
249
100
AcDbEntity
  8
0
100
AcDbLine
 62
7
  6
CONTINUOUS
 10
52.3281355657
 20
20.2623902801
 11
60.9263355657
 21
20.2623902801
  0
LINE
  5
24A
100
AcDbEntity
  8
0
100
AcDbLine
 62
7
  6
CONTINUOUS
 10
17.3189869164
 20
20.3623902801
 11
58.533684215
 21
20.3623902801
  0
LINE
  5
24B
100
AcDbEntity
  8
0
100
AcDbLine
 62
7
  6
CONTINUOUS
 10
54.6826979034
 20
20.443556332
 11
53.4457355657
 21
20.443556332
  0
LINE
  5
24C
100
AcDbEntity
  8
0
100
AcDbLine
 62
7
  6
CONTINUOUS
 10
22.4069355657
 20
20.443556332
 11
21.169973228
 21
20.443556332
  0
LINE
  5
24D
100
AcDbEntity
  8
0
100
AcDbLine
 62
7
  6
CONTINUOUS
 10
59.4263355657
 20
20.4893752818
 11
58.5467755137
 21
20.4893752818
  0
LINE
  5
24E
100
AcDbEntity
  8
0
100
AcDbLine
 62
7
  6
CONTINUOUS
 10
17.3058956177
 20
20.4893752818
 11
16.4263355657
 21
20.4893752818
  0
LINE
  5
24F
100
AcDbEntity
  8
0
100
AcDbLine
 62
7
  6
CONTINUOUS
 10
14.9263355657
 20
20.4998515127
 11
16.4263355657
 21
20.4998515127
  0
LINE
  5
250
100
AcDbEntity
  8
0
100
AcDbLine
 62
7
  6
CONTINUOUS
 10
59.4263355657
 20
20.4998515127
 11
60.9263355657
 21
20.4998515127
  0
LINE
  5
251
100
AcDbEntity
  8
0
100
AcDbLine
 62
7
  6
CONTINUOUS
 10
15.1763355657
 20
20.5123902801
 11
16.9263355657
 21
20.5123902801
  0
LINE
  5
252
100
AcDbEntity
  8
0
100
AcDbLine
 62
7
  6
CONTINUOUS
 10
58.9263355657
 20
20.5123902801
 11
60.6763355657
 21
20.5123902801
  0
LINE
  5
253
100
AcDbEntity
  8
0
100
AcDbLine
 62
7
  6
CONTINUOUS
 10
54.6739703709
 20
20.8623902801
 11
21.1787007605
 21
20.8623902801
  0
LINE
  5
254
100
AcDbEntity
  8
0
100
AcDbLine
 62
7
  6
CONTINUOUS
 10
58.9263355657
 20
21.0623902801
 11
58.5467755137
 21
21.0623902801
  0
LINE
  5
255
100
AcDbEntity
  8
0
100
AcDbLine
 62
7
  6
CONTINUOUS
 10
17.3058956177
 20
21.0623902801
 11
16.9263355657
 21
21.0623902801
  0
LINE
  5
256
100
AcDbEntity
  8
0
100
AcDbLine
 62
7
  6
CONTINUOUS
 10
15.1763355657
 20
21.2216036384
 11
16.5718369279
 21
21.2216036384
  0
LINE
  5
257
100
AcDbEntity
  8
0
100
AcDbLine
 62
7
  6
CONTINUOUS
 10
59.2808342035
 20
21.2216036384
 11
60.6763355657
 21
21.2216036384
  0
LINE
  5
258
100
AcDbEntity
  8
0
100
AcDbLine
 62
7
  6
CONTINUOUS
 10
58.5555030462
 20
21.3623902801
 11
58.5467755137
 21
21.3623902801
  0
LINE
  5
259
100
AcDbEntity
  8
0
100
AcDbLine
 62
7
  6
CONTINUOUS
 10
17.3058956177
 20
21.3623902801
 11
17.2971680853
 21
21.3623902801
  0
LINE
  5
25A
100
AcDbEntity
  8
0
100
AcDbLine
 62
7
  6
CONTINUOUS
 10
56.6963355657
 20
21.7829044446
 11
55.6963355657
 21
21.7829044446
  0
LINE
  5
25B
100
AcDbEntity
  8
0
100
AcDbLine
 62
7
  6
CONTINUOUS
 10
20.1563355657
 20
21.7829044446
 11
19.1563355657
 21
21.7829044446
  0
LINE
  5
25C
100
AcDbEntity
  8
0
100
AcDbLine
 62
7
  6
CONTINUOUS
 10
17.4263355657
 20
21.9604516056
 11
20.2826979034
 21
21.9604516056
  0
LINE
  5
25D
100
AcDbEntity
  8
0
100
AcDbLine
 62
7
  6
CONTINUOUS
 10
58.4263355657
 20
21.9623902801
 11
55.5699884478
 21
21.9609362742
  0
LINE
  5
25E
100
AcDbEntity
  8
0
100
AcDbLine
 62
7
  6
CONTINUOUS
 10
55.5263355657
 20
22.3623902801
 11
20.3263355657
 21
22.3623902801
  0
LINE
  5
25F
100
AcDbEntity
  8
0
100
AcDbLine
 62
7
  6
CONTINUOUS
 10
9.9263355657
 20
30.9455223796
 11
10.1637967983
 21
30.8280010276
  0
LINE
  5
260
100
AcDbEntity
  8
0
100
AcDbLine
 62
7
  6
CONTINUOUS
 10
40.3439698238
 20
14.2205220851
 11
40.6779421841
 21
14.0497318341
  0
LINE
  5
261
100
AcDbEntity
  8
0
100
AcDbLine
 62
7
  6
CONTINUOUS
 10
40.5082099158
 20
13.5354780071
 11
40.2587392655
 21
13.7050617859
  0
LINE
  5
262
100
AcDbEntity
  8
0
100
AcDbLine
 62
7
  6
CONTINUOUS
 10
37.1769802167
 20
12.6002828727
 11
37.1791905028
 21
12.598721303
  0
LINE
  5
263
100
AcDbEntity
  8
0
100
AcDbLine
 62
7
  6
CONTINUOUS
 10
41.0103132319
 20
12.6002828727
 11
41.0125235174
 21
12.5987213027
  0
LINE
  5
264
100
AcDbEntity
  8
0
100
AcDbLine
 62
7
  6
CONTINUOUS
 10
38.0911540742
 20
13.112826803
 11
38.0877422994
 21
13.1155041372
  0
LINE
  5
265
100
AcDbEntity
  8
0
100
AcDbLine
 62
7
  6
CONTINUOUS
 10
33.4283431077
 20
14.1306858351
 11
33.4302703954
 21
14.1287971096
  0
LINE
  5
266
100
AcDbEntity
  8
0
100
AcDbLine
 62
7
  6
CONTINUOUS
 10
31.1786720505
 20
13.7898912331
 11
31.1813423844
 21
13.7872208992
  0
LINE
  5
267
100
AcDbEntity
  8
0
100
AcDbLine
 62
7
  6
CONTINUOUS
 10
16.9263355657
 20
20.5123902801
 11
16.5718369279
 21
21.2216036384
  0
LINE
  5
268
100
AcDbEntity
  8
0
100
AcDbLine
 62
7
  6
CONTINUOUS
 10
8.0263355657
 20
43.7623902801
 11
8.0263355657
 21
52.7623902801
  0
LINE
  5
269
100
AcDbEntity
  8
0
100
AcDbLine
 62
7
  6
CONTINUOUS
 10
8.4263355657
 20
43.2724923316
 11
8.4263355657
 21
53.2522882287
  0
LINE
  5
26A
100
AcDbEntity
  8
0
100
AcDbLine
 62
7
  6
CONTINUOUS
 10
9.8799894804
 20
43.2623902801
 11
9.8799894804
 21
53.2623902801
  0
LINE
  5
26B
100
AcDbEntity
  8
0
100
AcDbLine
 62
7
  6
CONTINUOUS
 10
9.9263355657
 20
92.2623902801
 11
9.9263355657
 21
81.9455223796
  0
LINE
  5
26C
100
AcDbEntity
  8
0
100
AcDbLine
 62
7
  6
CONTINUOUS
 10
9.9263355657
 20
78.5792581807
 11
9.9263355657
 21
54.2623902801
  0
LINE
  5
26D
100
AcDbEntity
  8
0
100
AcDbLine
 62
7
  6
CONTINUOUS
 10
9.9263355657
 20
42.2623902801
 11
9.9263355657
 21
30.9455223796
  0
LINE
  5
26E
100
AcDbEntity
  8
0
100
AcDbLine
 62
7
  6
CONTINUOUS
 10
9.9263355657
 20
27.5792581807
 11
9.9263355657
 21
25.2623902801
  0
LINE
  5
26F
100
AcDbEntity
  8
0
100
AcDbLine
 62
7
  6
CONTINUOUS
 10
9.9961771047
 20
33.2623902801
 11
9.9961771047
 21
33.2795458927
  0
LINE
  5
270
100
AcDbEntity
  8
0
100
AcDbLine
 62
7
  6
CONTINUOUS
 10
9.9961771047
 20
39.2452346675
 11
9.9961771047
 21
39.2623902801
  0
LINE
  5
271
100
AcDbEntity
  8
0
100
AcDbLine
 62
7
  6
CONTINUOUS
 10
9.9961771047
 20
86.7623902801
 11
9.9961771047
 21
86.7795458927
  0
LINE
  5
272
100
AcDbEntity
  8
0
100
AcDbLine
 62
7
  6
CONTINUOUS
 10
10.1637967983
 20
86.2623902801
 11
10.1637967983
 21
81.8280010276
  0
LINE
  5
273
100
AcDbEntity
  8
0
100
AcDbLine
 62
7
  6
CONTINUOUS
 10
10.1637967983
 20
78.6967795327
 11
10.1637967983
 21
54.2623902801
  0
LINE
  5
274
100
AcDbEntity
  8
0
100
AcDbLine
 62
7
  6
CONTINUOUS
 10
10.1637967983
 20
42.2623902801
 11
10.1637967983
 21
39.7623902801
  0
LINE
  5
275
100
AcDbEntity
  8
0
100
AcDbLine
 62
7
  6
CONTINUOUS
 10
10.1637967983
 20
32.7623902801
 11
10.1637967983
 21
30.8280010276
  0
LINE
  5
276
100
AcDbEntity
  8
0
100
AcDbLine
 62
7
  6
CONTINUOUS
 10
10.1637967983
 20
27.6967795327
 11
10.1637967983
 21
25.2623902802
  0
LINE
  5
277
100
AcDbEntity
  8
0
100
AcDbLine
 62
7
  6
CONTINUOUS
 10
10.1637967983
 20
33.9300099737
 11
10.1637967983
 21
38.5947705866
  0
LINE
  5
278
100
AcDbEntity
  8
0
100
AcDbLine
 62
7
  6
CONTINUOUS
 10
10.1637967983
 20
87.4300099737
 11
10.1637967983
 21
92.0947705866
  0
LINE
  5
279
100
AcDbEntity
  8
0
100
AcDbLine
 62
7
  6
CONTINUOUS
 10
10.1763355657
 20
25.5123902801
 11
10.1763355657
 21
42.2623902801
  0
LINE
  5
27A
100
AcDbEntity
  8
0
100
AcDbLine
 62
7
  6
CONTINUOUS
 10
10.1763355657
 20
54.2623902801
 11
10.1763355657
 21
92.015436145
  0
LINE
  5
27B
100
AcDbEntity
  8
0
100
AcDbLine
 62
7
  6
CONTINUOUS
 10
62.0024382329
 20
22.5123902801
 11
59.3033649682
 21
22.5123902801
  0
LINE
  5
27C
100
AcDbEntity
  8
0
100
AcDbLine
 62
7
  6
CONTINUOUS
 10
16.5493061633
 20
22.5123902801
 11
13.8502328986
 21
22.5123902801
  0
LINE
  5
27D
100
AcDbEntity
  8
0
100
AcDbLine
 62
7
  6
CONTINUOUS
 10
17.4263355657
 20
22.8623902801
 11
20.2984413015
 21
22.8623902801
  0
LINE
  5
27E
100
AcDbEntity
  8
0
100
AcDbLine
 62
7
  6
CONTINUOUS
 10
18.9263355657
 20
22.8902845443
 11
17.4263355657
 21
22.8902845443
  0
LINE
  5
27F
100
AcDbEntity
  8
0
100
AcDbLine
 62
7
  6
CONTINUOUS
 10
56.9263355657
 20
22.8902845443
 11
58.4263355657
 21
22.8902845443
  0
LINE
  5
280
100
AcDbEntity
  8
0
100
AcDbLine
 62
7
  6
CONTINUOUS
 10
18.9525181631
 20
23.1792145309
 11
19.1563355657
 21
23.1792145309
  0
LINE
  5
281
100
AcDbEntity
  8
0
100
AcDbLine
 62
7
  6
CONTINUOUS
 10
20.1563355657
 20
23.1792145309
 11
20.3001529683
 21
23.1792145309
  0
LINE
  5
282
100
AcDbEntity
  8
0
100
AcDbLine
 62
7
  6
CONTINUOUS
 10
55.5525181631
 20
23.1792145309
 11
55.6963355657
 21
23.1792145309
  0
LINE
  5
283
100
AcDbEntity
  8
0
100
AcDbLine
 62
7
  6
CONTINUOUS
 10
56.6963355657
 20
23.1792145309
 11
56.9001529683
 21
23.1792145309
  0
LINE
  5
284
100
AcDbEntity
  8
0
100
AcDbLine
 62
7
  6
CONTINUOUS
 10
56.6963355657
 20
24.3052801251
 11
55.6963355657
 21
24.3052801251
  0
LINE
  5
285
100
AcDbEntity
  8
0
100
AcDbLine
 62
7
  6
CONTINUOUS
 10
20.1563355657
 20
24.3052801251
 11
19.1563355657
 21
24.3052801251
  0
LINE
  5
286
100
AcDbEntity
  8
0
100
AcDbLine
 62
7
  6
CONTINUOUS
 10
18.9263355657
 20
24.4604516056
 11
20.3263355657
 21
24.4604516056
  0
LINE
  5
287
100
AcDbEntity
  8
0
100
AcDbLine
 62
7
  6
CONTINUOUS
 10
55.5263355657
 20
24.4604516056
 11
56.9263355657
 21
24.4604516056
  0
LINE
  5
288
100
AcDbEntity
  8
0
100
AcDbLine
 62
7
  6
CONTINUOUS
 10
65.9263355657
 20
25.2623902801
 11
65.6888743332
 21
25.2623902801
  0
LINE
  5
289
100
AcDbEntity
  8
0
100
AcDbLine
 62
7
  6
CONTINUOUS
 10
10.1637967983
 20
25.2623902801
 11
9.9263355657
 21
25.2623902801
  0
LINE
  5
28A
100
AcDbEntity
  8
0
100
AcDbLine
 62
7
  6
CONTINUOUS
 10
65.6763355657
 20
25.5123902801
 11
63.9563581699
 21
25.5123902801
  0
LINE
  5
28B
100
AcDbEntity
  8
0
100
AcDbLine
 62
7
  6
CONTINUOUS
 10
10.1763355657
 20
25.5123902801
 11
11.8963129616
 21
25.5123902801
  0
LINE
  5
28C
100
AcDbEntity
  8
0
100
AcDbLine
 62
7
  6
CONTINUOUS
 10
58.4263355657
 20
22.8623558393
 11
55.5542467498
 21
22.8633596174
  0
LINE
  5
28D
100
AcDbEntity
  8
0
100
AcDbLine
 62
7
  6
CONTINUOUS
 10
36.6756048678
 20
12.7716677589
 11
36.6736562921
 21
12.7735788303
  0
LINE
  5
28E
100
AcDbEntity
  8
0
100
AcDbLine
 62
7
  6
CONTINUOUS
 10
10.0130281308
 20
38.745539254
 11
10.1637967983
 21
38.5947705866
  0
LINE
  5
28F
100
AcDbEntity
  8
0
100
AcDbLine
 62
7
  6
CONTINUOUS
 10
35.0094686596
 20
12.2600402566
 11
34.6756909149
 21
12.6002828726
  0
LINE
  5
290
100
AcDbEntity
  8
0
100
AcDbLine
 62
7
  6
CONTINUOUS
 10
38.6773145067
 20
12.8566512185
 11
38.926740505
 21
12.6014407444
  0
LINE
  5
291
100
AcDbEntity
  8
0
100
AcDbLine
 62
7
  6
CONTINUOUS
 10
18.9978674922
 20
21.8997830117
 11
18.969973228
 21
21.9604516056
  0
LINE
  5
292
100
AcDbEntity
  8
0
100
AcDbLine
 62
7
  6
CONTINUOUS
 10
10.2810978742
 20
27.2623902801
 11
10.2810978742
 21
31.2623902801
  0
LINE
  5
293
100
AcDbEntity
  8
0
100
AcDbLine
 62
7
  6
CONTINUOUS
 10
10.2810978742
 20
78.3623902801
 11
10.2810978742
 21
82.1623902801
  0
LINE
  5
294
100
AcDbEntity
  8
0
100
AcDbLine
 62
7
  6
CONTINUOUS
 10
10.3334790284
 20
34.9623902801
 11
10.3334790284
 21
36.5623902801
  0
LINE
  5
295
100
AcDbEntity
  8
0
100
AcDbLine
 62
7
  6
CONTINUOUS
 10
10.3334790284
 20
59.5623902801
 11
10.3334790284
 21
61.1623902801
  0
LINE
  5
296
100
AcDbEntity
  8
0
100
AcDbLine
 62
7
  6
CONTINUOUS
 10
10.3334790284
 20
66.1623902801
 11
10.3334790284
 21
67.7623902801
  0
LINE
  5
297
100
AcDbEntity
  8
0
100
AcDbLine
 62
7
  6
CONTINUOUS
 10
10.3334790284
 20
72.7623902801
 11
10.3334790284
 21
74.3623902801
  0
LINE
  5
298
100
AcDbEntity
  8
0
100
AcDbLine
 62
7
  6
CONTINUOUS
 10
10.3334790284
 20
85.9623902801
 11
10.3334790284
 21
87.5623902801
  0
LINE
  5
299
100
AcDbEntity
  8
0
100
AcDbLine
 62
7
  6
CONTINUOUS
 10
10.3683997979
 20
27.2623902801
 11
10.3683997979
 21
31.2623902801
  0
LINE
  5
29A
100
AcDbEntity
  8
0
100
AcDbLine
 62
7
  6
CONTINUOUS
 10
10.3683997979
 20
78.3623902801
 11
10.3683997979
 21
82.1623902801
  0
LINE
  5
29B
100
AcDbEntity
  8
0
100
AcDbLine
 62
7
  6
CONTINUOUS
 10
10.4326867234
 20
43.6623902801
 11
10.4326867234
 21
52.8623902801
  0
LINE
  5
29C
100
AcDbEntity
  8
0
100
AcDbLine
 62
7
  6
CONTINUOUS
 10
10.4452254908
 20
53.0278115802
 11
10.4452254908
 21
43.49696898
  0
LINE
  5
29D
100
AcDbEntity
  8
0
100
AcDbLine
 62
7
  6
CONTINUOUS
 10
10.4591937986
 20
28.3623902801
 11
10.4591937986
 21
29.9623902801
  0
LINE
  5
29E
100
AcDbEntity
  8
0
100
AcDbLine
 62
7
  6
CONTINUOUS
 10
10.4591937986
 20
79.3623902801
 11
10.4591937986
 21
80.9623902801
  0
LINE
  5
29F
100
AcDbEntity
  8
0
100
AcDbLine
 62
7
  6
CONTINUOUS
 10
10.5464957223
 20
44.0623902801
 11
10.5464957223
 21
45.5623902801
  0
LINE
  5
2A0
100
AcDbEntity
  8
0
100
AcDbLine
 62
7
  6
CONTINUOUS
 10
10.5464957223
 20
50.9623902801
 11
10.5464957223
 21
52.4623902801
  0
LINE
  5
2A1
100
AcDbEntity
  8
0
100
AcDbLine
 62
7
  6
CONTINUOUS
 10
10.6184325075
 20
87.5623902801
 11
10.6184325075
 21
85.9623902801
  0
LINE
  5
2A2
100
AcDbEntity
  8
0
100
AcDbLine
 62
7
  6
CONTINUOUS
 10
10.8258618783
 20
80.9623902801
 11
10.8258618783
 21
79.3623902801
  0
LINE
  5
2A3
100
AcDbEntity
  8
0
100
AcDbLine
 62
7
  6
CONTINUOUS
 10
10.8258618783
 20
74.3623902801
 11
10.8258618783
 21
72.7623902801
  0
LINE
  5
2A4
100
AcDbEntity
  8
0
100
AcDbLine
 62
7
  6
CONTINUOUS
 10
10.8258618783
 20
67.7623902801
 11
10.8258618783
 21
66.1623902801
  0
LINE
  5
2A5
100
AcDbEntity
  8
0
100
AcDbLine
 62
7
  6
CONTINUOUS
 10
10.8258618783
 20
61.1623902801
 11
10.8258618783
 21
59.5623902801
  0
LINE
  5
2A6
100
AcDbEntity
  8
0
100
AcDbLine
 62
7
  6
CONTINUOUS
 10
10.8258618783
 20
52.4623902801
 11
10.8258618783
 21
50.9623902801
  0
LINE
  5
2A7
100
AcDbEntity
  8
0
100
AcDbLine
 62
7
  6
CONTINUOUS
 10
10.8258618783
 20
45.5623902801
 11
10.8258618783
 21
44.0623902801
  0
LINE
  5
2A8
100
AcDbEntity
  8
0
100
AcDbLine
 62
7
  6
CONTINUOUS
 10
10.8258618783
 20
36.5623902801
 11
10.8258618783
 21
34.9623902801
  0
LINE
  5
2A9
100
AcDbEntity
  8
0
100
AcDbLine
 62
7
  6
CONTINUOUS
 10
10.8258618783
 20
29.9623902801
 11
10.8258618783
 21
28.3623902801
  0
LINE
  5
2AA
100
AcDbEntity
  8
0
100
AcDbLine
 62
7
  6
CONTINUOUS
 10
10.8969221345
 20
87.0705561076
 11
10.8969221345
 21
25.5123902827
  0
LINE
  5
2AB
100
AcDbEntity
  8
0
100
AcDbLine
 62
7
  6
CONTINUOUS
 10
11.8963129616
 20
25.5123902801
 11
11.8963129616
 21
87.0705714526
  0
LINE
  5
2AC
100
AcDbEntity
  8
0
100
AcDbLine
 62
7
  6
CONTINUOUS
 10
10.2985582589
 20
26.7623902801
 11
10.3509394132
 21
26.7623902801
  0
LINE
  5
2AD
100
AcDbEntity
  8
0
100
AcDbLine
 62
7
  6
CONTINUOUS
 10
65.5017317183
 20
26.7623902801
 11
65.5541128725
 21
26.7623902801
  0
LINE
  5
2AE
100
AcDbEntity
  8
0
100
AcDbLine
 62
7
  6
CONTINUOUS
 10
65.5715732572
 20
27.2623902801
 11
65.4842713335
 21
27.2623902801
  0
LINE
  5
2AF
100
AcDbEntity
  8
0
100
AcDbLine
 62
7
  6
CONTINUOUS
 10
10.3683997979
 20
27.2623902801
 11
10.2810978742
 21
27.2623902801
  0
LINE
  5
2B0
100
AcDbEntity
  8
0
100
AcDbLine
 62
7
  6
CONTINUOUS
 10
10.4941145681
 20
27.3623902801
 11
10.7909411088
 21
27.3623902801
  0
LINE
  5
2B1
100
AcDbEntity
  8
0
100
AcDbLine
 62
7
  6
CONTINUOUS
 10
65.0617300227
 20
27.3623902801
 11
65.3585565634
 21
27.3623902801
  0
LINE
  5
2B2
100
AcDbEntity
  8
0
100
AcDbLine
 62
7
  6
CONTINUOUS
 10
22.9263355657
 20
27.6857236135
 11
52.9263355657
 21
27.6857236135
  0
LINE
  5
2B3
100
AcDbEntity
  8
0
100
AcDbLine
 62
7
  6
CONTINUOUS
 10
65.3934773328
 20
28.3623902801
 11
65.0268092532
 21
28.3623902801
  0
LINE
  5
2B4
100
AcDbEntity
  8
0
100
AcDbLine
 62
7
  6
CONTINUOUS
 10
10.8258618783
 20
28.3623902801
 11
10.4591937986
 21
28.3623902801
  0
LINE
  5
2B5
100
AcDbEntity
  8
0
100
AcDbLine
 62
7
  6
CONTINUOUS
 10
22.6751095494
 20
28.4793655046
 11
22.9263355657
 21
28.4793655046
  0
LINE
  5
2B6
100
AcDbEntity
  8
0
100
AcDbLine
 62
7
  6
CONTINUOUS
 10
52.9263355657
 20
28.4793655046
 11
53.1775615821
 21
28.4793655046
  0
LINE
  5
2B7
100
AcDbEntity
  8
0
100
AcDbLine
 62
7
  6
CONTINUOUS
 10
42.3430025503
 20
12.00499365
 11
42.3456728842
 21
12.0023233161
  0
LINE
  5
2B8
100
AcDbEntity
  8
0
100
AcDbLine
 62
7
  6
CONTINUOUS
 10
38.7580653939
 20
14.0453665023
 11
38.5163241817
 21
14.2917902801
  0
LINE
  5
2B9
100
AcDbEntity
  8
0
100
AcDbLine
 62
7
  6
CONTINUOUS
 10
40.6779421841
 20
14.0497318341
 11
41.0115132611
 21
13.7084246141
  0
LINE
  5
2BA
100
AcDbEntity
  8
0
100
AcDbLine
 62
7
  6
CONTINUOUS
 10
36.8432024719
 20
12.2600402566
 11
36.8448056989
 21
12.2578598697
  0
LINE
  5
2BB
100
AcDbEntity
  8
0
100
AcDbLine
 62
7
  6
CONTINUOUS
 10
35.0109139779
 20
13.0268101378
 11
35.1770662637
 21
12.7716677589
  0
LINE
  5
2BC
100
AcDbEntity
  8
0
100
AcDbLine
 62
7
  6
CONTINUOUS
 10
18.9525181631
 20
24.1572601162
 11
18.9394268644
 21
24.3088558609
  0
LINE
  5
2BD
100
AcDbEntity
  8
0
100
AcDbLine
 62
7
  6
CONTINUOUS
 10
10.8969221345
 20
87.0705561076
 11
10.5104986535
 21
91.6812730573
  0
LINE
  5
2BE
100
AcDbEntity
  8
0
100
AcDbLine
 62
7
  6
CONTINUOUS
 10
16.5493061633
 20
22.5123902801
 11
16.5718369279
 21
21.2216036384
  0
LINE
  5
2BF
100
AcDbEntity
  8
0
100
AcDbLine
 62
7
  6
CONTINUOUS
 10
14.9263355657
 20
20.2623902801
 11
14.9263355657
 21
20.4998515127
  0
LINE
  5
2C0
100
AcDbEntity
  8
0
100
AcDbLine
 62
7
  6
CONTINUOUS
 10
14.9263355657
 20
97.0249290476
 11
14.9263355657
 21
97.2623902801
  0
LINE
  5
2C1
100
AcDbEntity
  8
0
100
AcDbLine
 62
7
  6
CONTINUOUS
 10
15.1263355657
 20
93.6819510521
 11
15.1263355657
 21
96.8109526092
  0
LINE
  5
2C2
100
AcDbEntity
  8
0
100
AcDbLine
 62
7
  6
CONTINUOUS
 10
15.1763355657
 20
20.5123902801
 11
15.1763355657
 21
21.2216036384
  0
LINE
  5
2C3
100
AcDbEntity
  8
0
100
AcDbLine
 62
7
  6
CONTINUOUS
 10
15.845026873
 20
91.3457236135
 11
15.845026873
 21
92.2688005365
  0
LINE
  5
2C4
100
AcDbEntity
  8
0
100
AcDbLine
 62
7
  6
CONTINUOUS
 10
16.2263355657
 20
95.8546372731
 11
16.2263355657
 21
96.8552468174
  0
LINE
  5
2C5
100
AcDbEntity
  8
0
100
AcDbLine
 62
7
  6
CONTINUOUS
 10
16.5493061633
 20
38.8123902801
 11
16.5493061633
 21
22.5123902801
  0
LINE
  5
2C6
100
AcDbEntity
  8
0
100
AcDbLine
 62
7
  6
CONTINUOUS
 10
16.9263355657
 20
20.5123902801
 11
16.9263355657
 21
38.8123902801
  0
LINE
  5
2C7
100
AcDbEntity
  8
0
100
AcDbLine
 62
7
  6
CONTINUOUS
 10
10.4591937986
 20
29.9623902801
 11
10.8258618783
 21
29.9623902801
  0
LINE
  5
2C8
100
AcDbEntity
  8
0
100
AcDbLine
 62
7
  6
CONTINUOUS
 10
65.0268092532
 20
29.9623902801
 11
65.3934773328
 21
29.9623902801
  0
LINE
  5
2C9
100
AcDbEntity
  8
0
100
AcDbLine
 62
7
  6
CONTINUOUS
 10
65.3585565634
 20
30.9623902801
 11
65.0617300227
 21
30.9623902801
  0
LINE
  5
2CA
100
AcDbEntity
  8
0
100
AcDbLine
 62
7
  6
CONTINUOUS
 10
10.7909411088
 20
30.9623902801
 11
10.4941145681
 21
30.9623902801
  0
LINE
  5
2CB
100
AcDbEntity
  8
0
100
AcDbLine
 62
7
  6
CONTINUOUS
 10
10.2810978742
 20
31.2623902801
 11
10.3683997979
 21
31.2623902801
  0
LINE
  5
2CC
100
AcDbEntity
  8
0
100
AcDbLine
 62
7
  6
CONTINUOUS
 10
65.4842713335
 20
31.2623902801
 11
65.5715732572
 21
31.2623902801
  0
LINE
  5
2CD
100
AcDbEntity
  8
0
100
AcDbLine
 62
7
  6
CONTINUOUS
 10
65.5541128725
 20
31.7623902801
 11
65.5017317183
 21
31.7623902801
  0
LINE
  5
2CE
100
AcDbEntity
  8
0
100
AcDbLine
 62
7
  6
CONTINUOUS
 10
10.3509394132
 20
31.7623902801
 11
10.2985582589
 21
31.7623902801
  0
LINE
  5
2CF
100
AcDbEntity
  8
0
100
AcDbLine
 62
7
  6
CONTINUOUS
 10
53.1763355657
 20
32.2267315635
 11
52.9263355657
 21
32.2267315635
  0
LINE
  5
2D0
100
AcDbEntity
  8
0
100
AcDbLine
 62
7
  6
CONTINUOUS
 10
22.9263355657
 20
32.2267315635
 11
22.6763355657
 21
32.2267315635
  0
LINE
  5
2D1
100
AcDbEntity
  8
0
100
AcDbLine
 62
7
  6
CONTINUOUS
 10
65.6763355657
 20
32.745539254
 11
65.8396430006
 21
32.745539254
  0
LINE
  5
2D2
100
AcDbEntity
  8
0
100
AcDbLine
 62
7
  6
CONTINUOUS
 10
10.0136374894
 20
32.7623902801
 11
10.1637967983
 21
32.7623902801
  0
LINE
  5
2D3
100
AcDbEntity
  8
0
100
AcDbLine
 62
7
  6
CONTINUOUS
 10
20.4799401371
 20
38.8018666282
 11
20.497395202
 21
38.7844115632
  0
LINE
  5
2D4
100
AcDbEntity
  8
0
100
AcDbLine
 62
7
  6
CONTINUOUS
 10
22.6710990462
 20
37.6076267996
 11
22.6763355657
 21
37.6023902801
  0
LINE
  5
2D5
100
AcDbEntity
  8
0
100
AcDbLine
 62
7
  6
CONTINUOUS
 10
40.6765359643
 20
12.2600402566
 11
40.6781391921
 21
12.2578598702
  0
LINE
  5
2D6
100
AcDbEntity
  8
0
100
AcDbLine
 62
7
  6
CONTINUOUS
 10
34.6756909149
 20
12.6002828726
 11
34.5084976986
 21
12.9407701337
  0
LINE
  5
2D7
100
AcDbEntity
  8
0
100
AcDbLine
 62
7
  6
CONTINUOUS
 10
33.0940438654
 20
13.8750483326
 11
33.0951801336
 21
13.8725547171
  0
LINE
  5
2D8
100
AcDbEntity
  8
0
100
AcDbLine
 62
7
  6
CONTINUOUS
 10
20.4799401371
 20
35.0924900411
 11
20.497395202
 21
35.0050013776
  0
LINE
  5
2D9
100
AcDbEntity
  8
0
100
AcDbLine
 62
7
  6
CONTINUOUS
 10
20.313244267
 20
24.3088558609
 11
20.3001529683
 21
24.4604516056
  0
LINE
  5
2DA
100
AcDbEntity
  8
0
100
AcDbLine
 62
7
  6
CONTINUOUS
 10
15.7581004156
 20
93.305987284
 11
15.8450268799
 21
92.2688005365
  0
LINE
  5
2DB
100
AcDbEntity
  8
0
100
AcDbLine
 62
7
  6
CONTINUOUS
 10
20.2929111137
 20
23.1792145309
 11
20.2984413015
 21
22.8623902801
  0
LINE
  5
2DC
100
AcDbEntity
  8
0
100
AcDbLine
 62
7
  6
CONTINUOUS
 10
17.2971680853
 20
39.2954028764
 11
17.2971680853
 21
21.3623902801
  0
LINE
  5
2DD
100
AcDbEntity
  8
0
100
AcDbLine
 62
7
  6
CONTINUOUS
 10
17.3058956177
 20
20.3754815788
 11
17.3058956177
 21
21.3623902801
  0
LINE
  5
2DE
100
AcDbEntity
  8
0
100
AcDbLine
 62
7
  6
CONTINUOUS
 10
17.4263355657
 20
20.3623902801
 11
17.4263355657
 21
39.3123902801
  0
LINE
  5
2DF
100
AcDbEntity
  8
0
100
AcDbLine
 62
7
  6
CONTINUOUS
 10
17.6263355657
 20
96.8552468174
 11
17.6263355657
 21
95.8546372731
  0
LINE
  5
2E0
100
AcDbEntity
  8
0
100
AcDbLine
 62
7
  6
CONTINUOUS
 10
17.6763355657
 20
61.3123902801
 11
17.6763355657
 21
87.3123902801
  0
LINE
  5
2E1
100
AcDbEntity
  8
0
100
AcDbLine
 62
7
  6
CONTINUOUS
 10
17.9263355657
 20
61.5623902801
 11
17.9263355657
 21
86.4410699366
  0
LINE
  5
2E2
100
AcDbEntity
  8
0
100
AcDbLine
 62
7
  6
CONTINUOUS
 10
18.7263355657
 20
93.7207236135
 11
18.7263355657
 21
96.816833971
  0
LINE
  5
2E3
100
AcDbEntity
  8
0
100
AcDbLine
 62
7
  6
CONTINUOUS
 10
18.7552759294
 20
35.0050013776
 11
18.7552759294
 21
38.7844115632
  0
LINE
  5
2E4
100
AcDbEntity
  8
0
100
AcDbLine
 62
7
  6
CONTINUOUS
 10
18.7727309944
 20
38.8018666282
 11
18.7727309944
 21
35.0924900411
  0
LINE
  5
2E5
100
AcDbEntity
  8
0
100
AcDbLine
 62
7
  6
CONTINUOUS
 10
18.9263355657
 20
24.4604516056
 11
18.9263355657
 21
22.8902845443
  0
LINE
  5
2E6
100
AcDbEntity
  8
0
100
AcDbLine
 62
7
  6
CONTINUOUS
 10
18.9525181631
 20
24.1572601162
 11
18.9525181631
 21
23.1792145309
  0
LINE
  5
2E7
100
AcDbEntity
  8
0
100
AcDbLine
 62
7
  6
CONTINUOUS
 10
18.969973228
 20
20.3623902801
 11
18.969973228
 21
21.9604516056
  0
LINE
  5
2E8
100
AcDbEntity
  8
0
100
AcDbLine
 62
7
  6
CONTINUOUS
 10
18.9978674922
 20
21.8997830117
 11
18.9978674922
 21
20.3623902801
  0
LINE
  5
2E9
100
AcDbEntity
  8
0
100
AcDbLine
 62
7
  6
CONTINUOUS
 10
19.1563355657
 20
20.3623902801
 11
19.1563355657
 21
21.9604516056
  0
LINE
  5
2EA
100
AcDbEntity
  8
0
100
AcDbLine
 62
7
  6
CONTINUOUS
 10
19.1563355657
 20
22.8623902801
 11
19.1563355657
 21
24.4604516056
  0
LINE
  5
2EB
100
AcDbEntity
  8
0
100
AcDbLine
 62
7
  6
CONTINUOUS
 10
20.1563355657
 20
20.3623902801
 11
20.1563355657
 21
21.9604516056
  0
LINE
  5
2EC
100
AcDbEntity
  8
0
100
AcDbLine
 62
7
  6
CONTINUOUS
 10
20.1563355657
 20
22.8623902801
 11
20.1563355657
 21
24.4604516056
  0
LINE
  5
2ED
100
AcDbEntity
  8
0
100
AcDbLine
 62
7
  6
CONTINUOUS
 10
20.2548036392
 20
20.3623902801
 11
20.2548036392
 21
21.8997830117
  0
LINE
  5
2EE
100
AcDbEntity
  8
0
100
AcDbLine
 62
7
  6
CONTINUOUS
 10
20.3001529683
 20
23.1792145309
 11
20.3001529683
 21
24.1572601162
  0
LINE
  5
2EF
100
AcDbEntity
  8
0
100
AcDbLine
 62
7
  6
CONTINUOUS
 10
20.3263355657
 20
22.3623902801
 11
20.3263355657
 21
24.4604516056
  0
LINE
  5
2F0
100
AcDbEntity
  8
0
100
AcDbLine
 62
7
  6
CONTINUOUS
 10
20.4799401371
 20
35.0924900411
 11
20.4799401371
 21
38.8018666282
  0
LINE
  5
2F1
100
AcDbEntity
  8
0
100
AcDbLine
 62
7
  6
CONTINUOUS
 10
20.497395202
 20
35.0050013776
 11
20.497395202
 21
38.7844115632
  0
LINE
  5
2F2
100
AcDbEntity
  8
0
100
AcDbLine
 62
7
  6
CONTINUOUS
 10
18.9542298299
 20
22.8623902801
 11
18.9597600178
 21
23.1792145309
  0
LINE
  5
2F3
100
AcDbEntity
  8
0
100
AcDbLine
 62
7
  6
CONTINUOUS
 10
65.8564940267
 20
33.2452346675
 11
65.6763355657
 21
33.2452346675
  0
LINE
  5
2F4
100
AcDbEntity
  8
0
100
AcDbLine
 62
7
  6
CONTINUOUS
 10
10.1763355657
 20
33.2623902801
 11
9.9961771047
 21
33.2623902801
  0
LINE
  5
2F5
100
AcDbEntity
  8
0
100
AcDbLine
 62
7
  6
CONTINUOUS
 10
9.9961771047
 20
33.2795458927
 11
10.1763355657
 21
33.2795458927
  0
LINE
  5
2F6
100
AcDbEntity
  8
0
100
AcDbLine
 62
7
  6
CONTINUOUS
 10
65.6763355657
 20
33.2795458927
 11
65.8564940267
 21
33.2795458927
  0
LINE
  5
2F7
100
AcDbEntity
  8
0
100
AcDbLine
 62
7
  6
CONTINUOUS
 10
65.8396430006
 20
33.7792413062
 11
65.6763355657
 21
33.7792413062
  0
LINE
  5
2F8
100
AcDbEntity
  8
0
100
AcDbLine
 62
7
  6
CONTINUOUS
 10
10.1763355657
 20
33.7792413062
 11
10.0130281308
 21
33.7792413062
  0
LINE
  5
2F9
100
AcDbEntity
  8
0
100
AcDbLine
 62
7
  6
CONTINUOUS
 10
10.3683997979
 20
33.9623902801
 11
10.7909411088
 21
33.9623902801
  0
LINE
  5
2FA
100
AcDbEntity
  8
0
100
AcDbLine
 62
7
  6
CONTINUOUS
 10
65.0617300227
 20
33.9623902801
 11
65.4842713335
 21
33.9623902801
  0
LINE
  5
2FB
100
AcDbEntity
  8
0
100
AcDbLine
 62
7
  6
CONTINUOUS
 10
65.519192103
 20
34.9623902801
 11
65.0268092532
 21
34.9623902801
  0
LINE
  5
2FC
100
AcDbEntity
  8
0
100
AcDbLine
 62
7
  6
CONTINUOUS
 10
10.8258618783
 20
34.9623902801
 11
10.3334790284
 21
34.9623902801
  0
LINE
  5
2FD
100
AcDbEntity
  8
0
100
AcDbLine
 62
7
  6
CONTINUOUS
 10
18.7552759294
 20
35.0050013776
 11
20.497395202
 21
35.0050013776
  0
LINE
  5
2FE
100
AcDbEntity
  8
0
100
AcDbLine
 62
7
  6
CONTINUOUS
 10
55.3552759294
 20
35.0050013776
 11
57.097395202
 21
35.0050013776
  0
LINE
  5
2FF
100
AcDbEntity
  8
0
100
AcDbLine
 62
7
  6
CONTINUOUS
 10
18.7727309944
 20
35.0924900411
 11
20.4799401371
 21
35.0924900411
  0
LINE
  5
300
100
AcDbEntity
  8
0
100
AcDbLine
 62
7
  6
CONTINUOUS
 10
55.3727309944
 20
35.0924900411
 11
57.0799401371
 21
35.0924900411
  0
LINE
  5
301
100
AcDbEntity
  8
0
100
AcDbLine
 62
7
  6
CONTINUOUS
 10
10.3334790284
 20
36.5623902801
 11
10.8258618783
 21
36.5623902801
  0
LINE
  5
302
100
AcDbEntity
  8
0
100
AcDbLine
 62
7
  6
CONTINUOUS
 10
65.0268092532
 20
36.5623902801
 11
65.519192103
 21
36.5623902801
  0
LINE
  5
303
100
AcDbEntity
  8
0
100
AcDbLine
 62
7
  6
CONTINUOUS
 10
10.4115234386
 20
54.0272024072
 11
10.1763355657
 21
54.2623902801
  0
LINE
  5
304
100
AcDbEntity
  8
0
100
AcDbLine
 62
7
  6
CONTINUOUS
 10
40.674665114
 20
13.2810923996
 11
40.5082099158
 21
13.5354780071
  0
LINE
  5
305
100
AcDbEntity
  8
0
100
AcDbLine
 62
7
  6
CONTINUOUS
 10
38.4260080725
 20
12.3450977054
 11
38.1753970743
 21
12.7705701449
  0
LINE
  5
306
100
AcDbEntity
  8
0
100
AcDbLine
 62
7
  6
CONTINUOUS
 10
22.1263355657
 20
96.816833971
 11
22.1263355657
 21
93.7207236135
  0
LINE
  5
307
100
AcDbEntity
  8
0
100
AcDbLine
 62
7
  6
CONTINUOUS
 10
22.1263355657
 20
54.5123902801
 11
22.1263355657
 21
57.2123902801
  0
LINE
  5
308
100
AcDbEntity
  8
0
100
AcDbLine
 62
7
  6
CONTINUOUS
 10
22.4069355657
 20
20.8623902801
 11
22.4069355657
 21
20.3623902801
  0
LINE
  5
309
100
AcDbEntity
  8
0
100
AcDbLine
 62
7
  6
CONTINUOUS
 10
22.6710990462
 20
37.6076267996
 11
22.6711022565
 21
22.3622025976
  0
LINE
  5
30A
100
AcDbEntity
  8
0
100
AcDbLine
 62
7
  6
CONTINUOUS
 10
22.9263355657
 20
27.6857236135
 11
22.9263355657
 21
37.0623902801
  0
LINE
  5
30B
100
AcDbEntity
  8
0
100
AcDbLine
 62
7
  6
CONTINUOUS
 10
23.1263355657
 20
43.1123902801
 11
23.1263355657
 21
46.5123902801
  0
LINE
  5
30C
100
AcDbEntity
  8
0
100
AcDbLine
 62
7
  6
CONTINUOUS
 10
23.2263355657
 20
95.8546372731
 11
23.2263355657
 21
96.8552468174
  0
LINE
  5
30D
100
AcDbEntity
  8
0
100
AcDbLine
 62
7
  6
CONTINUOUS
 10
23.5245355657
 20
14.4797502801
 11
23.5245355657
 21
20.3623902801
  0
LINE
  5
30E
100
AcDbEntity
  8
0
100
AcDbLine
 62
7
  6
CONTINUOUS
 10
23.9817355657
 20
20.3623902801
 11
23.9817355657
 21
20.8623902801
  0
LINE
  5
30F
100
AcDbEntity
  8
0
100
AcDbLine
 62
7
  6
CONTINUOUS
 10
20.2984413015
 20
22.8623902801
 11
20.2826979034
 21
21.9604516056
  0
LINE
  5
310
100
AcDbEntity
  8
0
100
AcDbLine
 62
7
  6
CONTINUOUS
 10
20.3263355657
 20
22.3623902801
 11
20.2914254359
 21
20.3623902801
  0
LINE
  5
311
100
AcDbEntity
  8
0
100
AcDbLine
 62
7
  6
CONTINUOUS
 10
21.1787007605
 20
20.8623902801
 11
21.169973228
 21
20.3623902801
  0
LINE
  5
312
100
AcDbEntity
  8
0
100
AcDbLine
 62
7
  6
CONTINUOUS
 10
18.9525181631
 20
24.4604516056
 11
18.9394268644
 21
24.3088558609
  0
LINE
  5
313
100
AcDbEntity
  8
0
100
AcDbLine
 62
7
  6
CONTINUOUS
 10
20.313244267
 20
24.3088558609
 11
20.3001529683
 21
24.1572601162
  0
LINE
  5
314
100
AcDbEntity
  8
0
100
AcDbLine
 62
7
  6
CONTINUOUS
 10
60.5068489082
 20
96.8398577577
 11
60.6793814306
 21
97.0123902801
  0
LINE
  5
315
100
AcDbEntity
  8
0
100
AcDbLine
 62
7
  6
CONTINUOUS
 10
65.4842713335
 20
37.5623902801
 11
65.0617300227
 21
37.5623902801
  0
LINE
  5
316
100
AcDbEntity
  8
0
100
AcDbLine
 62
7
  6
CONTINUOUS
 10
10.7909411088
 20
37.5623902801
 11
10.3683997979
 21
37.5623902801
  0
LINE
  5
317
100
AcDbEntity
  8
0
100
AcDbLine
 62
7
  6
CONTINUOUS
 10
23.4263355657
 20
37.5623902801
 11
52.4263355657
 21
37.5623902801
  0
LINE
  5
318
100
AcDbEntity
  8
0
100
AcDbLine
 62
7
  6
CONTINUOUS
 10
53.1815720852
 20
37.6076267996
 11
44.8263355657
 21
37.6076267996
  0
LINE
  5
319
100
AcDbEntity
  8
0
100
AcDbLine
 62
7
  6
CONTINUOUS
 10
31.0263355657
 20
37.6076267996
 11
22.6710990462
 21
37.6076267996
  0
LINE
  5
31A
100
AcDbEntity
  8
0
100
AcDbLine
 62
7
  6
CONTINUOUS
 10
10.0130281308
 20
38.745539254
 11
10.1763355657
 21
38.745539254
  0
LINE
  5
31B
100
AcDbEntity
  8
0
100
AcDbLine
 62
7
  6
CONTINUOUS
 10
65.6763355657
 20
38.745539254
 11
65.8396430006
 21
38.745539254
  0
LINE
  5
31C
100
AcDbEntity
  8
0
100
AcDbLine
 62
7
  6
CONTINUOUS
 10
58.4263355657
 20
38.7844115632
 11
57.097395202
 21
38.7844115632
  0
LINE
  5
31D
100
AcDbEntity
  8
0
100
AcDbLine
 62
7
  6
CONTINUOUS
 10
55.3552759294
 20
38.7844115632
 11
44.8263355657
 21
38.7844115632
  0
LINE
  5
31E
100
AcDbEntity
  8
0
100
AcDbLine
 62
7
  6
CONTINUOUS
 10
31.0263355657
 20
38.7844115632
 11
20.497395202
 21
38.7844115632
  0
LINE
  5
31F
100
AcDbEntity
  8
0
100
AcDbLine
 62
7
  6
CONTINUOUS
 10
18.7552759294
 20
38.7844115632
 11
17.4263355657
 21
38.7844115632
  0
LINE
  5
320
100
AcDbEntity
  8
0
100
AcDbLine
 62
7
  6
CONTINUOUS
 10
20.4799401371
 20
38.8018666282
 11
18.7727309944
 21
38.8018666282
  0
LINE
  5
321
100
AcDbEntity
  8
0
100
AcDbLine
 62
7
  6
CONTINUOUS
 10
55.3727309944
 20
38.8018666282
 11
57.0799401371
 21
38.8018666282
  0
LINE
  5
322
100
AcDbEntity
  8
0
100
AcDbLine
 62
7
  6
CONTINUOUS
 10
16.5493061633
 20
38.8123902801
 11
16.9263355657
 21
38.8123902801
  0
LINE
  5
323
100
AcDbEntity
  8
0
100
AcDbLine
 62
7
  6
CONTINUOUS
 10
58.9263355657
 20
38.8123902801
 11
59.3033649682
 21
38.8123902801
  0
LINE
  5
324
100
AcDbEntity
  8
0
100
AcDbLine
 62
7
  6
CONTINUOUS
 10
44.7914254359
 20
38.8193216931
 11
31.0612456956
 21
38.8193216931
  0
LINE
  5
325
100
AcDbEntity
  8
0
100
AcDbLine
 62
7
  6
CONTINUOUS
 10
17.4263355657
 20
38.836776758
 11
58.4263355657
 21
38.836776758
  0
LINE
  5
326
100
AcDbEntity
  8
0
100
AcDbLine
 62
7
  6
CONTINUOUS
 10
51.4263355657
 20
39.0623902801
 11
50.4263355657
 21
39.0623902801
  0
LINE
  5
327
100
AcDbEntity
  8
0
100
AcDbLine
 62
7
  6
CONTINUOUS
 10
45.4263355657
 20
39.0623902801
 11
44.4263355657
 21
39.0623902801
  0
LINE
  5
328
100
AcDbEntity
  8
0
100
AcDbLine
 62
7
  6
CONTINUOUS
 10
38.4263355657
 20
39.0623902801
 11
37.4263355657
 21
39.0623902801
  0
LINE
  5
329
100
AcDbEntity
  8
0
100
AcDbLine
 62
7
  6
CONTINUOUS
 10
31.4263355657
 20
39.0623902801
 11
30.4263355657
 21
39.0623902801
  0
LINE
  5
32A
100
AcDbEntity
  8
0
100
AcDbLine
 62
7
  6
CONTINUOUS
 10
25.4263355657
 20
39.0623902801
 11
24.4263355657
 21
39.0623902801
  0
LINE
  5
32B
100
AcDbEntity
  8
0
100
AcDbLine
 62
7
  6
CONTINUOUS
 10
24.4263355657
 20
39.0885728775
 11
25.4263355657
 21
39.0885728775
  0
LINE
  5
32C
100
AcDbEntity
  8
0
100
AcDbLine
 62
7
  6
CONTINUOUS
 10
30.4263355657
 20
39.0885728775
 11
31.4263355657
 21
39.0885728775
  0
LINE
  5
32D
100
AcDbEntity
  8
0
100
AcDbLine
 62
7
  6
CONTINUOUS
 10
37.4263355657
 20
39.0885728775
 11
38.4263355657
 21
39.0885728775
  0
LINE
  5
32E
100
AcDbEntity
  8
0
100
AcDbLine
 62
7
  6
CONTINUOUS
 10
44.4263355657
 20
39.0885728775
 11
45.4263355657
 21
39.0885728775
  0
LINE
  5
32F
100
AcDbEntity
  8
0
100
AcDbLine
 62
7
  6
CONTINUOUS
 10
50.4263355657
 20
39.0885728775
 11
51.4263355657
 21
39.0885728775
  0
LINE
  5
330
100
AcDbEntity
  8
0
100
AcDbLine
 62
7
  6
CONTINUOUS
 10
65.8564940267
 20
39.2452346675
 11
65.6763355657
 21
39.2452346675
  0
LINE
  5
331
100
AcDbEntity
  8
0
100
AcDbLine
 62
7
  6
CONTINUOUS
 10
10.1763355657
 20
39.2452346675
 11
9.9961771047
 21
39.2452346675
  0
LINE
  5
332
100
AcDbEntity
  8
0
100
AcDbLine
 62
7
  6
CONTINUOUS
 10
9.9961771047
 20
39.2623902801
 11
10.1763355657
 21
39.2623902801
  0
LINE
  5
333
100
AcDbEntity
  8
0
100
AcDbLine
 62
7
  6
CONTINUOUS
 10
65.6763355657
 20
39.2795458927
 11
65.8564940267
 21
39.2795458927
  0
LINE
  5
334
100
AcDbEntity
  8
0
100
AcDbLine
 62
7
  6
CONTINUOUS
 10
58.8032888042
 20
39.3123902801
 11
17.0493823273
 21
39.3123902801
  0
LINE
  5
335
100
AcDbEntity
  8
0
100
AcDbLine
 62
7
  6
CONTINUOUS
 10
10.1637967983
 20
39.7623902801
 11
10.0136374894
 21
39.7623902801
  0
LINE
  5
336
100
AcDbEntity
  8
0
100
AcDbLine
 62
7
  6
CONTINUOUS
 10
65.8396430006
 20
39.7792413062
 11
65.6763355657
 21
39.7792413062
  0
LINE
  5
337
100
AcDbEntity
  8
0
100
AcDbLine
 62
7
  6
CONTINUOUS
 10
41.0115132611
 20
13.7084246141
 11
41.1781186155
 21
13.3671087878
  0
LINE
  5
338
100
AcDbEntity
  8
0
100
AcDbLine
 62
7
  6
CONTINUOUS
 10
24.4263355657
 20
39.0623902801
 11
24.4263355657
 21
39.0885728775
  0
LINE
  5
339
100
AcDbEntity
  8
0
100
AcDbLine
 62
7
  6
CONTINUOUS
 10
24.6263355657
 20
96.8552468174
 11
24.6263355657
 21
95.8546372731
  0
LINE
  5
33A
100
AcDbEntity
  8
0
100
AcDbLine
 62
7
  6
CONTINUOUS
 10
25.4263355657
 20
39.0885728775
 11
25.4263355657
 21
39.0623902801
  0
LINE
  5
33B
100
AcDbEntity
  8
0
100
AcDbLine
 62
7
  6
CONTINUOUS
 10
25.7263355657
 20
57.2123902801
 11
25.7263355657
 21
54.5123902801
  0
LINE
  5
33C
100
AcDbEntity
  8
0
100
AcDbLine
 62
7
  6
CONTINUOUS
 10
25.7263355657
 20
93.7207236135
 11
25.7263355657
 21
96.816833971
  0
LINE
  5
33D
100
AcDbEntity
  8
0
100
AcDbLine
 62
7
  6
CONTINUOUS
 10
26.7263355657
 20
46.5123902801
 11
26.7263355657
 21
43.1123902801
  0
LINE
  5
33E
100
AcDbEntity
  8
0
100
AcDbLine
 62
7
  6
CONTINUOUS
 10
27.3345355657
 20
14.4797502801
 11
27.3345355657
 21
20.3623902801
  0
LINE
  5
33F
100
AcDbEntity
  8
0
100
AcDbLine
 62
7
  6
CONTINUOUS
 10
10.1763355657
 20
42.2623902801
 11
10.4115234386
 21
42.497578153
  0
LINE
  5
340
100
AcDbEntity
  8
0
100
AcDbLine
 62
7
  6
CONTINUOUS
 10
65.6888743332
 20
81.8280010276
 11
65.9263355657
 21
81.9455223796
  0
LINE
  5
341
100
AcDbEntity
  8
0
100
AcDbLine
 62
7
  6
CONTINUOUS
 10
51.4263355657
 20
41.8123902801
 11
50.4263355657
 21
41.8123902801
  0
LINE
  5
342
100
AcDbEntity
  8
0
100
AcDbLine
 62
7
  6
CONTINUOUS
 10
45.4259355657
 20
41.8123902801
 11
44.4259355657
 21
41.8123902801
  0
LINE
  5
343
100
AcDbEntity
  8
0
100
AcDbLine
 62
7
  6
CONTINUOUS
 10
38.4263355657
 20
41.8123902801
 11
37.4263355657
 21
41.8123902801
  0
LINE
  5
344
100
AcDbEntity
  8
0
100
AcDbLine
 62
7
  6
CONTINUOUS
 10
31.4267355657
 20
41.8123902801
 11
30.4267355657
 21
41.8123902801
  0
LINE
  5
345
100
AcDbEntity
  8
0
100
AcDbLine
 62
7
  6
CONTINUOUS
 10
25.4263355657
 20
41.8123902801
 11
24.4263355657
 21
41.8123902801
  0
LINE
  5
346
100
AcDbEntity
  8
0
100
AcDbLine
 62
7
  6
CONTINUOUS
 10
9.9263355657
 20
42.2623902801
 11
10.1637967983
 21
42.2623902801
  0
LINE
  5
347
100
AcDbEntity
  8
0
100
AcDbLine
 62
7
  6
CONTINUOUS
 10
65.6888743332
 20
42.2623902801
 11
65.9263355657
 21
42.2623902801
  0
LINE
  5
348
100
AcDbEntity
  8
0
100
AcDbLine
 62
7
  6
CONTINUOUS
 10
10.5814164918
 20
43.0623902801
 11
10.7909411088
 21
43.0623902801
  0
LINE
  5
349
100
AcDbEntity
  8
0
100
AcDbLine
 62
7
  6
CONTINUOUS
 10
65.0617300227
 20
43.0623902801
 11
65.2712546396
 21
43.0623902801
  0
LINE
  5
34A
100
AcDbEntity
  8
0
100
AcDbLine
 62
7
  6
CONTINUOUS
 10
8.5263355657
 20
43.2623902801
 11
10.4441713528
 21
43.2623902801
  0
LINE
  5
34B
100
AcDbEntity
  8
0
100
AcDbLine
 62
7
  6
CONTINUOUS
 10
65.4084997786
 20
43.2623902801
 11
67.3263355657
 21
43.2623902801
  0
LINE
  5
34C
100
AcDbEntity
  8
0
100
AcDbLine
 62
7
  6
CONTINUOUS
 10
65.6888743332
 20
27.6967795327
 11
65.9263355657
 21
27.5792581807
  0
LINE
  5
34D
100
AcDbEntity
  8
0
100
AcDbLine
 62
7
  6
CONTINUOUS
 10
40.3430396605
 20
12.0899940448
 11
40.3439303265
 21
12.0874503306
  0
LINE
  5
34E
100
AcDbEntity
  8
0
100
AcDbLine
 62
7
  6
CONTINUOUS
 10
38.5940542245
 20
13.112826803
 11
38.6773145067
 21
12.8566512185
  0
LINE
  5
34F
100
AcDbEntity
  8
0
100
AcDbLine
 62
7
  6
CONTINUOUS
 10
34.9281183563
 20
13.3669107666
 11
35.0109139779
 21
13.0268101378
  0
LINE
  5
350
100
AcDbEntity
  8
0
100
AcDbLine
 62
7
  6
CONTINUOUS
 10
34.5084976986
 20
12.9407701337
 11
34.4245532829
 21
13.3665228613
  0
LINE
  5
351
100
AcDbEntity
  8
0
100
AcDbLine
 62
7
  6
CONTINUOUS
 10
32.6765717472
 20
13.7898912331
 11
32.6768416754
 21
13.7872208992
  0
LINE
  5
352
100
AcDbEntity
  8
0
100
AcDbLine
 62
7
  6
CONTINUOUS
 10
30.6763355657
 20
12.00499365
 11
30.6733420799
 21
14.2917902801
  0
LINE
  5
353
100
AcDbEntity
  8
0
100
AcDbLine
 62
7
  6
CONTINUOUS
 10
29.1263355657
 20
96.816833971
 11
29.1263355657
 21
93.7207236135
  0
LINE
  5
354
100
AcDbEntity
  8
0
100
AcDbLine
 62
7
  6
CONTINUOUS
 10
29.1263355657
 20
54.5123902801
 11
29.1263355657
 21
57.2123902801
  0
LINE
  5
355
100
AcDbEntity
  8
0
100
AcDbLine
 62
7
  6
CONTINUOUS
 10
29.1267355657
 20
43.1123902801
 11
29.1267355657
 21
46.5123902801
  0
LINE
  5
356
100
AcDbEntity
  8
0
100
AcDbLine
 62
7
  6
CONTINUOUS
 10
29.7094355657
 20
20.3623902801
 11
29.7094355657
 21
15.117192582
  0
LINE
  5
357
100
AcDbEntity
  8
0
100
AcDbLine
 62
7
  6
CONTINUOUS
 10
30.2263355657
 20
95.8546372731
 11
30.2263355657
 21
96.8552468174
  0
LINE
  5
358
100
AcDbEntity
  8
0
100
AcDbLine
 62
7
  6
CONTINUOUS
 10
30.4263355657
 20
39.0623902801
 11
30.4263355657
 21
39.0885728775
  0
LINE
  5
359
100
AcDbEntity
  8
0
100
AcDbLine
 62
7
  6
CONTINUOUS
 10
31.0263355657
 20
37.6076267996
 11
31.0263355657
 21
38.7844115632
  0
LINE
  5
35A
100
AcDbEntity
  8
0
100
AcDbLine
 62
7
  6
CONTINUOUS
 10
31.0315720852
 20
37.5623902801
 11
31.0315720852
 21
37.6023902801
  0
LINE
  5
35B
100
AcDbEntity
  8
0
100
AcDbLine
 62
7
  6
CONTINUOUS
 10
31.0612456956
 20
37.5623902801
 11
31.0612456956
 21
38.8193216931
  0
LINE
  5
35C
100
AcDbEntity
  8
0
100
AcDbLine
 62
7
  6
CONTINUOUS
 10
31.1786720505
 20
13.7898912331
 11
31.1763355657
 21
12.00499365
  0
LINE
  5
35D
100
AcDbEntity
  8
0
100
AcDbLine
 62
7
  6
CONTINUOUS
 10
27.8902478184
 20
13.2459525425
 11
27.9009046085
 21
17.316133183
  0
LINE
  5
35E
100
AcDbEntity
  8
0
100
AcDbLine
 62
7
  6
CONTINUOUS
 10
65.8396430006
 20
92.245539254
 11
65.6888743332
 21
92.0947705866
  0
LINE
  5
35F
100
AcDbEntity
  8
0
100
AcDbLine
 62
7
  6
CONTINUOUS
 10
65.6763355657
 20
92.015436145
 11
65.342172478
 21
91.6812730573
  0
LINE
  5
360
100
AcDbEntity
  8
0
100
AcDbLine
 62
7
  6
CONTINUOUS
 10
65.3061754091
 20
44.0623902801
 11
65.0268092532
 21
44.0623902801
  0
LINE
  5
361
100
AcDbEntity
  8
0
100
AcDbLine
 62
7
  6
CONTINUOUS
 10
10.8258618783
 20
44.0623902801
 11
10.5464957223
 21
44.0623902801
  0
LINE
  5
362
100
AcDbEntity
  8
0
100
AcDbLine
 62
7
  6
CONTINUOUS
 10
10.5464957223
 20
45.5623902801
 11
10.8258618783
 21
45.5623902801
  0
LINE
  5
363
100
AcDbEntity
  8
0
100
AcDbLine
 62
7
  6
CONTINUOUS
 10
65.0268092532
 20
45.5623902801
 11
65.3061754091
 21
45.5623902801
  0
LINE
  5
364
100
AcDbEntity
  8
0
100
AcDbLine
 62
7
  6
CONTINUOUS
 10
65.2712546396
 20
46.5623902801
 11
65.0617300227
 21
46.5623902801
  0
LINE
  5
365
100
AcDbEntity
  8
0
100
AcDbLine
 62
7
  6
CONTINUOUS
 10
10.7909411088
 20
46.5623902801
 11
10.5814164918
 21
46.5623902801
  0
LINE
  5
366
100
AcDbEntity
  8
0
100
AcDbLine
 62
7
  6
CONTINUOUS
 10
58.4263355657
 20
20.4697389294
 11
58.533684215
 21
20.3623902801
  0
LINE
  5
367
100
AcDbEntity
  8
0
100
AcDbLine
 62
7
  6
CONTINUOUS
 10
38.1753970743
 20
12.7705701449
 11
38.0911540742
 21
13.112826803
  0
LINE
  5
368
100
AcDbEntity
  8
0
100
AcDbLine
 62
7
  6
CONTINUOUS
 10
36.0930020734
 20
12.00499365
 11
36.0932720016
 21
12.0023233161
  0
LINE
  5
369
100
AcDbEntity
  8
0
100
AcDbLine
 62
7
  6
CONTINUOUS
 10
34.4245532829
 20
13.3665228613
 11
34.4233420799
 21
14.2917902801
  0
LINE
  5
36A
100
AcDbEntity
  8
0
100
AcDbLine
 62
7
  6
CONTINUOUS
 10
31.4263355657
 20
39.0885728775
 11
31.4263355657
 21
39.0623902801
  0
LINE
  5
36B
100
AcDbEntity
  8
0
100
AcDbLine
 62
7
  6
CONTINUOUS
 10
31.6263355657
 20
96.8552468174
 11
31.6263355657
 21
95.8546372731
  0
LINE
  5
36C
100
AcDbEntity
  8
0
100
AcDbLine
 62
7
  6
CONTINUOUS
 10
32.2494355657
 20
14.2917902801
 11
32.2494355657
 21
20.3623902801
  0
LINE
  5
36D
100
AcDbEntity
  8
0
100
AcDbLine
 62
7
  6
CONTINUOUS
 10
32.7263355657
 20
57.2123902801
 11
32.7263355657
 21
54.5123902801
  0
LINE
  5
36E
100
AcDbEntity
  8
0
100
AcDbLine
 62
7
  6
CONTINUOUS
 10
32.7263355657
 20
93.7207236135
 11
32.7263355657
 21
96.816833971
  0
LINE
  5
36F
100
AcDbEntity
  8
0
100
AcDbLine
 62
7
  6
CONTINUOUS
 10
32.7267355657
 20
46.5123902801
 11
32.7267355657
 21
43.1123902801
  0
LINE
  5
370
100
AcDbEntity
  8
0
100
AcDbLine
 62
7
  6
CONTINUOUS
 10
10.0130281308
 20
33.7792413062
 11
10.1637967983
 21
33.9300099737
  0
LINE
  5
371
100
AcDbEntity
  8
0
100
AcDbLine
 62
7
  6
CONTINUOUS
 10
65.8396430006
 20
86.245539254
 11
65.6888743332
 21
86.0947705866
  0
LINE
  5
372
100
AcDbEntity
  8
0
100
AcDbLine
 62
7
  6
CONTINUOUS
 10
24.4263355657
 20
47.8123902801
 11
25.4263355657
 21
47.8123902801
  0
LINE
  5
373
100
AcDbEntity
  8
0
100
AcDbLine
 62
7
  6
CONTINUOUS
 10
30.4267355657
 20
47.8123902801
 11
31.4267355657
 21
47.8123902801
  0
LINE
  5
374
100
AcDbEntity
  8
0
100
AcDbLine
 62
7
  6
CONTINUOUS
 10
37.4263355657
 20
47.8123902801
 11
38.4263355657
 21
47.8123902801
  0
LINE
  5
375
100
AcDbEntity
  8
0
100
AcDbLine
 62
7
  6
CONTINUOUS
 10
44.4259355657
 20
47.8123902801
 11
45.4259355657
 21
47.8123902801
  0
LINE
  5
376
100
AcDbEntity
  8
0
100
AcDbLine
 62
7
  6
CONTINUOUS
 10
50.4263355657
 20
47.8123902801
 11
51.4263355657
 21
47.8123902801
  0
LINE
  5
377
100
AcDbEntity
  8
0
100
AcDbLine
 62
7
  6
CONTINUOUS
 10
10.5814164918
 20
49.9623902801
 11
10.7909411088
 21
49.9623902801
  0
LINE
  5
378
100
AcDbEntity
  8
0
100
AcDbLine
 62
7
  6
CONTINUOUS
 10
65.0617300227
 20
49.9623902801
 11
65.2712546396
 21
49.9623902801
  0
LINE
  5
379
100
AcDbEntity
  8
0
100
AcDbLine
 62
7
  6
CONTINUOUS
 10
44.8263355657
 20
38.7844115632
 11
44.7914254359
 21
38.8193216931
  0
LINE
  5
37A
100
AcDbEntity
  8
0
100
AcDbLine
 62
7
  6
CONTINUOUS
 10
39.9263355657
 20
12.00499365
 11
39.9266054939
 21
12.0023233161
  0
LINE
  5
37B
100
AcDbEntity
  8
0
100
AcDbLine
 62
7
  6
CONTINUOUS
 10
36.9245527751
 20
13.3669107666
 11
36.9233420799
 21
14.2917902801
  0
LINE
  5
37C
100
AcDbEntity
  8
0
100
AcDbLine
 62
7
  6
CONTINUOUS
 10
36.1263355657
 20
96.816833971
 11
36.1263355657
 21
93.7207236135
  0
LINE
  5
37D
100
AcDbEntity
  8
0
100
AcDbLine
 62
7
  6
CONTINUOUS
 10
36.1263355657
 20
43.1123902801
 11
36.1263355657
 21
46.5123902801
  0
LINE
  5
37E
100
AcDbEntity
  8
0
100
AcDbLine
 62
7
  6
CONTINUOUS
 10
36.1263355657
 20
54.5123902801
 11
36.1263355657
 21
57.2123902801
  0
LINE
  5
37F
100
AcDbEntity
  8
0
100
AcDbLine
 62
7
  6
CONTINUOUS
 10
37.2263355657
 20
95.8546372731
 11
37.2263355657
 21
96.8552468174
  0
LINE
  5
380
100
AcDbEntity
  8
0
100
AcDbLine
 62
7
  6
CONTINUOUS
 10
37.4263355657
 20
39.0623902801
 11
37.4263355657
 21
39.0885728775
  0
LINE
  5
381
100
AcDbEntity
  8
0
100
AcDbLine
 62
7
  6
CONTINUOUS
 10
34.9293290515
 20
14.2917902801
 11
34.9281183563
 21
13.3669107666
  0
LINE
  5
382
100
AcDbEntity
  8
0
100
AcDbLine
 62
7
  6
CONTINUOUS
 10
37.4293290515
 20
14.2917902801
 11
37.4281178485
 21
13.3665228608
  0
LINE
  5
383
100
AcDbEntity
  8
0
100
AcDbLine
 62
7
  6
CONTINUOUS
 10
20.2548036392
 20
21.8997830117
 11
20.2826979034
 21
21.9604516056
  0
LINE
  5
384
100
AcDbEntity
  8
0
100
AcDbLine
 62
7
  6
CONTINUOUS
 10
18.7727309944
 20
38.8018666282
 11
18.7552759294
 21
38.7844115632
  0
LINE
  5
385
100
AcDbEntity
  8
0
100
AcDbLine
 62
7
  6
CONTINUOUS
 10
65.3061754091
 20
50.9623902801
 11
65.0268092532
 21
50.9623902801
  0
LINE
  5
386
100
AcDbEntity
  8
0
100
AcDbLine
 62
7
  6
CONTINUOUS
 10
10.8258618783
 20
50.9623902801
 11
10.5464957223
 21
50.9623902801
  0
LINE
  5
387
100
AcDbEntity
  8
0
100
AcDbLine
 62
7
  6
CONTINUOUS
 10
10.5464957223
 20
52.4623902801
 11
10.8258618783
 21
52.4623902801
  0
LINE
  5
388
100
AcDbEntity
  8
0
100
AcDbLine
 62
7
  6
CONTINUOUS
 10
65.0268092532
 20
52.4623902801
 11
65.3061754091
 21
52.4623902801
  0
LINE
  5
389
100
AcDbEntity
  8
0
100
AcDbLine
 62
7
  6
CONTINUOUS
 10
52.4263355657
 20
53.2123902801
 11
51.4263355657
 21
53.2123902801
  0
LINE
  5
38A
100
AcDbEntity
  8
0
100
AcDbLine
 62
7
  6
CONTINUOUS
 10
45.4263355657
 20
53.2123902801
 11
44.4263355657
 21
53.2123902801
  0
LINE
  5
38B
100
AcDbEntity
  8
0
100
AcDbLine
 62
7
  6
CONTINUOUS
 10
38.4263355657
 20
53.2123902801
 11
37.4263355657
 21
53.2123902801
  0
LINE
  5
38C
100
AcDbEntity
  8
0
100
AcDbLine
 62
7
  6
CONTINUOUS
 10
31.4263355657
 20
53.2123902801
 11
30.4263355657
 21
53.2123902801
  0
LINE
  5
38D
100
AcDbEntity
  8
0
100
AcDbLine
 62
7
  6
CONTINUOUS
 10
24.4263355657
 20
53.2123902801
 11
23.4263355657
 21
53.2123902801
  0
LINE
  5
38E
100
AcDbEntity
  8
0
100
AcDbLine
 62
7
  6
CONTINUOUS
 10
8.5263355657
 20
53.2623902801
 11
10.4441713528
 21
53.2623902801
  0
LINE
  5
38F
100
AcDbEntity
  8
0
100
AcDbLine
 62
7
  6
CONTINUOUS
 10
65.4084997786
 20
53.2623902801
 11
67.3263355657
 21
53.2623902801
  0
LINE
  5
390
100
AcDbEntity
  8
0
100
AcDbLine
 62
7
  6
CONTINUOUS
 10
65.2712546396
 20
53.4623902801
 11
65.0617300227
 21
53.4623902801
  0
LINE
  5
391
100
AcDbEntity
  8
0
100
AcDbLine
 62
7
  6
CONTINUOUS
 10
10.7909411088
 20
53.4623902801
 11
10.5814164918
 21
53.4623902801
  0
LINE
  5
392
100
AcDbEntity
  8
0
100
AcDbLine
 62
7
  6
CONTINUOUS
 10
40.674998163
 20
13.0266681228
 11
40.674665114
 21
13.2810923996
  0
LINE
  5
393
100
AcDbEntity
  8
0
100
AcDbLine
 62
7
  6
CONTINUOUS
 10
41.8430025503
 20
12.00499365
 11
41.8400090645
 21
14.2917902801
  0
LINE
  5
394
100
AcDbEntity
  8
0
100
AcDbLine
 62
7
  6
CONTINUOUS
 10
38.4263355657
 20
39.0885728775
 11
38.4263355657
 21
39.0623902801
  0
LINE
  5
395
100
AcDbEntity
  8
0
100
AcDbLine
 62
7
  6
CONTINUOUS
 10
38.6263355657
 20
96.8552468174
 11
38.6263355657
 21
95.8546372731
  0
LINE
  5
396
100
AcDbEntity
  8
0
100
AcDbLine
 62
7
  6
CONTINUOUS
 10
39.7263355657
 20
57.2123902801
 11
39.7263355657
 21
54.5123902801
  0
LINE
  5
397
100
AcDbEntity
  8
0
100
AcDbLine
 62
7
  6
CONTINUOUS
 10
39.7263355657
 20
46.5123902801
 11
39.7263355657
 21
43.1123902801
  0
LINE
  5
398
100
AcDbEntity
  8
0
100
AcDbLine
 62
7
  6
CONTINUOUS
 10
39.7263355657
 20
93.7207236135
 11
39.7263355657
 21
96.816833971
  0
LINE
  5
399
100
AcDbEntity
  8
0
100
AcDbLine
 62
7
  6
CONTINUOUS
 10
41.1781186155
 20
13.3671087878
 11
41.1775606693
 21
12.9408800683
  0
LINE
  5
39A
100
AcDbEntity
  8
0
100
AcDbLine
 62
7
  6
CONTINUOUS
 10
35.759669058
 20
12.00499365
 11
35.7593991299
 21
12.0023233161
  0
LINE
  5
39B
100
AcDbEntity
  8
0
100
AcDbLine
 62
7
  6
CONTINUOUS
 10
65.9263355657
 20
54.2623902801
 11
65.6888743332
 21
54.2623902801
  0
LINE
  5
39C
100
AcDbEntity
  8
0
100
AcDbLine
 62
7
  6
CONTINUOUS
 10
10.1637967983
 20
54.2623902801
 11
9.9263355657
 21
54.2623902801
  0
LINE
  5
39D
100
AcDbEntity
  8
0
100
AcDbLine
 62
7
  6
CONTINUOUS
 10
57.0799401371
 20
38.8018666282
 11
57.097395202
 21
38.7844115632
  0
LINE
  5
39E
100
AcDbEntity
  8
0
100
AcDbLine
 62
7
  6
CONTINUOUS
 10
55.5978674922
 20
21.8997830117
 11
55.5700084031
 21
21.9603751016
  0
LINE
  5
39F
100
AcDbEntity
  8
0
100
AcDbLine
 62
7
  6
CONTINUOUS
 10
44.6763355657
 20
12.00499365
 11
44.6738878198
 21
13.8748863448
  0
LINE
  5
3A0
100
AcDbEntity
  8
0
100
AcDbLine
 62
7
  6
CONTINUOUS
 10
43.1259355657
 20
43.1123902801
 11
43.1259355657
 21
46.5123902801
  0
LINE
  5
3A1
100
AcDbEntity
  8
0
100
AcDbLine
 62
7
  6
CONTINUOUS
 10
43.1263355657
 20
96.816833971
 11
43.1263355657
 21
93.7207236135
  0
LINE
  5
3A2
100
AcDbEntity
  8
0
100
AcDbLine
 62
7
  6
CONTINUOUS
 10
43.1263355657
 20
54.5123902801
 11
43.1263355657
 21
57.2123902801
  0
LINE
  5
3A3
100
AcDbEntity
  8
0
100
AcDbLine
 62
7
  6
CONTINUOUS
 10
43.6032355657
 20
20.3623902801
 11
43.6032355657
 21
14.2917902801
  0
LINE
  5
3A4
100
AcDbEntity
  8
0
100
AcDbLine
 62
7
  6
CONTINUOUS
 10
44.2263355657
 20
95.8546372731
 11
44.2263355657
 21
96.8552468174
  0
LINE
  5
3A5
100
AcDbEntity
  8
0
100
AcDbLine
 62
7
  6
CONTINUOUS
 10
44.4263355657
 20
39.0623902801
 11
44.4263355657
 21
39.0885728775
  0
LINE
  5
3A6
100
AcDbEntity
  8
0
100
AcDbLine
 62
7
  6
CONTINUOUS
 10
44.7914254359
 20
38.8193216931
 11
44.7914254359
 21
37.5623902801
  0
LINE
  5
3A7
100
AcDbEntity
  8
0
100
AcDbLine
 62
7
  6
CONTINUOUS
 10
44.8210990462
 20
37.5623902801
 11
44.8210990462
 21
37.6023902801
  0
LINE
  5
3A8
100
AcDbEntity
  8
0
100
AcDbLine
 62
7
  6
CONTINUOUS
 10
44.8263355657
 20
37.6076267996
 11
44.8263355657
 21
38.7844115632
  0
LINE
  5
3A9
100
AcDbEntity
  8
0
100
AcDbLine
 62
7
  6
CONTINUOUS
 10
45.4263355657
 20
39.0885728775
 11
45.4263355657
 21
39.0623902801
  0
LINE
  5
3AA
100
AcDbEntity
  8
0
100
AcDbLine
 62
7
  6
CONTINUOUS
 10
42.3454502962
 20
13.8748863448
 11
42.3430025503
 21
12.00499365
  0
LINE
  5
3AB
100
AcDbEntity
  8
0
100
AcDbLine
 62
7
  6
CONTINUOUS
 10
45.1793289187
 20
14.2916888197
 11
45.1763355657
 21
12.00499365
  0
LINE
  5
3AC
100
AcDbEntity
  8
0
100
AcDbLine
 62
7
  6
CONTINUOUS
 10
39.2596685812
 20
12.00499365
 11
39.2593986524
 21
12.0023233161
  0
LINE
  5
3AD
100
AcDbEntity
  8
0
100
AcDbLine
 62
7
  6
CONTINUOUS
 10
39.9260419995
 20
13.7898912331
 11
39.9257064871
 21
13.7872208992
  0
LINE
  5
3AE
100
AcDbEntity
  8
0
100
AcDbLine
 62
7
  6
CONTINUOUS
 10
37.4281178485
 20
13.3665228608
 11
37.3441731943
 21
12.9407701337
  0
LINE
  5
3AF
100
AcDbEntity
  8
0
100
AcDbLine
 62
7
  6
CONTINUOUS
 10
31.0263355657
 20
38.7844115632
 11
31.0612456956
 21
38.8193216931
  0
LINE
  5
3B0
100
AcDbEntity
  8
0
100
AcDbLine
 62
7
  6
CONTINUOUS
 10
23.4263355657
 20
58.5123902801
 11
24.4263355657
 21
58.5123902801
  0
LINE
  5
3B1
100
AcDbEntity
  8
0
100
AcDbLine
 62
7
  6
CONTINUOUS
 10
30.4263355657
 20
58.5123902801
 11
31.4263355657
 21
58.5123902801
  0
LINE
  5
3B2
100
AcDbEntity
  8
0
100
AcDbLine
 62
7
  6
CONTINUOUS
 10
37.4263355657
 20
58.5123902801
 11
38.4263355657
 21
58.5123902801
  0
LINE
  5
3B3
100
AcDbEntity
  8
0
100
AcDbLine
 62
7
  6
CONTINUOUS
 10
44.4263355657
 20
58.5123902801
 11
45.4263355657
 21
58.5123902801
  0
LINE
  5
3B4
100
AcDbEntity
  8
0
100
AcDbLine
 62
7
  6
CONTINUOUS
 10
51.4263355657
 20
58.5123902801
 11
52.4263355657
 21
58.5123902801
  0
LINE
  5
3B5
100
AcDbEntity
  8
0
100
AcDbLine
 62
7
  6
CONTINUOUS
 10
10.3683997979
 20
58.5623902801
 11
10.7909411088
 21
58.5623902801
  0
LINE
  5
3B6
100
AcDbEntity
  8
0
100
AcDbLine
 62
7
  6
CONTINUOUS
 10
65.0617300227
 20
58.5623902801
 11
65.4842713335
 21
58.5623902801
  0
LINE
  5
3B7
100
AcDbEntity
  8
0
100
AcDbLine
 62
7
  6
CONTINUOUS
 10
65.519192103
 20
59.5623902801
 11
65.0268092532
 21
59.5623902801
  0
LINE
  5
3B8
100
AcDbEntity
  8
0
100
AcDbLine
 62
7
  6
CONTINUOUS
 10
10.8258618783
 20
59.5623902801
 11
10.3334790284
 21
59.5623902801
  0
LINE
  5
3B9
100
AcDbEntity
  8
0
100
AcDbLine
 62
7
  6
CONTINUOUS
 10
56.6763355657
 20
59.8123902801
 11
19.1763355657
 21
59.8123902801
  0
LINE
  5
3BA
100
AcDbEntity
  8
0
100
AcDbLine
 62
7
  6
CONTINUOUS
 10
56.4263355657
 20
60.0623902801
 11
19.4263355657
 21
60.0623902801
  0
LINE
  5
3BB
100
AcDbEntity
  8
0
100
AcDbLine
 62
7
  6
CONTINUOUS
 10
10.3334790284
 20
61.1623902801
 11
10.8258618783
 21
61.1623902801
  0
LINE
  5
3BC
100
AcDbEntity
  8
0
100
AcDbLine
 62
7
  6
CONTINUOUS
 10
65.0268092532
 20
61.1623902801
 11
65.519192103
 21
61.1623902801
  0
LINE
  5
3BD
100
AcDbEntity
  8
0
100
AcDbLine
 62
7
  6
CONTINUOUS
 10
65.8396430006
 20
33.7792413062
 11
65.6888743332
 21
33.9300099737
  0
LINE
  5
3BE
100
AcDbEntity
  8
0
100
AcDbLine
 62
7
  6
CONTINUOUS
 10
10.5104986535
 20
91.6812730573
 11
10.1763355657
 21
92.015436145
  0
LINE
  5
3BF
100
AcDbEntity
  8
0
100
AcDbLine
 62
7
  6
CONTINUOUS
 10
10.0130281308
 20
92.245539254
 11
10.1637967983
 21
92.0947705866
  0
LINE
  5
3C0
100
AcDbEntity
  8
0
100
AcDbLine
 62
7
  6
CONTINUOUS
 10
47.951766523
 20
17.316133183
 11
47.9624233131
 21
13.2459525425
  0
LINE
  5
3C1
100
AcDbEntity
  8
0
100
AcDbLine
 62
7
  6
CONTINUOUS
 10
45.6263355657
 20
96.8552468174
 11
45.6263355657
 21
95.8546372731
  0
LINE
  5
3C2
100
AcDbEntity
  8
0
100
AcDbLine
 62
7
  6
CONTINUOUS
 10
46.1432355657
 20
15.117192582
 11
46.1432355657
 21
20.3623902801
  0
LINE
  5
3C3
100
AcDbEntity
  8
0
100
AcDbLine
 62
7
  6
CONTINUOUS
 10
46.7259355657
 20
46.5123902801
 11
46.7259355657
 21
43.1123902801
  0
LINE
  5
3C4
100
AcDbEntity
  8
0
100
AcDbLine
 62
7
  6
CONTINUOUS
 10
46.7263355657
 20
57.2123902801
 11
46.7263355657
 21
54.5123902801
  0
LINE
  5
3C5
100
AcDbEntity
  8
0
100
AcDbLine
 62
7
  6
CONTINUOUS
 10
46.7263355657
 20
93.7207236135
 11
46.7263355657
 21
96.816833971
  0
LINE
  5
3C6
100
AcDbEntity
  8
0
100
AcDbLine
 62
7
  6
CONTINUOUS
 10
48.5181355657
 20
14.4797502801
 11
48.5181355657
 21
20.3623902801
  0
LINE
  5
3C7
100
AcDbEntity
  8
0
100
AcDbLine
 62
7
  6
CONTINUOUS
 10
36.8417571535
 20
13.0268101378
 11
36.9245527751
 21
13.3669107666
  0
LINE
  5
3C8
100
AcDbEntity
  8
0
100
AcDbLine
 62
7
  6
CONTINUOUS
 10
17.3189869164
 20
20.3623902801
 11
17.4263355657
 21
20.4697389294
  0
LINE
  5
3C9
100
AcDbEntity
  8
0
100
AcDbLine
 62
7
  6
CONTINUOUS
 10
9.9263355657
 20
27.5792581807
 11
10.1637967983
 21
27.6967795327
  0
LINE
  5
3CA
100
AcDbEntity
  8
0
100
AcDbLine
 62
7
  6
CONTINUOUS
 10
65.4842713335
 20
62.1623902801
 11
65.0617300227
 21
62.1623902801
  0
LINE
  5
3CB
100
AcDbEntity
  8
0
100
AcDbLine
 62
7
  6
CONTINUOUS
 10
10.7909411088
 20
62.1623902801
 11
10.3683997979
 21
62.1623902801
  0
LINE
  5
3CC
100
AcDbEntity
  8
0
100
AcDbLine
 62
7
  6
CONTINUOUS
 10
65.8396430006
 20
39.7792413062
 11
65.6888743332
 21
39.9300099737
  0
LINE
  5
3CD
100
AcDbEntity
  8
0
100
AcDbLine
 62
7
  6
CONTINUOUS
 10
49.1263355657
 20
43.1123902801
 11
49.1263355657
 21
46.5123902801
  0
LINE
  5
3CE
100
AcDbEntity
  8
0
100
AcDbLine
 62
7
  6
CONTINUOUS
 10
50.1263355657
 20
96.816833971
 11
50.1263355657
 21
93.7207236135
  0
LINE
  5
3CF
100
AcDbEntity
  8
0
100
AcDbLine
 62
7
  6
CONTINUOUS
 10
50.1263355657
 20
54.5123902801
 11
50.1263355657
 21
57.2123902801
  0
LINE
  5
3D0
100
AcDbEntity
  8
0
100
AcDbLine
 62
7
  6
CONTINUOUS
 10
50.4263355657
 20
39.0623902801
 11
50.4263355657
 21
39.0885728775
  0
LINE
  5
3D1
100
AcDbEntity
  8
0
100
AcDbLine
 62
7
  6
CONTINUOUS
 10
51.2263355657
 20
95.8546372731
 11
51.2263355657
 21
96.8552468174
  0
LINE
  5
3D2
100
AcDbEntity
  8
0
100
AcDbLine
 62
7
  6
CONTINUOUS
 10
51.4263355657
 20
39.0885728775
 11
51.4263355657
 21
39.0623902801
  0
LINE
  5
3D3
100
AcDbEntity
  8
0
100
AcDbLine
 62
7
  6
CONTINUOUS
 10
51.8709355657
 20
20.8623902801
 11
51.8709355657
 21
20.3623902801
  0
LINE
  5
3D4
100
AcDbEntity
  8
0
100
AcDbLine
 62
7
  6
CONTINUOUS
 10
52.3281355657
 20
14.4797502801
 11
52.3281355657
 21
20.3623902801
  0
LINE
  5
3D5
100
AcDbEntity
  8
0
100
AcDbLine
 62
7
  6
CONTINUOUS
 10
35.3429649633
 20
12.0899940448
 11
35.3420742972
 21
12.0874503306
  0
LINE
  5
3D6
100
AcDbEntity
  8
0
100
AcDbLine
 62
7
  6
CONTINUOUS
 10
10.3683997979
 20
65.1623902801
 11
10.7909411088
 21
65.1623902801
  0
LINE
  5
3D7
100
AcDbEntity
  8
0
100
AcDbLine
 62
7
  6
CONTINUOUS
 10
65.0617300227
 20
65.1623902801
 11
65.4842713335
 21
65.1623902801
  0
LINE
  5
3D8
100
AcDbEntity
  8
0
100
AcDbLine
 62
7
  6
CONTINUOUS
 10
65.519192103
 20
66.1623902801
 11
65.0268092532
 21
66.1623902801
  0
LINE
  5
3D9
100
AcDbEntity
  8
0
100
AcDbLine
 62
7
  6
CONTINUOUS
 10
10.8258618783
 20
66.1623902801
 11
10.3334790284
 21
66.1623902801
  0
LINE
  5
3DA
100
AcDbEntity
  8
0
100
AcDbLine
 62
7
  6
CONTINUOUS
 10
10.3334790284
 20
67.7623902801
 11
10.8258618783
 21
67.7623902801
  0
LINE
  5
3DB
100
AcDbEntity
  8
0
100
AcDbLine
 62
7
  6
CONTINUOUS
 10
65.0268092532
 20
67.7623902801
 11
65.519192103
 21
67.7623902801
  0
LINE
  5
3DC
100
AcDbEntity
  8
0
100
AcDbLine
 62
7
  6
CONTINUOUS
 10
9.9263355657
 20
81.9455223796
 11
10.1637967983
 21
81.8280010276
  0
LINE
  5
3DD
100
AcDbEntity
  8
0
100
AcDbLine
 62
7
  6
CONTINUOUS
 10
65.4411476928
 20
42.497578153
 11
65.6763355657
 21
42.2623902801
  0
LINE
  5
3DE
100
AcDbEntity
  8
0
100
AcDbLine
 62
7
  6
CONTINUOUS
 10
15.1732897008
 20
97.0123902801
 11
15.3458222232
 21
96.8398577577
  0
LINE
  5
3DF
100
AcDbEntity
  8
0
100
AcDbLine
 62
7
  6
CONTINUOUS
 10
55.5525181631
 20
24.1572601162
 11
55.5394268644
 21
24.3088558609
  0
LINE
  5
3E0
100
AcDbEntity
  8
0
100
AcDbLine
 62
7
  6
CONTINUOUS
 10
56.913244267
 20
24.3088558609
 11
56.9001529683
 21
24.4604516056
  0
LINE
  5
3E1
100
AcDbEntity
  8
0
100
AcDbLine
 62
7
  6
CONTINUOUS
 10
54.6826979034
 20
20.3623902801
 11
54.6739703709
 21
20.8623902801
  0
LINE
  5
3E2
100
AcDbEntity
  8
0
100
AcDbLine
 62
7
  6
CONTINUOUS
 10
55.5263355657
 20
22.3623902801
 11
55.5612456956
 21
20.3623902801
  0
LINE
  5
3E3
100
AcDbEntity
  8
0
100
AcDbLine
 62
7
  6
CONTINUOUS
 10
55.5700084031
 20
21.9603751016
 11
55.5542467498
 21
22.8633596174
  0
LINE
  5
3E4
100
AcDbEntity
  8
0
100
AcDbLine
 62
7
  6
CONTINUOUS
 10
52.6263355657
 20
96.8552468174
 11
52.6263355657
 21
95.8546372731
  0
LINE
  5
3E5
100
AcDbEntity
  8
0
100
AcDbLine
 62
7
  6
CONTINUOUS
 10
52.7263355657
 20
46.5123902801
 11
52.7263355657
 21
43.1123902801
  0
LINE
  5
3E6
100
AcDbEntity
  8
0
100
AcDbLine
 62
7
  6
CONTINUOUS
 10
52.9263355657
 20
37.0623902801
 11
52.9263355657
 21
27.6857236135
  0
LINE
  5
3E7
100
AcDbEntity
  8
0
100
AcDbLine
 62
7
  6
CONTINUOUS
 10
53.1815720852
 20
37.6076267996
 11
53.1815720852
 21
22.3623902801
  0
LINE
  5
3E8
100
AcDbEntity
  8
0
100
AcDbLine
 62
7
  6
CONTINUOUS
 10
53.4457355657
 20
20.3623902801
 11
53.4457355657
 21
20.8623902801
  0
LINE
  5
3E9
100
AcDbEntity
  8
0
100
AcDbLine
 62
7
  6
CONTINUOUS
 10
53.7263355657
 20
57.2123902801
 11
53.7263355657
 21
54.5123902801
  0
LINE
  5
3EA
100
AcDbEntity
  8
0
100
AcDbLine
 62
7
  6
CONTINUOUS
 10
53.7263355657
 20
93.7207236135
 11
53.7263355657
 21
96.816833971
  0
LINE
  5
3EB
100
AcDbEntity
  8
0
100
AcDbLine
 62
7
  6
CONTINUOUS
 10
55.3552759294
 20
35.0050013776
 11
55.3552759294
 21
38.7844115632
  0
LINE
  5
3EC
100
AcDbEntity
  8
0
100
AcDbLine
 62
7
  6
CONTINUOUS
 10
55.3727309944
 20
38.8018666282
 11
55.3727309944
 21
35.0924900411
  0
LINE
  5
3ED
100
AcDbEntity
  8
0
100
AcDbLine
 62
7
  6
CONTINUOUS
 10
55.5263355657
 20
24.4604516056
 11
55.5263355657
 21
22.3623902801
  0
LINE
  5
3EE
100
AcDbEntity
  8
0
100
AcDbLine
 62
7
  6
CONTINUOUS
 10
55.5525181631
 20
24.1572601162
 11
55.5525181631
 21
23.1792145309
  0
LINE
  5
3EF
100
AcDbEntity
  8
0
100
AcDbLine
 62
7
  6
CONTINUOUS
 10
55.5978674922
 20
21.8997830117
 11
55.5978674922
 21
20.3623902801
  0
LINE
  5
3F0
100
AcDbEntity
  8
0
100
AcDbLine
 62
7
  6
CONTINUOUS
 10
55.6963355657
 20
20.3623902801
 11
55.6963355657
 21
21.9609362742
  0
LINE
  5
3F1
100
AcDbEntity
  8
0
100
AcDbLine
 62
7
  6
CONTINUOUS
 10
55.6963355657
 20
22.8623902801
 11
55.6963355657
 21
24.4604516056
  0
LINE
  5
3F2
100
AcDbEntity
  8
0
100
AcDbLine
 62
7
  6
CONTINUOUS
 10
39.0921324396
 20
13.8750297848
 11
39.0911832046
 21
13.8725159347
  0
LINE
  5
3F3
100
AcDbEntity
  8
0
100
AcDbLine
 62
7
  6
CONTINUOUS
 10
37.3441731943
 20
12.9407701337
 11
37.1769802167
 21
12.6002828727
  0
LINE
  5
3F4
100
AcDbEntity
  8
0
100
AcDbLine
 62
7
  6
CONTINUOUS
 10
65.4842713335
 20
68.7623902801
 11
65.0617300227
 21
68.7623902801
  0
LINE
  5
3F5
100
AcDbEntity
  8
0
100
AcDbLine
 62
7
  6
CONTINUOUS
 10
10.7909411088
 20
68.7623902801
 11
10.3683997979
 21
68.7623902801
  0
LINE
  5
3F6
100
AcDbEntity
  8
0
100
AcDbLine
 62
7
  6
CONTINUOUS
 10
10.3683997979
 20
71.7623902801
 11
10.7909411088
 21
71.7623902801
  0
LINE
  5
3F7
100
AcDbEntity
  8
0
100
AcDbLine
 62
7
  6
CONTINUOUS
 10
65.0617300227
 20
71.7623902801
 11
65.4842713335
 21
71.7623902801
  0
LINE
  5
3F8
100
AcDbEntity
  8
0
100
AcDbLine
 62
7
  6
CONTINUOUS
 10
57.0799401371
 20
35.0924900411
 11
57.097395202
 21
35.0050013776
  0
LINE
  5
3F9
100
AcDbEntity
  8
0
100
AcDbLine
 62
7
  6
CONTINUOUS
 10
56.8929111137
 20
23.1792145309
 11
56.8984413015
 21
22.8623902801
  0
LINE
  5
3FA
100
AcDbEntity
  8
0
100
AcDbLine
 62
7
  6
CONTINUOUS
 10
56.6963355657
 20
20.3623902801
 11
56.6963355657
 21
21.9609362742
  0
LINE
  5
3FB
100
AcDbEntity
  8
0
100
AcDbLine
 62
7
  6
CONTINUOUS
 10
56.6963355657
 20
22.8623902801
 11
56.6963355657
 21
24.4604516056
  0
LINE
  5
3FC
100
AcDbEntity
  8
0
100
AcDbLine
 62
7
  6
CONTINUOUS
 10
56.8548036392
 20
20.3623902801
 11
56.8548036392
 21
21.8997830117
  0
LINE
  5
3FD
100
AcDbEntity
  8
0
100
AcDbLine
 62
7
  6
CONTINUOUS
 10
56.8826979034
 20
21.9604516056
 11
56.8826979034
 21
20.3623902801
  0
LINE
  5
3FE
100
AcDbEntity
  8
0
100
AcDbLine
 62
7
  6
CONTINUOUS
 10
56.9001529683
 20
23.1792145309
 11
56.9001529683
 21
24.1572601162
  0
LINE
  5
3FF
100
AcDbEntity
  8
0
100
AcDbLine
 62
7
  6
CONTINUOUS
 10
56.9263355657
 20
22.8902845443
 11
56.9263355657
 21
24.4604516056
  0
LINE
  5
400
100
AcDbEntity
  8
0
100
AcDbLine
 62
7
  6
CONTINUOUS
 10
57.0799401371
 20
35.0924900411
 11
57.0799401371
 21
38.8018666282
  0
LINE
  5
401
100
AcDbEntity
  8
0
100
AcDbLine
 62
7
  6
CONTINUOUS
 10
57.097395202
 20
35.0050013776
 11
57.097395202
 21
38.7844115632
  0
LINE
  5
402
100
AcDbEntity
  8
0
100
AcDbLine
 62
7
  6
CONTINUOUS
 10
57.1263355657
 20
96.816833971
 11
57.1263355657
 21
93.7207236135
  0
LINE
  5
403
100
AcDbEntity
  8
0
100
AcDbLine
 62
7
  6
CONTINUOUS
 10
57.9263355657
 20
88.5623902801
 11
57.9263355657
 21
61.5623902801
  0
LINE
  5
404
100
AcDbEntity
  8
0
100
AcDbLine
 62
7
  6
CONTINUOUS
 10
58.1763355657
 20
61.3123902801
 11
58.1763355657
 21
88.8123902801
  0
LINE
  5
405
100
AcDbEntity
  8
0
100
AcDbLine
 62
7
  6
CONTINUOUS
 10
58.2263355657
 20
95.8546372731
 11
58.2263355657
 21
96.8552468174
  0
LINE
  5
406
100
AcDbEntity
  8
0
100
AcDbLine
 62
7
  6
CONTINUOUS
 10
58.4263355657
 20
20.3623902801
 11
58.4263355657
 21
39.3123902801
  0
LINE
  5
407
100
AcDbEntity
  8
0
100
AcDbLine
 62
7
  6
CONTINUOUS
 10
58.5467755137
 20
20.3754815788
 11
58.5467755137
 21
21.3623902801
  0
LINE
  5
408
100
AcDbEntity
  8
0
100
AcDbLine
 62
7
  6
CONTINUOUS
 10
58.5555030462
 20
21.3623902801
 11
58.5555030462
 21
39.2954028764
  0
LINE
  5
409
100
AcDbEntity
  8
0
100
AcDbLine
 62
7
  6
CONTINUOUS
 10
58.9263355657
 20
38.8123902801
 11
58.9263355657
 21
20.5123902801
  0
LINE
  5
40A
100
AcDbEntity
  8
0
100
AcDbLine
 62
7
  6
CONTINUOUS
 10
59.3033649682
 20
38.8123902801
 11
59.3033649682
 21
22.5123902801
  0
LINE
  5
40B
100
AcDbEntity
  8
0
100
AcDbLine
 62
7
  6
CONTINUOUS
 10
55.5542467498
 20
22.8633596174
 11
55.5597600178
 21
23.1792145309
  0
LINE
  5
40C
100
AcDbEntity
  8
0
100
AcDbLine
 62
7
  6
CONTINUOUS
 10
60.0076442525
 20
92.2688005365
 11
60.0945707158
 21
93.305987284
  0
LINE
  5
40D
100
AcDbEntity
  8
0
100
AcDbLine
 62
7
  6
CONTINUOUS
 10
55.5525181631
 20
24.4604516056
 11
55.5394268644
 21
24.3088558609
  0
LINE
  5
40E
100
AcDbEntity
  8
0
100
AcDbLine
 62
7
  6
CONTINUOUS
 10
56.913244267
 20
24.3088558609
 11
56.9001529683
 21
24.1572601162
  0
LINE
  5
40F
100
AcDbEntity
  8
0
100
AcDbLine
 62
7
  6
CONTINUOUS
 10
40.2587392655
 20
13.7050617859
 11
40.2576240594
 21
13.7025902544
  0
LINE
  5
410
100
AcDbEntity
  8
0
100
AcDbLine
 62
7
  6
CONTINUOUS
 10
41.1775606693
 20
12.9408800683
 11
41.0103132319
 21
12.6002828727
  0
LINE
  5
411
100
AcDbEntity
  8
0
100
AcDbLine
 62
7
  6
CONTINUOUS
 10
36.6756048678
 20
12.7716677589
 11
36.8417571535
 21
13.0268101378
  0
LINE
  5
412
100
AcDbEntity
  8
0
100
AcDbLine
 62
7
  6
CONTINUOUS
 10
33.5351261725
 20
14.2757716815
 11
33.4283431077
 21
14.1306858351
  0
LINE
  5
413
100
AcDbEntity
  8
0
100
AcDbLine
 62
7
  6
CONTINUOUS
 10
65.4411476928
 20
54.0272024072
 11
65.6763355657
 21
54.2623902801
  0
LINE
  5
414
100
AcDbEntity
  8
0
100
AcDbLine
 62
7
  6
CONTINUOUS
 10
65.519192103
 20
72.7623902801
 11
65.0268092532
 21
72.7623902801
  0
LINE
  5
415
100
AcDbEntity
  8
0
100
AcDbLine
 62
7
  6
CONTINUOUS
 10
10.8258618783
 20
72.7623902801
 11
10.3334790284
 21
72.7623902801
  0
LINE
  5
416
100
AcDbEntity
  8
0
100
AcDbLine
 62
7
  6
CONTINUOUS
 10
10.3334790284
 20
74.3623902801
 11
10.8258618783
 21
74.3623902801
  0
LINE
  5
417
100
AcDbEntity
  8
0
100
AcDbLine
 62
7
  6
CONTINUOUS
 10
65.0268092532
 20
74.3623902801
 11
65.519192103
 21
74.3623902801
  0
LINE
  5
418
100
AcDbEntity
  8
0
100
AcDbLine
 62
7
  6
CONTINUOUS
 10
59.6263355657
 20
96.8552468174
 11
59.6263355657
 21
95.8546372731
  0
LINE
  5
419
100
AcDbEntity
  8
0
100
AcDbLine
 62
7
  6
CONTINUOUS
 10
60.0076442528
 20
92.2688005365
 11
60.0076442528
 21
91.3457236135
  0
LINE
  5
41A
100
AcDbEntity
  8
0
100
AcDbLine
 62
7
  6
CONTINUOUS
 10
60.6763355657
 20
21.2216036384
 11
60.6763355657
 21
20.5123902801
  0
LINE
  5
41B
100
AcDbEntity
  8
0
100
AcDbLine
 62
7
  6
CONTINUOUS
 10
60.7263355657
 20
93.6819510521
 11
60.7263355657
 21
96.8109526092
  0
LINE
  5
41C
100
AcDbEntity
  8
0
100
AcDbLine
 62
7
  6
CONTINUOUS
 10
60.9263355657
 20
97.2623902801
 11
60.9263355657
 21
97.0249290476
  0
LINE
  5
41D
100
AcDbEntity
  8
0
100
AcDbLine
 62
7
  6
CONTINUOUS
 10
60.9263355657
 20
20.4998515127
 11
60.9263355657
 21
20.2623902801
  0
LINE
  5
41E
100
AcDbEntity
  8
0
100
AcDbLine
 62
7
  6
CONTINUOUS
 10
59.2808342035
 20
21.2216036384
 11
59.3033649682
 21
22.5123902801
  0
LINE
  5
41F
100
AcDbEntity
  8
0
100
AcDbLine
 62
7
  6
CONTINUOUS
 10
65.342172478
 20
91.6812730573
 11
64.9557489969
 21
87.0705561073
  0
LINE
  5
420
100
AcDbEntity
  8
0
100
AcDbLine
 62
7
  6
CONTINUOUS
 10
40.5089378838
 20
12.7716677593
 11
40.674998163
 21
13.0266681228
  0
LINE
  5
421
100
AcDbEntity
  8
0
100
AcDbLine
 62
7
  6
CONTINUOUS
 10
35.0094686596
 20
12.2600402566
 11
35.0078654326
 21
12.2578598697
  0
LINE
  5
422
100
AcDbEntity
  8
0
100
AcDbLine
 62
7
  6
CONTINUOUS
 10
55.3727309944
 20
38.8018666282
 11
55.3552759294
 21
38.7844115632
  0
LINE
  5
423
100
AcDbEntity
  8
0
100
AcDbLine
 62
7
  6
CONTINUOUS
 10
30.6763355657
 20
12.00499365
 11
30.6736652318
 21
12.0023233161
  0
LINE
  5
424
100
AcDbEntity
  8
0
100
AcDbLine
 62
7
  6
CONTINUOUS
 10
65.4842713335
 20
75.3623902801
 11
65.0617300227
 21
75.3623902801
  0
LINE
  5
425
100
AcDbEntity
  8
0
100
AcDbLine
 62
7
  6
CONTINUOUS
 10
10.7909411088
 20
75.3623902801
 11
10.3683997979
 21
75.3623902801
  0
LINE
  5
426
100
AcDbEntity
  8
0
100
AcDbLine
 62
7
  6
CONTINUOUS
 10
10.2985582589
 20
77.8623902801
 11
10.3509394132
 21
77.8623902801
  0
LINE
  5
427
100
AcDbEntity
  8
0
100
AcDbLine
 62
7
  6
CONTINUOUS
 10
65.5017317183
 20
77.8623902801
 11
65.5541128725
 21
77.8623902801
  0
LINE
  5
428
100
AcDbEntity
  8
0
100
AcDbLine
 62
7
  6
CONTINUOUS
 10
65.5715732572
 20
78.3623902801
 11
65.4842713335
 21
78.3623902801
  0
LINE
  5
429
100
AcDbEntity
  8
0
100
AcDbLine
 62
7
  6
CONTINUOUS
 10
10.3683997979
 20
78.3623902801
 11
10.2810978742
 21
78.3623902801
  0
LINE
  5
42A
100
AcDbEntity
  8
0
100
AcDbLine
 62
7
  6
CONTINUOUS
 10
10.4941145681
 20
78.3623902801
 11
10.7909411088
 21
78.3623902801
  0
LINE
  5
42B
100
AcDbEntity
  8
0
100
AcDbLine
 62
7
  6
CONTINUOUS
 10
65.0617300227
 20
78.3623902801
 11
65.3585565634
 21
78.3623902801
  0
LINE
  5
42C
100
AcDbEntity
  8
0
100
AcDbLine
 62
7
  6
CONTINUOUS
 10
63.9563581699
 20
87.070556108
 11
63.9563581699
 21
25.5123902801
  0
LINE
  5
42D
100
AcDbEntity
  8
0
100
AcDbLine
 62
7
  6
CONTINUOUS
 10
64.9557489969
 20
25.5123902809
 11
64.9557489969
 21
87.0705561073
  0
LINE
  5
42E
100
AcDbEntity
  8
0
100
AcDbLine
 62
7
  6
CONTINUOUS
 10
65.0268092532
 20
80.9623902801
 11
65.0268092532
 21
79.3623902801
  0
LINE
  5
42F
100
AcDbEntity
  8
0
100
AcDbLine
 62
7
  6
CONTINUOUS
 10
65.0268092532
 20
74.3623902801
 11
65.0268092532
 21
72.7623902801
  0
LINE
  5
430
100
AcDbEntity
  8
0
100
AcDbLine
 62
7
  6
CONTINUOUS
 10
65.0268092532
 20
67.7623902801
 11
65.0268092532
 21
66.1623902801
  0
LINE
  5
431
100
AcDbEntity
  8
0
100
AcDbLine
 62
7
  6
CONTINUOUS
 10
65.0268092532
 20
61.1623902801
 11
65.0268092532
 21
59.5623902801
  0
LINE
  5
432
100
AcDbEntity
  8
0
100
AcDbLine
 62
7
  6
CONTINUOUS
 10
65.0268092532
 20
52.4623902801
 11
65.0268092532
 21
50.9623902801
  0
LINE
  5
433
100
AcDbEntity
  8
0
100
AcDbLine
 62
7
  6
CONTINUOUS
 10
65.0268092532
 20
45.5623902801
 11
65.0268092532
 21
44.0623902801
  0
LINE
  5
434
100
AcDbEntity
  8
0
100
AcDbLine
 62
7
  6
CONTINUOUS
 10
65.0268092532
 20
36.5623902801
 11
65.0268092532
 21
34.9623902801
  0
LINE
  5
435
100
AcDbEntity
  8
0
100
AcDbLine
 62
7
  6
CONTINUOUS
 10
65.0268092532
 20
29.9623902801
 11
65.0268092532
 21
28.3623902801
  0
LINE
  5
436
100
AcDbEntity
  8
0
100
AcDbLine
 62
7
  6
CONTINUOUS
 10
65.234238624
 20
87.5623902801
 11
65.234238624
 21
85.9623902801
  0
LINE
  5
437
100
AcDbEntity
  8
0
100
AcDbLine
 62
7
  6
CONTINUOUS
 10
65.3061754091
 20
44.0623902801
 11
65.3061754091
 21
45.5623902801
  0
LINE
  5
438
100
AcDbEntity
  8
0
100
AcDbLine
 62
7
  6
CONTINUOUS
 10
65.3061754091
 20
50.9623902801
 11
65.3061754091
 21
52.4623902801
  0
LINE
  5
439
100
AcDbEntity
  8
0
100
AcDbLine
 62
7
  6
CONTINUOUS
 10
65.3934773328
 20
28.3623902801
 11
65.3934773328
 21
29.9623902801
  0
LINE
  5
43A
100
AcDbEntity
  8
0
100
AcDbLine
 62
7
  6
CONTINUOUS
 10
65.3934773328
 20
79.3623902801
 11
65.3934773328
 21
80.9623902801
  0
LINE
  5
43B
100
AcDbEntity
  8
0
100
AcDbLine
 62
7
  6
CONTINUOUS
 10
65.4074456406
 20
53.0278115802
 11
65.4074456406
 21
43.49696898
  0
LINE
  5
43C
100
AcDbEntity
  8
0
100
AcDbLine
 62
7
  6
CONTINUOUS
 10
65.4199844081
 20
43.6623902801
 11
65.4199844081
 21
52.8623902801
  0
LINE
  5
43D
100
AcDbEntity
  8
0
100
AcDbLine
 62
7
  6
CONTINUOUS
 10
65.4842713335
 20
27.2623902801
 11
65.4842713335
 21
31.2623902801
  0
LINE
  5
43E
100
AcDbEntity
  8
0
100
AcDbLine
 62
7
  6
CONTINUOUS
 10
65.4842713335
 20
78.3623902801
 11
65.4842713335
 21
82.1623902801
  0
LINE
  5
43F
100
AcDbEntity
  8
0
100
AcDbLine
 62
7
  6
CONTINUOUS
 10
65.519192103
 20
34.9623902801
 11
65.519192103
 21
36.5623902801
  0
LINE
  5
440
100
AcDbEntity
  8
0
100
AcDbLine
 62
7
  6
CONTINUOUS
 10
65.519192103
 20
59.5623902801
 11
65.519192103
 21
61.1623902801
  0
LINE
  5
441
100
AcDbEntity
  8
0
100
AcDbLine
 62
7
  6
CONTINUOUS
 10
65.519192103
 20
66.1623902801
 11
65.519192103
 21
67.7623902801
  0
LINE
  5
442
100
AcDbEntity
  8
0
100
AcDbLine
 62
7
  6
CONTINUOUS
 10
65.519192103
 20
72.7623902801
 11
65.519192103
 21
74.3623902801
  0
LINE
  5
443
100
AcDbEntity
  8
0
100
AcDbLine
 62
7
  6
CONTINUOUS
 10
65.519192103
 20
85.9623902801
 11
65.519192103
 21
87.5623902801
  0
LINE
  5
444
100
AcDbEntity
  8
0
100
AcDbLine
 62
7
  6
CONTINUOUS
 10
65.5715732572
 20
27.2623902801
 11
65.5715732572
 21
31.2623902801
  0
LINE
  5
445
100
AcDbEntity
  8
0
100
AcDbLine
 62
7
  6
CONTINUOUS
 10
65.5715732572
 20
78.3623902801
 11
65.5715732572
 21
82.1623902801
  0
LINE
  5
446
100
AcDbEntity
  8
0
100
AcDbLine
 62
7
  6
CONTINUOUS
 10
65.6763355657
 20
25.5123902801
 11
65.6763355657
 21
42.2623902801
  0
LINE
  5
447
100
AcDbEntity
  8
0
100
AcDbLine
 62
7
  6
CONTINUOUS
 10
65.6763355657
 20
54.2623902801
 11
65.6763355657
 21
92.015436145
  0
LINE
  5
448
100
AcDbEntity
  8
0
100
AcDbLine
 62
7
  6
CONTINUOUS
 10
65.6888743332
 20
25.2623902802
 11
65.6888743332
 21
27.6967795327
  0
LINE
  5
449
100
AcDbEntity
  8
0
100
AcDbLine
 62
7
  6
CONTINUOUS
 10
65.6888743332
 20
30.8280010276
 11
65.6888743332
 21
32.5947705866
  0
LINE
  5
44A
100
AcDbEntity
  8
0
100
AcDbLine
 62
7
  6
CONTINUOUS
 10
65.6888743332
 20
33.9300099737
 11
65.6888743332
 21
38.5947705866
  0
LINE
  5
44B
100
AcDbEntity
  8
0
100
AcDbLine
 62
7
  6
CONTINUOUS
 10
65.6888743332
 20
39.9300099737
 11
65.6888743332
 21
42.2623902801
  0
LINE
  5
44C
100
AcDbEntity
  8
0
100
AcDbLine
 62
7
  6
CONTINUOUS
 10
65.6888743332
 20
54.2623902801
 11
65.6888743332
 21
78.6967795327
  0
LINE
  5
44D
100
AcDbEntity
  8
0
100
AcDbLine
 62
7
  6
CONTINUOUS
 10
65.6888743332
 20
81.8280010276
 11
65.6888743332
 21
86.0947705866
  0
LINE
  5
44E
100
AcDbEntity
  8
0
100
AcDbLine
 62
7
  6
CONTINUOUS
 10
65.6888743332
 20
87.4300099737
 11
65.6888743332
 21
92.0947705866
  0
LINE
  5
44F
100
AcDbEntity
  8
0
100
AcDbLine
 62
7
  6
CONTINUOUS
 10
65.8564940267
 20
33.2452346675
 11
65.8564940267
 21
33.2795458927
  0
LINE
  5
450
100
AcDbEntity
  8
0
100
AcDbLine
 62
7
  6
CONTINUOUS
 10
65.8564940267
 20
39.2452346675
 11
65.8564940267
 21
39.2795458927
  0
LINE
  5
451
100
AcDbEntity
  8
0
100
AcDbLine
 62
7
  6
CONTINUOUS
 10
65.8564940267
 20
86.7452346675
 11
65.8564940267
 21
86.7795458927
  0
LINE
  5
452
100
AcDbEntity
  8
0
100
AcDbLine
 62
7
  6
CONTINUOUS
 10
65.9263355657
 20
25.2623902801
 11
65.9263355657
 21
27.5792581807
  0
LINE
  5
453
100
AcDbEntity
  8
0
100
AcDbLine
 62
7
  6
CONTINUOUS
 10
65.9263355657
 20
30.9455223796
 11
65.9263355657
 21
42.2623902801
  0
LINE
  5
454
100
AcDbEntity
  8
0
100
AcDbLine
 62
7
  6
CONTINUOUS
 10
65.9263355657
 20
54.2623902801
 11
65.9263355657
 21
78.5792581807
  0
LINE
  5
455
100
AcDbEntity
  8
0
100
AcDbLine
 62
7
  6
CONTINUOUS
 10
65.9263355657
 20
81.9455223796
 11
65.9263355657
 21
92.2623902801
  0
LINE
  5
456
100
AcDbEntity
  8
0
100
AcDbLine
 62
7
  6
CONTINUOUS
 10
65.9726816511
 20
43.2623902801
 11
65.9726816511
 21
53.2623902801
  0
LINE
  5
457
100
AcDbEntity
  8
0
100
AcDbLine
 62
7
  6
CONTINUOUS
 10
40.6779421841
 20
14.0497318341
 11
40.6795488419
 21
14.0519168856
  0
LINE
  5
458
100
AcDbEntity
  8
0
100
AcDbLine
 62
7
  6
CONTINUOUS
 10
37.1769802167
 20
12.6002828727
 11
36.8432024719
 21
12.2600402566
  0
LINE
  5
459
100
AcDbEntity
  8
0
100
AcDbLine
 62
7
  6
CONTINUOUS
 10
35.1770662637
 20
12.7716677589
 11
35.1790148393
 21
12.7735788303
  0
LINE
  5
45A
100
AcDbEntity
  8
0
100
AcDbLine
 62
7
  6
CONTINUOUS
 10
65.3934773328
 20
79.3623902801
 11
65.0268092532
 21
79.3623902801
  0
LINE
  5
45B
100
AcDbEntity
  8
0
100
AcDbLine
 62
7
  6
CONTINUOUS
 10
10.8258618783
 20
79.3623902801
 11
10.4591937986
 21
79.3623902801
  0
LINE
  5
45C
100
AcDbEntity
  8
0
100
AcDbLine
 62
7
  6
CONTINUOUS
 10
10.4591937986
 20
80.9623902801
 11
10.8258618783
 21
80.9623902801
  0
LINE
  5
45D
100
AcDbEntity
  8
0
100
AcDbLine
 62
7
  6
CONTINUOUS
 10
65.0268092532
 20
80.9623902801
 11
65.3934773328
 21
80.9623902801
  0
LINE
  5
45E
100
AcDbEntity
  8
0
100
AcDbLine
 62
7
  6
CONTINUOUS
 10
65.3585565634
 20
81.9623902801
 11
65.0617300227
 21
81.9623902801
  0
LINE
  5
45F
100
AcDbEntity
  8
0
100
AcDbLine
 62
7
  6
CONTINUOUS
 10
10.7909411088
 20
81.9623902801
 11
10.4941145681
 21
81.9623902801
  0
LINE
  5
460
100
AcDbEntity
  8
0
100
AcDbLine
 62
7
  6
CONTINUOUS
 10
10.2810978742
 20
82.1623902801
 11
10.3683997979
 21
82.1623902801
  0
LINE
  5
461
100
AcDbEntity
  8
0
100
AcDbLine
 62
7
  6
CONTINUOUS
 10
65.4842713335
 20
82.1623902801
 11
65.5715732572
 21
82.1623902801
  0
LINE
  5
462
100
AcDbEntity
  8
0
100
AcDbLine
 62
7
  6
CONTINUOUS
 10
67.4263355657
 20
43.2724923316
 11
67.4263355657
 21
53.2522882287
  0
LINE
  5
463
100
AcDbEntity
  8
0
100
AcDbLine
 62
7
  6
CONTINUOUS
 10
67.8263355657
 20
43.7623902801
 11
67.8263355657
 21
52.7623902801
  0
LINE
  5
464
100
AcDbEntity
  8
0
100
AcDbLine
 62
7
  6
CONTINUOUS
 10
56.8548036392
 20
21.8997830117
 11
56.8826979034
 21
21.9604516056
  0
LINE
  5
465
100
AcDbEntity
  8
0
100
AcDbLine
 62
7
  6
CONTINUOUS
 10
41.0103132319
 20
12.6002828727
 11
40.6765359643
 21
12.2600402566
  0
LINE
  5
466
100
AcDbEntity
  8
0
100
AcDbLine
 62
7
  6
CONTINUOUS
 10
65.8396430006
 20
38.745539254
 11
65.6888743332
 21
38.5947705866
  0
LINE
  5
467
100
AcDbEntity
  8
0
100
AcDbLine
 62
7
  6
CONTINUOUS
 10
38.4260080725
 20
12.3450977054
 11
38.4240430647
 21
12.3431688637
  0
LINE
  5
468
100
AcDbEntity
  8
0
100
AcDbLine
 62
7
  6
CONTINUOUS
 10
33.4283431077
 20
14.1306858351
 11
33.0940438654
 21
13.8750483326
  0
LINE
  5
469
100
AcDbEntity
  8
0
100
AcDbLine
 62
7
  6
CONTINUOUS
 10
34.6756909149
 20
12.6002828726
 11
34.6734806293
 21
12.5987213023
  0
LINE
  5
46A
100
AcDbEntity
  8
0
100
AcDbLine
 62
7
  6
CONTINUOUS
 10
65.5541128725
 20
82.6623902801
 11
65.5017317183
 21
82.6623902801
  0
LINE
  5
46B
100
AcDbEntity
  8
0
100
AcDbLine
 62
7
  6
CONTINUOUS
 10
10.3509394132
 20
82.6623902801
 11
10.2985582589
 21
82.6623902801
  0
LINE
  5
46C
100
AcDbEntity
  8
0
100
AcDbLine
 62
7
  6
CONTINUOUS
 10
10.3683997979
 20
84.9623902801
 11
10.583511738
 21
84.9623902801
  0
LINE
  5
46D
100
AcDbEntity
  8
0
100
AcDbLine
 62
7
  6
CONTINUOUS
 10
65.2691593935
 20
84.9623902801
 11
65.4842713335
 21
84.9623902801
  0
LINE
  5
46E
100
AcDbEntity
  8
0
100
AcDbLine
 62
7
  6
CONTINUOUS
 10
58.9263355657
 20
20.5123902801
 11
59.2808342035
 21
21.2216036384
  0
LINE
  5
46F
100
AcDbEntity
  8
0
100
AcDbLine
 62
7
  6
CONTINUOUS
 10
41.8430025503
 20
12.00499365
 11
41.8403322164
 21
12.0023233161
  0
LINE
  5
470
100
AcDbEntity
  8
0
100
AcDbLine
 62
7
  6
CONTINUOUS
 10
44.6738878198
 20
13.8748863448
 11
44.6712174859
 21
13.8722160109
  0
LINE
  5
471
100
AcDbEntity
  8
0
100
AcDbLine
 62
7
  6
CONTINUOUS
 10
65.8396430006
 20
32.745539254
 11
65.6888743332
 21
32.5947705866
  0
LINE
  5
472
100
AcDbEntity
  8
0
100
AcDbLine
 62
7
  6
CONTINUOUS
 10
56.9263355657
 20
22.8902845443
 11
56.8984068607
 21
22.8623558393
  0
LINE
  5
473
100
AcDbEntity
  8
0
100
AcDbLine
 62
7
  6
CONTINUOUS
 10
41.0115132611
 20
13.7084246141
 11
41.0137269313
 21
13.7099885753
  0
LINE
  5
474
100
AcDbEntity
  8
0
100
AcDbLine
 62
7
  6
CONTINUOUS
 10
36.4260095163
 20
12.6014609138
 11
36.6756048678
 21
12.7716677589
  0
LINE
  5
475
100
AcDbEntity
  8
0
100
AcDbLine
 62
7
  6
CONTINUOUS
 10
40.2593425316
 20
12.6014609137
 11
40.5089378838
 21
12.7716677593
  0
LINE
  5
476
100
AcDbEntity
  8
0
100
AcDbLine
 62
7
  6
CONTINUOUS
 10
38.6773145067
 20
12.8566512185
 11
38.6796640227
 21
12.8580761838
  0
LINE
  5
477
100
AcDbEntity
  8
0
100
AcDbLine
 62
7
  6
CONTINUOUS
 10
65.6888743332
 20
30.8280010276
 11
65.9263355657
 21
30.9455223796
  0
LINE
  5
478
100
AcDbEntity
  8
0
100
AcDbLine
 62
7
  6
CONTINUOUS
 10
65.519192103
 20
85.9623902801
 11
65.234238624
 21
85.9623902801
  0
LINE
  5
479
100
AcDbEntity
  8
0
100
AcDbLine
 62
7
  6
CONTINUOUS
 10
10.6184325075
 20
85.9623902801
 11
10.3334790284
 21
85.9623902801
  0
LINE
  5
47A
100
AcDbEntity
  8
0
100
AcDbLine
 62
7
  6
CONTINUOUS
 10
65.6763355657
 20
86.245539254
 11
65.8396430006
 21
86.245539254
  0
LINE
  5
47B
100
AcDbEntity
  8
0
100
AcDbLine
 62
7
  6
CONTINUOUS
 10
10.0136374894
 20
86.2623902801
 11
10.1637967983
 21
86.2623902801
  0
LINE
  5
47C
100
AcDbEntity
  8
0
100
AcDbLine
 62
7
  6
CONTINUOUS
 10
65.8564940267
 20
86.7452346675
 11
65.6763355657
 21
86.7452346675
  0
LINE
  5
47D
100
AcDbEntity
  8
0
100
AcDbLine
 62
7
  6
CONTINUOUS
 10
10.1763355657
 20
86.7623902801
 11
9.9961771047
 21
86.7623902801
  0
LINE
  5
47E
100
AcDbEntity
  8
0
100
AcDbLine
 62
7
  6
CONTINUOUS
 10
9.9961771047
 20
86.7795458927
 11
10.1763355657
 21
86.7795458927
  0
LINE
  5
47F
100
AcDbEntity
  8
0
100
AcDbLine
 62
7
  6
CONTINUOUS
 10
65.6763355657
 20
86.7795458927
 11
65.8564940267
 21
86.7795458927
  0
LINE
  5
480
100
AcDbEntity
  8
0
100
AcDbLine
 62
7
  6
CONTINUOUS
 10
10.8969221345
 20
87.0705561076
 11
11.8963129616
 21
87.0705561076
  0
LINE
  5
481
100
AcDbEntity
  8
0
100
AcDbLine
 62
7
  6
CONTINUOUS
 10
63.9563581699
 20
87.0705562228
 11
64.9557489969
 21
87.0705562228
  0
LINE
  5
482
100
AcDbEntity
  8
0
100
AcDbLine
 62
7
  6
CONTINUOUS
 10
65.8396430006
 20
87.2792413062
 11
65.6763355657
 21
87.2792413062
  0
LINE
  5
483
100
AcDbEntity
  8
0
100
AcDbLine
 62
7
  6
CONTINUOUS
 10
10.1763355657
 20
87.2792413062
 11
10.0130281308
 21
87.2792413062
  0
LINE
  5
484
100
AcDbEntity
  8
0
100
AcDbLine
 62
7
  6
CONTINUOUS
 10
10.3334790284
 20
87.5623902801
 11
10.6184325075
 21
87.5623902801
  0
LINE
  5
485
100
AcDbEntity
  8
0
100
AcDbLine
 62
7
  6
CONTINUOUS
 10
65.234238624
 20
87.5623902801
 11
65.519192103
 21
87.5623902801
  0
LINE
  5
486
100
AcDbEntity
  8
0
100
AcDbLine
 62
7
  6
CONTINUOUS
 10
65.4842713335
 20
88.5623902801
 11
65.2691593935
 21
88.5623902801
  0
LINE
  5
487
100
AcDbEntity
  8
0
100
AcDbLine
 62
7
  6
CONTINUOUS
 10
10.583511738
 20
88.5623902801
 11
10.3683997979
 21
88.5623902801
  0
LINE
  5
488
100
AcDbEntity
  8
0
100
AcDbLine
 62
7
  6
CONTINUOUS
 10
65.6888743332
 20
78.6967795327
 11
65.9263355657
 21
78.5792581807
  0
LINE
  5
489
100
AcDbEntity
  8
0
100
AcDbLine
 62
7
  6
CONTINUOUS
 10
58.533684215
 20
20.3623902801
 11
58.5467755137
 21
20.3754815788
  0
LINE
  5
48A
100
AcDbEntity
  8
0
100
AcDbLine
 62
7
  6
CONTINUOUS
 10
36.8432024719
 20
12.2600402566
 11
36.5097061682
 21
12.0899940448
  0
LINE
  5
48B
100
AcDbEntity
  8
0
100
AcDbLine
 62
7
  6
CONTINUOUS
 10
40.6765359643
 20
12.2600402566
 11
40.3430396605
 21
12.0899940448
  0
LINE
  5
48C
100
AcDbEntity
  8
0
100
AcDbLine
 62
7
  6
CONTINUOUS
 10
35.0109139779
 20
13.0268101378
 11
35.0134038789
 21
13.0278899536
  0
LINE
  5
48D
100
AcDbEntity
  8
0
100
AcDbLine
 62
7
  6
CONTINUOUS
 10
38.1753970743
 20
12.7705701449
 11
38.1728943691
 21
12.7695541739
  0
LINE
  5
48E
100
AcDbEntity
  8
0
100
AcDbLine
 62
7
  6
CONTINUOUS
 10
34.5084976986
 20
12.9407701337
 11
34.5059424629
 21
12.9399110507
  0
LINE
  5
48F
100
AcDbEntity
  8
0
100
AcDbLine
 62
7
  6
CONTINUOUS
 10
21.5476559093
 20
90.0623902801
 11
56.4263355657
 21
90.0623902801
  0
LINE
  5
490
100
AcDbEntity
  8
0
100
AcDbLine
 62
7
  6
CONTINUOUS
 10
20.6763355657
 20
90.3123902801
 11
56.6763355657
 21
90.3123902801
  0
LINE
  5
491
100
AcDbEntity
  8
0
100
AcDbLine
 62
7
  6
CONTINUOUS
 10
15.8449932235
 20
91.3457236135
 11
60.0076384205
 21
91.3457236135
  0
LINE
  5
492
100
AcDbEntity
  8
0
100
AcDbLine
 62
7
  6
CONTINUOUS
 10
10.1852695974
 20
92.0947705866
 11
10.1637967983
 21
92.0947705866
  0
LINE
  5
493
100
AcDbEntity
  8
0
100
AcDbLine
 62
7
  6
CONTINUOUS
 10
65.6673992176
 20
92.0947705866
 11
65.6888743332
 21
92.0947705866
  0
LINE
  5
494
100
AcDbEntity
  8
0
100
AcDbLine
 62
7
  6
CONTINUOUS
 10
10.0130281308
 20
92.245539254
 11
10.2022479994
 21
92.245539254
  0
LINE
  5
495
100
AcDbEntity
  8
0
100
AcDbLine
 62
7
  6
CONTINUOUS
 10
65.6504164134
 20
92.245539254
 11
65.8396430006
 21
92.245539254
  0
LINE
  5
496
100
AcDbEntity
  8
0
100
AcDbLine
 62
7
  6
CONTINUOUS
 10
9.9263355657
 20
92.2623902801
 11
10.0091029905
 21
92.2623902801
  0
LINE
  5
497
100
AcDbEntity
  8
0
100
AcDbLine
 62
7
  6
CONTINUOUS
 10
65.8435681409
 20
92.2623902801
 11
65.9263355657
 21
92.2623902801
  0
LINE
  5
498
100
AcDbEntity
  8
0
100
AcDbLine
 62
7
  6
CONTINUOUS
 10
60.0076442525
 20
92.2688005365
 11
15.8450268799
 21
92.2688005365
  0
LINE
  5
499
100
AcDbEntity
  8
0
100
AcDbLine
 62
7
  6
CONTINUOUS
 10
65.8327929179
 20
92.7452346675
 11
65.5941299876
 21
92.7452346675
  0
LINE
  5
49A
100
AcDbEntity
  8
0
100
AcDbLine
 62
7
  6
CONTINUOUS
 10
10.2585198347
 20
92.7452346675
 11
10.0198782136
 21
92.7452346675
  0
LINE
  5
49B
100
AcDbEntity
  8
0
100
AcDbLine
 62
7
  6
CONTINUOUS
 10
10.0215967907
 20
92.7623902801
 11
10.2604517672
 21
92.7623902801
  0
LINE
  5
49C
100
AcDbEntity
  8
0
100
AcDbLine
 62
7
  6
CONTINUOUS
 10
65.5902651208
 20
92.7795458927
 11
65.8292951335
 21
92.7795458927
  0
LINE
  5
49D
100
AcDbEntity
  8
0
100
AcDbLine
 62
7
  6
CONTINUOUS
 10
40.674665114
 20
13.2810923996
 11
40.6719923254
 21
13.2802972408
  0
LINE
  5
49E
100
AcDbEntity
  8
0
100
AcDbLine
 62
7
  6
CONTINUOUS
 10
52.6263355657
 20
93.2623902801
 11
51.2263355657
 21
93.2623902801
  0
LINE
  5
49F
100
AcDbEntity
  8
0
100
AcDbLine
 62
7
  6
CONTINUOUS
 10
45.6263355657
 20
93.2623902801
 11
44.2263355657
 21
93.2623902801
  0
LINE
  5
4A0
100
AcDbEntity
  8
0
100
AcDbLine
 62
7
  6
CONTINUOUS
 10
38.6263355657
 20
93.2623902801
 11
37.2263355657
 21
93.2623902801
  0
LINE
  5
4A1
100
AcDbEntity
  8
0
100
AcDbLine
 62
7
  6
CONTINUOUS
 10
31.6263355657
 20
93.2623902801
 11
30.2263355657
 21
93.2623902801
  0
LINE
  5
4A2
100
AcDbEntity
  8
0
100
AcDbLine
 62
7
  6
CONTINUOUS
 10
24.6263355657
 20
93.2623902801
 11
23.2263355657
 21
93.2623902801
  0
LINE
  5
4A3
100
AcDbEntity
  8
0
100
AcDbLine
 62
7
  6
CONTINUOUS
 10
17.6263355657
 20
93.2623902801
 11
16.2263355657
 21
93.2623902801
  0
LINE
  5
4A4
100
AcDbEntity
  8
0
100
AcDbLine
 62
7
  6
CONTINUOUS
 10
10.1164912451
 20
93.2623902801
 11
10.3663833972
 21
93.2623902801
  0
LINE
  5
4A5
100
AcDbEntity
  8
0
100
AcDbLine
 62
7
  6
CONTINUOUS
 10
58.2263355657
 20
93.2623902801
 11
59.6263355657
 21
93.2623902801
  0
LINE
  5
4A6
100
AcDbEntity
  8
0
100
AcDbLine
 62
7
  6
CONTINUOUS
 10
65.7332684694
 20
93.2792413062
 11
65.4782305249
 21
93.2792413062
  0
LINE
  5
4A7
100
AcDbEntity
  8
0
100
AcDbLine
 62
7
  6
CONTINUOUS
 10
65.4056326397
 20
93.4300099737
 11
65.5435251614
 21
93.4300099737
  0
LINE
  5
4A8
100
AcDbEntity
  8
0
100
AcDbLine
 62
7
  6
CONTINUOUS
 10
15.1263355657
 20
95.3735807496
 11
18.7263355657
 21
95.3735807496
  0
LINE
  5
4A9
100
AcDbEntity
  8
0
100
AcDbLine
 62
7
  6
CONTINUOUS
 10
22.1263355657
 20
95.3735807496
 11
25.7263355657
 21
95.3735807496
  0
LINE
  5
4AA
100
AcDbEntity
  8
0
100
AcDbLine
 62
7
  6
CONTINUOUS
 10
29.1263355657
 20
95.3735807496
 11
32.7263355657
 21
95.3735807496
  0
LINE
  5
4AB
100
AcDbEntity
  8
0
100
AcDbLine
 62
7
  6
CONTINUOUS
 10
36.1263355657
 20
95.3735807496
 11
39.7263355657
 21
95.3735807496
  0
LINE
  5
4AC
100
AcDbEntity
  8
0
100
AcDbLine
 62
7
  6
CONTINUOUS
 10
43.1263355657
 20
95.3735807496
 11
46.7263355657
 21
95.3735807496
  0
LINE
  5
4AD
100
AcDbEntity
  8
0
100
AcDbLine
 62
7
  6
CONTINUOUS
 10
50.1263355657
 20
95.3735807496
 11
53.7263355657
 21
95.3735807496
  0
LINE
  5
4AE
100
AcDbEntity
  8
0
100
AcDbLine
 62
7
  6
CONTINUOUS
 10
57.1263355657
 20
95.3735807496
 11
60.7263355657
 21
95.3735807496
  0
LINE
  5
4AF
100
AcDbEntity
  8
0
100
AcDbLine
 62
7
  6
CONTINUOUS
 10
60.7263355657
 20
95.6788363654
 11
57.1263355657
 21
95.6788363654
  0
LINE
  5
4B0
100
AcDbEntity
  8
0
100
AcDbLine
 62
7
  6
CONTINUOUS
 10
53.7263355657
 20
95.6788363654
 11
50.1263355657
 21
95.6788363654
  0
LINE
  5
4B1
100
AcDbEntity
  8
0
100
AcDbLine
 62
7
  6
CONTINUOUS
 10
46.7263355657
 20
95.6788363654
 11
43.1263355657
 21
95.6788363654
  0
LINE
  5
4B2
100
AcDbEntity
  8
0
100
AcDbLine
 62
7
  6
CONTINUOUS
 10
39.7263355657
 20
95.6788363654
 11
36.1263355657
 21
95.6788363654
  0
LINE
  5
4B3
100
AcDbEntity
  8
0
100
AcDbLine
 62
7
  6
CONTINUOUS
 10
32.7263355657
 20
95.6788363654
 11
29.1263355657
 21
95.6788363654
  0
LINE
  5
4B4
100
AcDbEntity
  8
0
100
AcDbLine
 62
7
  6
CONTINUOUS
 10
25.7263355657
 20
95.6788363654
 11
22.1263355657
 21
95.6788363654
  0
LINE
  5
4B5
100
AcDbEntity
  8
0
100
AcDbLine
 62
7
  6
CONTINUOUS
 10
18.7263355657
 20
95.6788363654
 11
15.1263355657
 21
95.6788363654
  0
LINE
  5
4B6
100
AcDbEntity
  8
0
100
AcDbLine
 62
7
  6
CONTINUOUS
 10
59.6263355657
 20
95.8546372731
 11
58.2263355657
 21
95.8546372731
  0
LINE
  5
4B7
100
AcDbEntity
  8
0
100
AcDbLine
 62
7
  6
CONTINUOUS
 10
52.6263355657
 20
95.8546372731
 11
51.2263355657
 21
95.8546372731
  0
LINE
  5
4B8
100
AcDbEntity
  8
0
100
AcDbLine
 62
7
  6
CONTINUOUS
 10
45.6263355657
 20
95.8546372731
 11
44.2263355657
 21
95.8546372731
  0
LINE
  5
4B9
100
AcDbEntity
  8
0
100
AcDbLine
 62
7
  6
CONTINUOUS
 10
38.6263355657
 20
95.8546372731
 11
37.2263355657
 21
95.8546372731
  0
LINE
  5
4BA
100
AcDbEntity
  8
0
100
AcDbLine
 62
7
  6
CONTINUOUS
 10
31.6263355657
 20
95.8546372731
 11
30.2263355657
 21
95.8546372731
  0
LINE
  5
4BB
100
AcDbEntity
  8
0
100
AcDbLine
 62
7
  6
CONTINUOUS
 10
24.6263355657
 20
95.8546372731
 11
23.2263355657
 21
95.8546372731
  0
LINE
  5
4BC
100
AcDbEntity
  8
0
100
AcDbLine
 62
7
  6
CONTINUOUS
 10
17.6263355657
 20
95.8546372731
 11
16.2263355657
 21
95.8546372731
  0
LINE
  5
4BD
100
AcDbEntity
  8
0
100
AcDbLine
 62
7
  6
CONTINUOUS
 10
18.7263355657
 20
96.2966576727
 11
22.1263355657
 21
96.2966576727
  0
LINE
  5
4BE
100
AcDbEntity
  8
0
100
AcDbLine
 62
7
  6
CONTINUOUS
 10
25.7263355657
 20
96.2966576727
 11
29.1263355657
 21
96.2966576727
  0
LINE
  5
4BF
100
AcDbEntity
  8
0
100
AcDbLine
 62
7
  6
CONTINUOUS
 10
32.7263355657
 20
96.2966576727
 11
36.1263355657
 21
96.2966576727
  0
LINE
  5
4C0
100
AcDbEntity
  8
0
100
AcDbLine
 62
7
  6
CONTINUOUS
 10
39.7263355657
 20
96.2966576727
 11
43.1263355657
 21
96.2966576727
  0
LINE
  5
4C1
100
AcDbEntity
  8
0
100
AcDbLine
 62
7
  6
CONTINUOUS
 10
46.7263355657
 20
96.2966576727
 11
50.1263355657
 21
96.2966576727
  0
LINE
  5
4C2
100
AcDbEntity
  8
0
100
AcDbLine
 62
7
  6
CONTINUOUS
 10
53.7263355657
 20
96.2966576727
 11
57.1263355657
 21
96.2966576727
  0
LINE
  5
4C3
100
AcDbEntity
  8
0
100
AcDbLine
 62
7
  6
CONTINUOUS
 10
57.1263355657
 20
96.6782271924
 11
53.7263355657
 21
96.6782271924
  0
LINE
  5
4C4
100
AcDbEntity
  8
0
100
AcDbLine
 62
7
  6
CONTINUOUS
 10
50.1263355657
 20
96.6782271924
 11
46.7263355657
 21
96.6782271924
  0
LINE
  5
4C5
100
AcDbEntity
  8
0
100
AcDbLine
 62
7
  6
CONTINUOUS
 10
43.1263355657
 20
96.6782271924
 11
39.7263355657
 21
96.6782271924
  0
LINE
  5
4C6
100
AcDbEntity
  8
0
100
AcDbLine
 62
7
  6
CONTINUOUS
 10
36.1263355657
 20
96.6782271924
 11
32.7263355657
 21
96.6782271924
  0
LINE
  5
4C7
100
AcDbEntity
  8
0
100
AcDbLine
 62
7
  6
CONTINUOUS
 10
29.1263355657
 20
96.6782271924
 11
25.7263355657
 21
96.6782271924
  0
LINE
  5
4C8
100
AcDbEntity
  8
0
100
AcDbLine
 62
7
  6
CONTINUOUS
 10
22.1263355657
 20
96.6782271924
 11
18.7263355657
 21
96.6782271924
  0
LINE
  5
4C9
100
AcDbEntity
  8
0
100
AcDbLine
 62
7
  6
CONTINUOUS
 10
16.2263355657
 20
96.8552468174
 11
17.6263355657
 21
96.8552468174
  0
LINE
  5
4CA
100
AcDbEntity
  8
0
100
AcDbLine
 62
7
  6
CONTINUOUS
 10
23.2263355657
 20
96.8552468174
 11
24.6263355657
 21
96.8552468174
  0
LINE
  5
4CB
100
AcDbEntity
  8
0
100
AcDbLine
 62
7
  6
CONTINUOUS
 10
30.2263355657
 20
96.8552468174
 11
31.6263355657
 21
96.8552468174
  0
LINE
  5
4CC
100
AcDbEntity
  8
0
100
AcDbLine
 62
7
  6
CONTINUOUS
 10
37.2263355657
 20
96.8552468174
 11
38.6263355657
 21
96.8552468174
  0
LINE
  5
4CD
100
AcDbEntity
  8
0
100
AcDbLine
 62
7
  6
CONTINUOUS
 10
44.2263355657
 20
96.8552468174
 11
45.6263355657
 21
96.8552468174
  0
LINE
  5
4CE
100
AcDbEntity
  8
0
100
AcDbLine
 62
7
  6
CONTINUOUS
 10
51.2263355657
 20
96.8552468174
 11
52.6263355657
 21
96.8552468174
  0
LINE
  5
4CF
100
AcDbEntity
  8
0
100
AcDbLine
 62
7
  6
CONTINUOUS
 10
58.2263355657
 20
96.8552468174
 11
59.6263355657
 21
96.8552468174
  0
LINE
  5
4D0
100
AcDbEntity
  8
0
100
AcDbLine
 62
7
  6
CONTINUOUS
 10
60.6793814306
 20
97.0123902801
 11
15.1732897008
 21
97.0123902801
  0
LINE
  5
4D1
100
AcDbEntity
  8
0
100
AcDbLine
 62
7
  6
CONTINUOUS
 10
60.9263355657
 20
97.0249290476
 11
14.9263355658
 21
97.0249290476
  0
LINE
  5
4D2
100
AcDbEntity
  8
0
100
AcDbLine
 62
7
  6
CONTINUOUS
 10
60.9263355657
 20
97.2623902801
 11
14.9263355657
 21
97.2623902801
  0
LINE
  5
4D3
100
AcDbEntity
  8
0
100
AcDbLine
 62
7
  6
CONTINUOUS
 10
65.8396430006
 20
87.2792413062
 11
65.6888743332
 21
87.4300099737
  0
ARC
  5
4D4
100
AcDbEntity
  8
0
100
AcDbCircle
 62
7
  6
CONTINUOUS
 10
14.9263355657
 20
25.2623902801
 40
4.9999999999
100
AcDbArc
 50
180.0
 51
270.0
  0
ARC
  5
4D5
100
AcDbEntity
  8
0
100
AcDbCircle
 62
7
  6
CONTINUOUS
 10
15.1763355657
 20
25.5123902801
 40
4.9999999996
100
AcDbArc
 50
180.0
 51
270.0
  0
ARC
  5
4D6
100
AcDbEntity
  8
0
100
AcDbCircle
 62
7
  6
CONTINUOUS
 10
14.9263355657
 20
25.2623902801
 40
4.7625387676
100
AcDbArc
 50
179.9999999996
 51
270.0
  0
ARC
  5
4D7
100
AcDbEntity
  8
0
100
AcDbCircle
 62
7
  6
CONTINUOUS
 10
15.1763355657
 20
25.5123902801
 40
4.2794134312
100
AcDbArc
 50
179.9999999838
 51
247.9036100835
  0
ARC
  5
4D8
100
AcDbEntity
  8
0
100
AcDbCircle
 62
7
  6
CONTINUOUS
 10
15.1763355657
 20
25.5123902801
 40
3.2800226042
100
AcDbArc
 50
180.0000000002
 51
246.1529310182
  0
CIRCLE
  5
4D9
100
AcDbEntity
  8
0
100
AcDbCircle
 62
7
  6
CONTINUOUS
 10
16.9263355657
 20
46.2623902801
 40
1.0
  0
CIRCLE
  5
4DA
100
AcDbEntity
  8
0
100
AcDbCircle
 62
7
  6
CONTINUOUS
 10
13.9263355657
 20
44.2623902801
 40
1.0
  0
CIRCLE
  5
4DB
100
AcDbEntity
  8
0
100
AcDbCircle
 62
7
  6
CONTINUOUS
 10
16.9263355657
 20
50.2623902801
 40
1.0
  0
CIRCLE
  5
4DC
100
AcDbEntity
  8
0
100
AcDbCircle
 62
7
  6
CONTINUOUS
 10
13.9263355657
 20
48.2623902801
 40
1.0
  0
CIRCLE
  5
4DD
100
AcDbEntity
  8
0
100
AcDbCircle
 62
7
  6
CONTINUOUS
 10
13.9263355657
 20
52.2623902801
 40
1.0
  0
ARC
  5
4DE
100
AcDbEntity
  8
0
100
AcDbCircle
 62
7
  6
CONTINUOUS
 10
8.5263355657
 20
52.7623902801
 40
0.5
100
AcDbArc
 50
90.0
 51
180.0
  0
ARC
  5
4DF
100
AcDbEntity
  8
0
100
AcDbCircle
 62
7
  6
CONTINUOUS
 10
8.5263355657
 20
43.7623902801
 40
0.5
100
AcDbArc
 50
180.0
 51
270.0
  0
CIRCLE
  5
4E0
100
AcDbEntity
  8
0
100
AcDbCircle
 62
7
  6
CONTINUOUS
 10
13.9263355657
 20
52.2623902801
 40
0.4999987905
  0
CIRCLE
  5
4E1
100
AcDbEntity
  8
0
100
AcDbCircle
 62
7
  6
CONTINUOUS
 10
13.9263355657
 20
48.2623902801
 40
0.4999987905
  0
CIRCLE
  5
4E2
100
AcDbEntity
  8
0
100
AcDbCircle
 62
7
  6
CONTINUOUS
 10
16.9263355657
 20
50.2623902801
 40
0.4999987905
  0
CIRCLE
  5
4E3
100
AcDbEntity
  8
0
100
AcDbCircle
 62
7
  6
CONTINUOUS
 10
13.9263355657
 20
44.2623902801
 40
0.4999987905
  0
CIRCLE
  5
4E4
100
AcDbEntity
  8
0
100
AcDbCircle
 62
7
  6
CONTINUOUS
 10
16.9263355657
 20
46.2623902801
 40
0.4999987905
  0
ARC
  5
4E5
100
AcDbEntity
  8
0
100
AcDbCircle
 62
7
  6
CONTINUOUS
 10
30.9794355657
 20
15.117192582
 40
1.27
100
AcDbArc
 50
180.0
 51
220.5358021113
  0
ARC
  5
4E6
100
AcDbEntity
  8
0
100
AcDbCircle
 62
7
  6
CONTINUOUS
 10
37.4263355657
 20
46.5123902801
 40
1.3
100
AcDbArc
 50
90.0
 51
180.0
  0
ARC
  5
4E7
100
AcDbEntity
  8
0
100
AcDbCircle
 62
7
  6
CONTINUOUS
 10
37.4263355657
 20
43.1123902801
 40
1.3
100
AcDbArc
 50
180.0
 51
270.0
  0
ARC
  5
4E8
100
AcDbEntity
  8
0
100
AcDbCircle
 62
7
  6
CONTINUOUS
 10
30.4267355657
 20
46.5123902801
 40
1.3
100
AcDbArc
 50
90.0
 51
180.0
  0
ARC
  5
4E9
100
AcDbEntity
  8
0
100
AcDbCircle
 62
7
  6
CONTINUOUS
 10
30.4267355657
 20
43.1123902801
 40
1.3
100
AcDbArc
 50
180.0
 51
270.0
  0
ARC
  5
4EA
100
AcDbEntity
  8
0
100
AcDbCircle
 62
7
  6
CONTINUOUS
 10
31.4267355657
 20
43.1123902801
 40
1.3
100
AcDbArc
 50
270.0
 51
360.0
  0
ARC
  5
4EB
100
AcDbEntity
  8
0
100
AcDbCircle
 62
7
  6
CONTINUOUS
 10
31.4267355657
 20
46.5123902801
 40
1.3
100
AcDbArc
 50
0.0
 51
90.0
  0
ARC
  5
4EC
100
AcDbEntity
  8
0
100
AcDbCircle
 62
7
  6
CONTINUOUS
 10
24.4263355657
 20
46.5123902801
 40
1.3
100
AcDbArc
 50
90.0
 51
180.0
  0
ARC
  5
4ED
100
AcDbEntity
  8
0
100
AcDbCircle
 62
7
  6
CONTINUOUS
 10
24.4263355657
 20
43.1123902801
 40
1.3
100
AcDbArc
 50
180.0
 51
270.0
  0
ARC
  5
4EE
100
AcDbEntity
  8
0
100
AcDbCircle
 62
7
  6
CONTINUOUS
 10
25.4263355657
 20
43.1123902801
 40
1.3
100
AcDbArc
 50
270.0
 51
360.0
  0
ARC
  5
4EF
100
AcDbEntity
  8
0
100
AcDbCircle
 62
7
  6
CONTINUOUS
 10
25.4263355657
 20
46.5123902801
 40
1.3
100
AcDbArc
 50
0.0
 51
90.0
  0
ARC
  5
4F0
100
AcDbEntity
  8
0
100
AcDbCircle
 62
7
  6
CONTINUOUS
 10
24.4263355657
 20
40.3623902801
 40
1.3
100
AcDbArc
 50
233.8490754923
 51
270.0
  0
ARC
  5
4F1
100
AcDbEntity
  8
0
100
AcDbCircle
 62
7
  6
CONTINUOUS
 10
25.4263355657
 20
40.3623902801
 40
1.3
100
AcDbArc
 50
270.0
 51
306.1509245077
  0
ARC
  5
4F2
100
AcDbEntity
  8
0
100
AcDbCircle
 62
7
  6
CONTINUOUS
 10
30.4263355657
 20
40.3623902801
 40
1.3
100
AcDbArc
 50
233.8490754923
 51
270.0
  0
ARC
  5
4F3
100
AcDbEntity
  8
0
100
AcDbCircle
 62
7
  6
CONTINUOUS
 10
31.4263355657
 20
40.3623902801
 40
1.3
100
AcDbArc
 50
270.0
 51
306.1509245077
  0
ARC
  5
4F4
100
AcDbEntity
  8
0
100
AcDbCircle
 62
7
  6
CONTINUOUS
 10
37.4263355657
 20
40.3623902801
 40
1.3
100
AcDbArc
 50
233.8490754923
 51
270.0
  0
ARC
  5
4F5
100
AcDbEntity
  8
0
100
AcDbCircle
 62
7
  6
CONTINUOUS
 10
25.4263355657
 20
40.3623902801
 40
1.2738174026
100
AcDbArc
 50
269.9999999991
 51
304.4830244379
  0
ARC
  5
4F6
100
AcDbEntity
  8
0
100
AcDbCircle
 62
7
  6
CONTINUOUS
 10
24.4263355657
 20
40.3623902801
 40
1.2738174026
100
AcDbArc
 50
235.5169755621
 51
270.0000000009
  0
ARC
  5
4F7
100
AcDbEntity
  8
0
100
AcDbCircle
 62
7
  6
CONTINUOUS
 10
31.4263355657
 20
40.3623902801
 40
1.2738174026
100
AcDbArc
 50
269.9999999991
 51
304.4830244379
  0
ARC
  5
4F8
100
AcDbEntity
  8
0
100
AcDbCircle
 62
7
  6
CONTINUOUS
 10
30.4263355657
 20
40.3623902801
 40
1.2738174026
100
AcDbArc
 50
235.5169755621
 51
270.0000000009
  0
ARC
  5
4F9
100
AcDbEntity
  8
0
100
AcDbCircle
 62
7
  6
CONTINUOUS
 10
37.4263355657
 20
40.3623902801
 40
1.2738174026
100
AcDbArc
 50
235.5169755621
 51
270.0000000009
  0
ARC
  5
4FA
100
AcDbEntity
  8
0
100
AcDbCircle
 62
7
  6
CONTINUOUS
 10
23.4263355657
 20
37.0623902801
 40
0.5
100
AcDbArc
 50
90.0
 51
180.0
  0
ARC
  5
4FB
100
AcDbEntity
  8
0
100
AcDbCircle
 62
7
  6
CONTINUOUS
 10
15.5702192225
 20
90.9078589168
 40
5.3889447818
100
AcDbArc
 50
94.7247667517
 51
108.5181718401
  0
ARC
  5
4FC
100
AcDbEntity
  8
0
100
AcDbCircle
 62
7
  6
CONTINUOUS
 10
16.0638446788
 20
87.2108262379
 40
5.1286864934
100
AcDbArc
 50
139.2665801262
 51
141.3289258464
  0
ARC
  5
4FD
100
AcDbEntity
  8
0
100
AcDbCircle
 62
7
  6
CONTINUOUS
 10
16.0140030909
 20
87.2547865048
 40
5.062233045
100
AcDbArc
 50
131.4163265906
 51
139.2754922155
  0
ARC
  5
4FE
100
AcDbEntity
  8
0
100
AcDbCircle
 62
7
  6
CONTINUOUS
 10
15.9798586203
 20
87.2912530399
 40
5.0122987446
100
AcDbArc
 50
130.3909171193
 51
131.3993839149
  0
ARC
  5
4FF
100
AcDbEntity
  8
0
100
AcDbCircle
 62
7
  6
CONTINUOUS
 10
15.5149373919
 20
91.6738279298
 40
5.0045041049
100
AcDbArc
 50
94.45353649
 51
179.9147608572
  0
ARC
  5
500
100
AcDbEntity
  8
0
100
AcDbCircle
 62
7
  6
CONTINUOUS
 10
14.9263355657
 20
92.2623902801
 40
4.9999999999
100
AcDbArc
 50
90.0
 51
180.0
  0
ARC
  5
501
100
AcDbEntity
  8
0
100
AcDbCircle
 62
7
  6
CONTINUOUS
 10
14.9263355657
 20
92.2623902801
 40
4.930158461
100
AcDbArc
 50
174.1792484936
 51
174.3796202285
  0
ARC
  5
502
100
AcDbEntity
  8
0
100
AcDbCircle
 62
7
  6
CONTINUOUS
 10
15.8582087828
 20
87.4983267374
 40
4.7704920113
100
AcDbArc
 50
90.1583208758
 51
100.8863508316
  0
ARC
  5
503
100
AcDbEntity
  8
0
100
AcDbCircle
 62
7
  6
CONTINUOUS
 10
14.9263355657
 20
92.2623902801
 40
4.7625387676
100
AcDbArc
 50
89.9999999996
 51
167.8792860381
  0
ARC
  5
504
100
AcDbEntity
  8
0
100
AcDbCircle
 62
7
  6
CONTINUOUS
 10
16.5292994799
 20
87.074096764
 40
4.6330882472
100
AcDbArc
 50
164.7475811172
 51
180.0435961653
  0
ARC
  5
505
100
AcDbEntity
  8
0
100
AcDbCircle
 62
7
  6
CONTINUOUS
 10
16.3960039884
 20
87.1088473692
 40
4.4951938009
100
AcDbArc
 50
154.0694328089
 51
164.7279565717
  0
ARC
  5
506
100
AcDbEntity
  8
0
100
AcDbCircle
 62
7
  6
CONTINUOUS
 10
15.8610275216
 20
87.5956004859
 40
3.7523440927
100
AcDbArc
 50
110.5648160256
 51
112.9452943043
  0
ARC
  5
507
100
AcDbEntity
  8
0
100
AcDbCircle
 62
7
  6
CONTINUOUS
 10
15.8557422103
 20
87.6101522444
 40
3.7368158159
100
AcDbArc
 50
103.9126727813
 51
110.5673159214
  0
ARC
  5
508
100
AcDbEntity
  8
0
100
AcDbCircle
 62
7
  6
CONTINUOUS
 10
15.8459311703
 20
87.6447347953
 40
3.7010504855
100
AcDbArc
 50
90.0145205004
 51
103.8939699752
  0
ARC
  5
509
100
AcDbEntity
  8
0
100
AcDbCircle
 62
7
  6
CONTINUOUS
 10
19.1763355657
 20
61.3123902801
 40
1.5
100
AcDbArc
 50
180.0
 51
270.0
  0
ARC
  5
50A
100
AcDbEntity
  8
0
100
AcDbCircle
 62
7
  6
CONTINUOUS
 10
19.4263355657
 20
86.4410699366
 40
1.5
100
AcDbArc
 50
135.0
 51
180.0
  0
ARC
  5
50B
100
AcDbEntity
  8
0
100
AcDbCircle
 62
7
  6
CONTINUOUS
 10
19.4263355657
 20
61.5623902801
 40
1.5
100
AcDbArc
 50
180.0
 51
270.0
  0
ARC
  5
50C
100
AcDbEntity
  8
0
100
AcDbCircle
 62
7
  6
CONTINUOUS
 10
21.5476559093
 20
88.5623902801
 40
1.5
100
AcDbArc
 50
90.0
 51
135.0
  0
ARC
  5
50D
100
AcDbEntity
  8
0
100
AcDbCircle
 62
7
  6
CONTINUOUS
 10
37.4263355657
 20
57.2123902801
 40
1.3
100
AcDbArc
 50
90.0
 51
180.0
  0
ARC
  5
50E
100
AcDbEntity
  8
0
100
AcDbCircle
 62
7
  6
CONTINUOUS
 10
37.4263355657
 20
54.5123902801
 40
1.3
100
AcDbArc
 50
180.0
 51
270.0
  0
ARC
  5
50F
100
AcDbEntity
  8
0
100
AcDbCircle
 62
7
  6
CONTINUOUS
 10
30.4263355657
 20
57.2123902801
 40
1.3
100
AcDbArc
 50
90.0
 51
180.0
  0
ARC
  5
510
100
AcDbEntity
  8
0
100
AcDbCircle
 62
7
  6
CONTINUOUS
 10
30.4263355657
 20
54.5123902801
 40
1.3
100
AcDbArc
 50
180.0
 51
270.0
  0
ARC
  5
511
100
AcDbEntity
  8
0
100
AcDbCircle
 62
7
  6
CONTINUOUS
 10
31.4263355657
 20
54.5123902801
 40
1.3
100
AcDbArc
 50
270.0
 51
360.0
  0
ARC
  5
512
100
AcDbEntity
  8
0
100
AcDbCircle
 62
7
  6
CONTINUOUS
 10
31.4263355657
 20
57.2123902801
 40
1.3
100
AcDbArc
 50
0.0
 51
90.0
  0
ARC
  5
513
100
AcDbEntity
  8
0
100
AcDbCircle
 62
7
  6
CONTINUOUS
 10
23.4263355657
 20
57.2123902801
 40
1.3
100
AcDbArc
 50
90.0
 51
180.0
  0
ARC
  5
514
100
AcDbEntity
  8
0
100
AcDbCircle
 62
7
  6
CONTINUOUS
 10
23.4263355657
 20
54.5123902801
 40
1.3
100
AcDbArc
 50
180.0
 51
270.0
  0
ARC
  5
515
100
AcDbEntity
  8
0
100
AcDbCircle
 62
7
  6
CONTINUOUS
 10
24.4263355657
 20
54.5123902801
 40
1.3
100
AcDbArc
 50
270.0
 51
360.0
  0
ARC
  5
516
100
AcDbEntity
  8
0
100
AcDbCircle
 62
7
  6
CONTINUOUS
 10
24.4263355657
 20
57.2123902801
 40
1.3
100
AcDbArc
 50
0.0
 51
90.0
  0
ARC
  5
517
100
AcDbEntity
  8
0
100
AcDbCircle
 62
7
  6
CONTINUOUS
 10
44.8732355657
 20
15.117192582
 40
1.27
100
AcDbArc
 50
319.4641978887
 51
360.0
  0
ARC
  5
518
100
AcDbEntity
  8
0
100
AcDbCircle
 62
7
  6
CONTINUOUS
 10
50.4263355657
 20
46.5123902801
 40
1.3
100
AcDbArc
 50
90.0
 51
180.0
  0
ARC
  5
519
100
AcDbEntity
  8
0
100
AcDbCircle
 62
7
  6
CONTINUOUS
 10
50.4263355657
 20
43.1123902801
 40
1.3
100
AcDbArc
 50
180.0
 51
270.0
  0
ARC
  5
51A
100
AcDbEntity
  8
0
100
AcDbCircle
 62
7
  6
CONTINUOUS
 10
51.4263355657
 20
43.1123902801
 40
1.3
100
AcDbArc
 50
270.0
 51
360.0
  0
ARC
  5
51B
100
AcDbEntity
  8
0
100
AcDbCircle
 62
7
  6
CONTINUOUS
 10
51.4263355657
 20
46.5123902801
 40
1.3
100
AcDbArc
 50
0.0
 51
90.0
  0
ARC
  5
51C
100
AcDbEntity
  8
0
100
AcDbCircle
 62
7
  6
CONTINUOUS
 10
44.4259355657
 20
46.5123902801
 40
1.3
100
AcDbArc
 50
90.0
 51
180.0
  0
ARC
  5
51D
100
AcDbEntity
  8
0
100
AcDbCircle
 62
7
  6
CONTINUOUS
 10
44.4259355657
 20
43.1123902801
 40
1.3
100
AcDbArc
 50
180.0
 51
270.0
  0
ARC
  5
51E
100
AcDbEntity
  8
0
100
AcDbCircle
 62
7
  6
CONTINUOUS
 10
45.4259355657
 20
43.1123902801
 40
1.3
100
AcDbArc
 50
270.0
 51
360.0
  0
ARC
  5
51F
100
AcDbEntity
  8
0
100
AcDbCircle
 62
7
  6
CONTINUOUS
 10
45.4259355657
 20
46.5123902801
 40
1.3
100
AcDbArc
 50
0.0
 51
90.0
  0
ARC
  5
520
100
AcDbEntity
  8
0
100
AcDbCircle
 62
7
  6
CONTINUOUS
 10
38.4263355657
 20
43.1123902801
 40
1.3
100
AcDbArc
 50
270.0
 51
360.0
  0
ARC
  5
521
100
AcDbEntity
  8
0
100
AcDbCircle
 62
7
  6
CONTINUOUS
 10
38.4263355657
 20
46.5123902801
 40
1.3
100
AcDbArc
 50
0.0
 51
90.0
  0
ARC
  5
522
100
AcDbEntity
  8
0
100
AcDbCircle
 62
7
  6
CONTINUOUS
 10
38.4263355657
 20
40.3623902801
 40
1.3
100
AcDbArc
 50
270.0
 51
306.1509245077
  0
ARC
  5
523
100
AcDbEntity
  8
0
100
AcDbCircle
 62
7
  6
CONTINUOUS
 10
44.4263355657
 20
40.3623902801
 40
1.3
100
AcDbArc
 50
233.8490754923
 51
270.0
  0
ARC
  5
524
100
AcDbEntity
  8
0
100
AcDbCircle
 62
7
  6
CONTINUOUS
 10
45.4263355657
 20
40.3623902801
 40
1.3
100
AcDbArc
 50
270.0
 51
306.1509245077
  0
ARC
  5
525
100
AcDbEntity
  8
0
100
AcDbCircle
 62
7
  6
CONTINUOUS
 10
50.4263355657
 20
40.3623902801
 40
1.3
100
AcDbArc
 50
233.8490754923
 51
270.0
  0
ARC
  5
526
100
AcDbEntity
  8
0
100
AcDbCircle
 62
7
  6
CONTINUOUS
 10
51.4263355657
 20
40.3623902801
 40
1.3
100
AcDbArc
 50
270.0
 51
306.1509245077
  0
ARC
  5
527
100
AcDbEntity
  8
0
100
AcDbCircle
 62
7
  6
CONTINUOUS
 10
38.4263355657
 20
40.3623902801
 40
1.2738174026
100
AcDbArc
 50
269.9999999991
 51
304.4830244379
  0
ARC
  5
528
100
AcDbEntity
  8
0
100
AcDbCircle
 62
7
  6
CONTINUOUS
 10
44.4263355657
 20
40.3623902801
 40
1.2738174026
100
AcDbArc
 50
235.5169755621
 51
270.0000000009
  0
ARC
  5
529
100
AcDbEntity
  8
0
100
AcDbCircle
 62
7
  6
CONTINUOUS
 10
45.4263355657
 20
40.3623902801
 40
1.2738174026
100
AcDbArc
 50
269.9999999991
 51
304.4830244379
  0
ARC
  5
52A
100
AcDbEntity
  8
0
100
AcDbCircle
 62
7
  6
CONTINUOUS
 10
50.4263355657
 20
40.3623902801
 40
1.2738174026
100
AcDbArc
 50
235.5169755621
 51
270.0000000009
  0
ARC
  5
52B
100
AcDbEntity
  8
0
100
AcDbCircle
 62
7
  6
CONTINUOUS
 10
51.4263355657
 20
40.3623902801
 40
1.2738174026
100
AcDbArc
 50
269.9999999991
 51
304.4830244379
  0
ARC
  5
52C
100
AcDbEntity
  8
0
100
AcDbCircle
 62
7
  6
CONTINUOUS
 10
52.4263355657
 20
37.0623902801
 40
0.5
100
AcDbArc
 50
0.0
 51
90.0
  0
ARC
  5
52D
100
AcDbEntity
  8
0
100
AcDbCircle
 62
7
  6
CONTINUOUS
 10
60.9263355657
 20
25.2623902801
 40
4.9999999999
100
AcDbArc
 50
270.0
 51
360.0
  0
ARC
  5
52E
100
AcDbEntity
  8
0
100
AcDbCircle
 62
7
  6
CONTINUOUS
 10
60.6763355657
 20
25.5123902801
 40
4.9999999996
100
AcDbArc
 50
270.0
 51
360.0
  0
ARC
  5
52F
100
AcDbEntity
  8
0
100
AcDbCircle
 62
7
  6
CONTINUOUS
 10
60.9263355657
 20
25.2623902801
 40
4.7625387676
100
AcDbArc
 50
270.0
 51
360.0
  0
ARC
  5
530
100
AcDbEntity
  8
0
100
AcDbCircle
 62
7
  6
CONTINUOUS
 10
60.6763355657
 20
25.5123902801
 40
4.2794134312
100
AcDbArc
 50
292.0963899165
 51
360.0
  0
ARC
  5
531
100
AcDbEntity
  8
0
100
AcDbCircle
 62
7
  6
CONTINUOUS
 10
60.6763355657
 20
25.5123902801
 40
3.2800226042
100
AcDbArc
 50
293.8470689818
 51
359.9999999998
  0
CIRCLE
  5
532
100
AcDbEntity
  8
0
100
AcDbCircle
 62
7
  6
CONTINUOUS
 10
61.9263355657
 20
44.2623902801
 40
1.0
  0
CIRCLE
  5
533
100
AcDbEntity
  8
0
100
AcDbCircle
 62
7
  6
CONTINUOUS
 10
61.9263355657
 20
48.2623902801
 40
1.0
  0
CIRCLE
  5
534
100
AcDbEntity
  8
0
100
AcDbCircle
 62
7
  6
CONTINUOUS
 10
61.9263355657
 20
52.2623902801
 40
1.0
  0
CIRCLE
  5
535
100
AcDbEntity
  8
0
100
AcDbCircle
 62
7
  6
CONTINUOUS
 10
58.9263355657
 20
46.2623902801
 40
1.0
  0
CIRCLE
  5
536
100
AcDbEntity
  8
0
100
AcDbCircle
 62
7
  6
CONTINUOUS
 10
58.9263355657
 20
50.2623902801
 40
1.0
  0
ARC
  5
537
100
AcDbEntity
  8
0
100
AcDbCircle
 62
7
  6
CONTINUOUS
 10
67.3263355657
 20
52.7623902801
 40
0.5
100
AcDbArc
 50
0.0
 51
90.0
  0
ARC
  5
538
100
AcDbEntity
  8
0
100
AcDbCircle
 62
7
  6
CONTINUOUS
 10
67.3263355657
 20
43.7623902801
 40
0.5
100
AcDbArc
 50
270.0
 51
360.0
  0
CIRCLE
  5
539
100
AcDbEntity
  8
0
100
AcDbCircle
 62
7
  6
CONTINUOUS
 10
58.9263355657
 20
50.2623902801
 40
0.4999987905
  0
CIRCLE
  5
53A
100
AcDbEntity
  8
0
100
AcDbCircle
 62
7
  6
CONTINUOUS
 10
58.9263355657
 20
46.2623902801
 40
0.4999987905
  0
CIRCLE
  5
53B
100
AcDbEntity
  8
0
100
AcDbCircle
 62
7
  6
CONTINUOUS
 10
61.9263355657
 20
52.2623902801
 40
0.4999987905
  0
CIRCLE
  5
53C
100
AcDbEntity
  8
0
100
AcDbCircle
 62
7
  6
CONTINUOUS
 10
61.9263355657
 20
48.2623902801
 40
0.4999987905
  0
CIRCLE
  5
53D
100
AcDbEntity
  8
0
100
AcDbCircle
 62
7
  6
CONTINUOUS
 10
61.9263355657
 20
44.2623902801
 40
0.4999987905
  0
ARC
  5
53E
100
AcDbEntity
  8
0
100
AcDbCircle
 62
7
  6
CONTINUOUS
 10
57.6229180715
 20
83.2670956666
 40
12.884907601
100
AcDbArc
 50
50.9907567989
 51
52.0684408556
  0
ARC
  5
53F
100
AcDbEntity
  8
0
100
AcDbCircle
 62
7
  6
CONTINUOUS
 10
59.7494391768
 20
87.1787409444
 40
5.179469409
100
AcDbArc
 50
28.7605114103
 51
40.7179762122
  0
ARC
  5
540
100
AcDbEntity
  8
0
100
AcDbCircle
 62
7
  6
CONTINUOUS
 10
59.8378322893
 20
87.2539613948
 40
5.0634046598
100
AcDbArc
 50
40.7253338381
 51
48.5832958696
  0
ARC
  5
541
100
AcDbEntity
  8
0
100
AcDbCircle
 62
7
  6
CONTINUOUS
 10
60.337733311
 20
91.6738275327
 40
5.0045041049
100
AcDbArc
 50
0.0852436815
 51
85.5464589718
  0
ARC
  5
542
100
AcDbEntity
  8
0
100
AcDbCircle
 62
7
  6
CONTINUOUS
 10
59.8780547981
 20
87.2973069281
 40
5.004290858
100
AcDbArc
 50
48.6003462059
 51
49.6098823556
  0
ARC
  5
543
100
AcDbEntity
  8
0
100
AcDbCircle
 62
7
  6
CONTINUOUS
 10
60.9263355657
 20
92.2623902801
 40
4.9999999999
100
AcDbArc
 50
0.0
 51
90.0
  0
ARC
  5
544
100
AcDbEntity
  8
0
100
AcDbCircle
 62
7
  6
CONTINUOUS
 10
60.9263355657
 20
92.2623902801
 40
4.930158461
100
AcDbArc
 50
5.6203797715
 51
6.0211947012
  0
ARC
  5
545
100
AcDbEntity
  8
0
100
AcDbCircle
 62
7
  6
CONTINUOUS
 10
59.9944625947
 20
87.4983293468
 40
4.7704894012
100
AcDbArc
 50
79.1136461382
 51
89.8416819931
  0
ARC
  5
546
100
AcDbEntity
  8
0
100
AcDbCircle
 62
7
  6
CONTINUOUS
 10
60.9263355657
 20
92.2623902801
 40
4.7625387676
100
AcDbArc
 50
14.1917323018
 51
90.0000000004
  0
ARC
  5
547
100
AcDbEntity
  8
0
100
AcDbCircle
 62
7
  6
CONTINUOUS
 10
60.0067402569
 20
87.6447379884
 40
3.7010549393
100
AcDbArc
 50
76.1057791874
 51
89.9860953848
  0
ARC
  5
548
100
AcDbEntity
  8
0
100
AcDbCircle
 62
7
  6
CONTINUOUS
 10
56.6763355657
 20
88.8123902801
 40
1.5
100
AcDbArc
 50
0.0
 51
90.0
  0
ARC
  5
549
100
AcDbEntity
  8
0
100
AcDbCircle
 62
7
  6
CONTINUOUS
 10
56.6763355657
 20
61.3123902801
 40
1.5
100
AcDbArc
 50
270.0
 51
360.0
  0
ARC
  5
54A
100
AcDbEntity
  8
0
100
AcDbCircle
 62
7
  6
CONTINUOUS
 10
56.4263355657
 20
61.5623902801
 40
1.5
100
AcDbArc
 50
270.0
 51
360.0
  0
ARC
  5
54B
100
AcDbEntity
  8
0
100
AcDbCircle
 62
7
  6
CONTINUOUS
 10
56.4263355657
 20
88.5623902801
 40
1.5
100
AcDbArc
 50
0.0
 51
90.0
  0
ARC
  5
54C
100
AcDbEntity
  8
0
100
AcDbCircle
 62
7
  6
CONTINUOUS
 10
51.4263355657
 20
57.2123902801
 40
1.3
100
AcDbArc
 50
90.0
 51
180.0
  0
ARC
  5
54D
100
AcDbEntity
  8
0
100
AcDbCircle
 62
7
  6
CONTINUOUS
 10
51.4263355657
 20
54.5123902801
 40
1.3
100
AcDbArc
 50
180.0
 51
270.0
  0
ARC
  5
54E
100
AcDbEntity
  8
0
100
AcDbCircle
 62
7
  6
CONTINUOUS
 10
52.4263355657
 20
54.5123902801
 40
1.3
100
AcDbArc
 50
270.0
 51
360.0
  0
ARC
  5
54F
100
AcDbEntity
  8
0
100
AcDbCircle
 62
7
  6
CONTINUOUS
 10
52.4263355657
 20
57.2123902801
 40
1.3
100
AcDbArc
 50
0.0
 51
90.0
  0
ARC
  5
550
100
AcDbEntity
  8
0
100
AcDbCircle
 62
7
  6
CONTINUOUS
 10
44.4263355657
 20
57.2123902801
 40
1.3
100
AcDbArc
 50
90.0
 51
180.0
  0
ARC
  5
551
100
AcDbEntity
  8
0
100
AcDbCircle
 62
7
  6
CONTINUOUS
 10
44.4263355657
 20
54.5123902801
 40
1.3
100
AcDbArc
 50
180.0
 51
270.0
  0
ARC
  5
552
100
AcDbEntity
  8
0
100
AcDbCircle
 62
7
  6
CONTINUOUS
 10
45.4263355657
 20
54.5123902801
 40
1.3
100
AcDbArc
 50
270.0
 51
360.0
  0
ARC
  5
553
100
AcDbEntity
  8
0
100
AcDbCircle
 62
7
  6
CONTINUOUS
 10
45.4263355657
 20
57.2123902801
 40
1.3
100
AcDbArc
 50
0.0
 51
90.0
  0
ARC
  5
554
100
AcDbEntity
  8
0
100
AcDbCircle
 62
7
  6
CONTINUOUS
 10
38.4263355657
 20
54.5123902801
 40
1.3
100
AcDbArc
 50
270.0
 51
360.0
  0
ARC
  5
555
100
AcDbEntity
  8
0
100
AcDbCircle
 62
7
  6
CONTINUOUS
 10
38.4263355657
 20
57.2123902801
 40
1.3
100
AcDbArc
 50
0.0
 51
90.0
  0
SPLINE
  5
556
100
AcDbEntity
  8
0
100
AcDbSpline
 62
7
  6
CONTINUOUS
 70
0
 71
3
 72
15
 73
11
 74
0
 42
0.0000001
 43
0.0000001
 44
0.0000000001
 40
0.0
 40
0.0
 40
0.0
 40
0.0
 40
0.1243686146
 40
0.2488579435
 40
0.3734267849
 40
0.49827539
 40
0.6233795227
 40
0.7486916619
 40
0.8743071607
 40
1.0
 40
1.0
 40
1.0
 40
1.0
 10
47.9624233131
 20
13.2459525425
 30
0.0
 10
47.9629105492
 20
13.0471449149
 30
0.0
 10
47.9252236395
 20
12.6482103463
 30
0.0
 10
47.7557738485
 20
12.0721520082
 30
0.0
 10
47.4780614368
 20
11.5385576737
 30
0.0
 10
47.1014848077
 20
11.0682277828
 30
0.0
 10
46.6394941064
 20
10.6795226863
 30
0.0
 10
46.1087604157
 20
10.3887718526
 30
0.0
 10
45.530106285
 20
10.2091960983
 30
0.0
 10
45.1272606134
 20
10.1682818306
 30
0.0
 10
44.9263355658
 20
10.1682442932
 30
0.0
  0
SPLINE
  5
557
100
AcDbEntity
  8
0
100
AcDbSpline
 62
7
  6
CONTINUOUS
 70
0
 71
3
 72
14
 73
10
 74
0
 42
0.0000001
 43
0.0000001
 44
0.0000000001
 40
0.0
 40
0.0
 40
0.0
 40
0.0
 40
0.0798499818
 40
0.1644578973
 40
0.2605236723
 40
0.372514875
 40
0.5027508316
 40
0.6517100726
 40
1.0
 40
1.0
 40
1.0
 40
1.0
 10
15.1263355657
 20
93.6819510521
 30
0.0
 10
15.1263355657
 20
93.6610809909
 30
0.0
 10
15.133624886
 20
93.6177459045
 30
0.0
 10
15.1668708889
 20
93.5571308879
 30
0.0
 10
15.2210262279
 20
93.5020948471
 30
0.0
 10
15.2946891709
 20
93.452449644
 30
0.0
 10
15.3871449728
 20
93.408188633
 30
0.0
 10
15.5417818943
 20
93.3529999906
 30
0.0
 10
15.6687691193
 20
93.3234967575
 30
0.0
 10
15.7581004156
 20
93.305987284
 30
0.0
  0
SPLINE
  5
558
100
AcDbEntity
  8
0
100
AcDbSpline
 62
7
  6
CONTINUOUS
 70
0
 71
3
 72
13
 73
9
 74
0
 42
0.0000001
 43
0.0000001
 44
0.0000000001
 40
0.0
 40
0.0
 40
0.0
 40
0.0
 40
0.1259849951
 40
0.2518586019
 40
0.5017348499
 40
0.7506268984
 40
0.8753593652
 40
1.0
 40
1.0
 40
1.0
 40
1.0
 10
30.9263355657
 20
10.1682442932
 30
0.0
 10
30.7254250828
 20
10.1682818278
 30
0.0
 10
30.3225663123
 20
10.2093386705
 30
0.0
 10
29.5540965314
 20
10.4470725133
 30
0.0
 10
28.7082578374
 20
11.0251487058
 30
0.0
 10
28.1521650062
 20
11.8820485479
 30
0.0
 10
27.9275962931
 20
12.6482880513
 30
0.0
 10
27.8897606843
 20
13.047186528
 30
0.0
 10
27.8902478184
 20
13.2459525425
 30
0.0
  0
SPLINE
  5
559
100
AcDbEntity
  8
0
100
AcDbSpline
 62
7
  6
CONTINUOUS
 70
0
 71
3
 72
14
 73
10
 74
0
 42
0.0000001
 43
0.0000001
 44
0.0000000001
 40
0.0
 40
0.0
 40
0.0
 40
0.0
 40
0.3482916596
 40
0.4972497735
 40
0.6274841899
 40
0.7394770015
 40
0.8355448595
 40
0.9201517745
 40
1.0
 40
1.0
 40
1.0
 40
1.0
 10
60.0945707159
 20
93.305987284
 30
0.0
 10
60.1839022748
 20
93.323496809
 30
0.0
 10
60.3108883706
 20
93.353003611
 30
0.0
 10
60.4655260823
 20
93.408187956
 30
0.0
 10
60.5579820544
 20
93.4524478601
 30
0.0
 10
60.6316438243
 20
93.5020958464
 30
0.0
 10
60.6857975871
 20
93.5571338004
 30
0.0
 10
60.7190453084
 20
93.6177471965
 30
0.0
 10
60.7263355657
 20
93.6610814923
 30
0.0
 10
60.7263355657
 20
93.6819510521
 30
0.0
  0
SPLINE
  5
55A
100
AcDbEntity
  8
0
100
AcDbSpline
 62
7
  6
CONTINUOUS
 70
0
 71
3
 72
9
 73
5
 74
0
 42
0.0000001
 43
0.0000001
 44
0.0000000001
 40
0.0
 40
0.0
 40
0.0
 40
0.0
 40
0.5000765736
 40
1.0
 40
1.0
 40
1.0
 40
1.0
 10
64.2899614671
 20
89.6708405995
 30
0.0
 10
64.507238219
 20
89.275695603
 30
0.0
 10
64.8412932115
 20
88.4263211677
 30
0.0
 10
64.9545802927
 20
87.5213585682
 30
0.0
 10
64.9557489969
 20
87.0705561078
 30
0.0
  0
SPLINE
  5
55B
100
AcDbEntity
  8
0
100
AcDbSpline
 62
7
  6
CONTINUOUS
 70
0
 71
3
 72
9
 73
5
 74
0
 42
0.0000001
 43
0.0000001
 44
0.0000000001
 40
0.0
 40
0.0
 40
0.0
 40
0.0
 40
0.5000843514
 40
1.0
 40
1.0
 40
1.0
 40
1.0
 10
60.8954246864
 20
92.1829676932
 30
0.0
 10
61.3032791322
 20
92.1044226033
 30
0.0
 10
62.1015612508
 20
91.8388391599
 30
0.0
 10
62.8045347864
 20
91.3778765467
 30
0.0
 10
63.1207779328
 20
91.108825479
 30
0.0
  0
SPLINE
  5
55C
100
AcDbEntity
  8
0
100
AcDbSpline
 62
7
  6
CONTINUOUS
 70
0
 71
3
 72
14
 73
10
 74
0
 42
0.0000001
 43
0.0000001
 44
0.0000000001
 40
0.0
 40
0.0
 40
0.0
 40
0.0
 40
0.0221239185
 40
0.0726070836
 40
0.1535680885
 40
0.2649754872
 40
0.4062632964
 40
0.5767283827
 40
1.0
 40
1.0
 40
1.0
 40
1.0
 10
60.7263355657
 20
96.8109526092
 30
0.0
 10
60.7263355657
 20
96.8125962542
 30
0.0
 10
60.7202938834
 20
96.8157779784
 30
0.0
 10
60.7104039937
 20
96.8187329472
 30
0.0
 10
60.6921779859
 20
96.8226452754
 30
0.0
 10
60.6679237897
 20
96.8264071437
 30
0.0
 10
60.63662662
 20
96.8302853727
 30
0.0
 10
60.5823185255
 20
96.8355870954
 30
0.0
 10
60.5382607468
 20
96.8383928166
 30
0.0
 10
60.5068489082
 20
96.8398577577
 30
0.0
  0
SPLINE
  5
55D
100
AcDbEntity
  8
0
100
AcDbSpline
 62
7
  6
CONTINUOUS
 70
0
 71
3
 72
14
 73
10
 74
0
 42
0.0000001
 43
0.0000001
 44
0.0000000001
 40
0.0
 40
0.0
 40
0.0
 40
0.0
 40
0.4232718204
 40
0.593737027
 40
0.7350250213
 40
0.8464325842
 40
0.9273935609
 40
0.9778764317
 40
1.0
 40
1.0
 40
1.0
 40
1.0
 10
15.3458222233
 20
96.8398577577
 30
0.0
 10
15.3144103859
 20
96.8383928167
 30
0.0
 10
15.2703526031
 20
96.8355871054
 30
0.0
 10
15.2160445146
 20
96.8302852309
 30
0.0
 10
15.1847473434
 20
96.8264068272
 30
0.0
 10
15.1604931657
 20
96.8226448408
 30
0.0
 10
15.1422671497
 20
96.818732573
 30
0.0
 10
15.1323772927
 20
96.8157778284
 30
0.0
 10
15.1263355657
 20
96.8125962273
 30
0.0
 10
15.1263355657
 20
96.8109526092
 30
0.0
  0
SPLINE
  5
55E
100
AcDbEntity
  8
0
100
AcDbSpline
 62
7
  6
CONTINUOUS
 70
0
 71
3
 72
11
 73
7
 74
0
 42
0.0000001
 43
0.0000001
 44
0.0000000001
 40
0.0
 40
0.0
 40
0.0
 40
0.0
 40
0.249842437
 40
0.499844637
 40
0.7499241171
 40
1.0
 40
1.0
 40
1.0
 40
1.0
 10
10.8969221345
 20
87.0705561078
 30
0.0
 10
10.8977003418
 20
87.3707295187
 30
0.0
 10
10.9484982009
 20
87.9722757704
 30
0.0
 10
11.1710327819
 20
88.8494990274
 30
0.0
 10
11.5371255432
 20
89.6776063052
 30
0.0
 10
11.8719076055
 20
90.1808973309
 30
0.0
 10
12.0596434066
 20
90.4154786869
 30
0.0
  0
SPLINE
  5
55F
100
AcDbEntity
  8
0
100
AcDbSpline
 62
7
  6
CONTINUOUS
 70
0
 71
3
 72
9
 73
5
 74
0
 42
0.0000001
 43
0.0000001
 44
0.0000000001
 40
0.0
 40
0.0
 40
0.0
 40
0.0
 40
0.4999157131
 40
1.0
 40
1.0
 40
1.0
 40
1.0
 10
12.7318931982
 20
91.1088254782
 30
0.0
 10
13.0481363846
 20
91.3778765818
 30
0.0
 10
13.7511099374
 20
91.8388391679
 30
0.0
 10
14.5493920483
 20
92.1044226366
 30
0.0
 10
14.957246446
 20
92.1829676946
 30
0.0
  0
SPLINE
  5
560
100
AcDbEntity
  8
0
100
AcDbSpline
 62
7
  6
CONTINUOUS
 70
0
 71
3
 72
23
 73
19
 74
0
 42
0.0000001
 43
0.0000001
 44
0.0000000001
 40
0.0
 40
0.0
 40
0.0
 40
0.0
 40
0.130477986
 40
0.1935307164
 40
0.2545954646
 40
0.3132451116
 40
0.3690889866
 40
0.4218774939
 40
0.4725208699
 40
0.4982006453
 40
0.5248034999
 40
0.5530344004
 40
0.5830625988
 40
0.6475430981
 40
0.7160125965
 40
0.786328044
 40
0.8573541721
 40
1.0
 40
1.0
 40
1.0
 40
1.0
 10
13.5665662301
 20
21.5472897768
 30
0.0
 10
13.4858090916
 20
21.5813599932
 30
0.0
 10
13.3686151997
 20
21.6386503286
 30
0.0
 10
13.223322266
 20
21.7291280256
 30
0.0
 10
13.1251246735
 20
21.8031844932
 30
0.0
 10
13.0395417643
 20
21.8847988023
 30
0.0
 10
12.9704415063
 20
21.9741507947
 30
0.0
 10
12.9240598013
 20
22.0718664518
 30
0.0
 10
12.9139484647
 20
22.1604633622
 30
0.0
 10
12.9291419979
 20
22.2285101617
 30
0.0
 10
12.9529788313
 20
22.2776264156
 30
0.0
 10
12.989181884
 20
22.3221943593
 30
0.0
 10
13.0520900641
 20
22.3760591261
 30
0.0
 10
13.1506254579
 20
22.4266676106
 30
0.0
 10
13.2817089346
 20
22.4661043539
 30
0.0
 10
13.420774365
 20
22.4904695016
 30
0.0
 10
13.6107313568
 20
22.5090638831
 30
0.0
 10
13.7544091901
 20
22.5123902801
 30
0.0
 10
13.8502328986
 20
22.5123902801
 30
0.0
  0
SPLINE
  5
561
100
AcDbEntity
  8
0
100
AcDbSpline
 62
7
  6
CONTINUOUS
 70
0
 71
3
 72
18
 73
14
 74
0
 42
0.0000001
 43
0.0000001
 44
0.0000000001
 40
0.0
 40
0.0
 40
0.0
 40
0.0
 40
0.1882268427
 40
0.3704412924
 40
0.5391092432
 40
0.688499123
 40
0.813467054
 40
0.8653524519
 40
0.9094319171
 40
0.9451972197
 40
0.9723406509
 40
0.9906350197
 40
1.0
 40
1.0
 40
1.0
 40
1.0
 10
65.8292951335
 20
92.7795458927
 30
0.0
 10
65.8259382374
 20
92.8113713728
 30
0.0
 10
65.818476133
 20
92.8739180591
 30
0.0
 10
65.8053554175
 20
92.9646419536
 30
0.0
 10
65.790980713
 20
93.0484844898
 30
0.0
 10
65.7763895338
 20
93.122386172
 30
0.0
 10
65.764239217
 20
93.1765188098
 30
0.0
 10
65.755138661
 20
93.2129576213
 30
0.0
 10
65.7493425734
 20
93.2346066658
 30
0.0
 10
65.7442197168
 20
93.2520243899
 30
0.0
 10
65.7399935406
 20
93.2652632207
 30
0.0
 10
65.736512303
 20
93.2737313075
 30
0.0
 10
65.7345053678
 20
93.2782386876
 30
0.0
 10
65.7332684694
 20
93.2792413062
 30
0.0
  0
SPLINE
  5
562
100
AcDbEntity
  8
0
100
AcDbSpline
 62
7
  6
CONTINUOUS
 70
0
 71
3
 72
11
 73
7
 74
0
 42
0.0000001
 43
0.0000001
 44
0.0000000001
 40
0.0
 40
0.0
 40
0.0
 40
0.0
 40
0.1396145866
 40
0.3701478106
 40
0.6674931711
 40
1.0
 40
1.0
 40
1.0
 40
1.0
 10
65.8435681409
 20
92.2623902803
 30
0.0
 10
65.8464659606
 20
92.284706769
 30
0.0
 10
65.8492753647
 20
92.3444101041
 30
0.0
 10
65.8505385076
 20
92.4519665403
 30
0.0
 10
65.8457019343
 20
92.5906341126
 30
0.0
 10
65.8380418723
 20
92.6918970458
 30
0.0
 10
65.8327929179
 20
92.7452346675
 30
0.0
  0
SPLINE
  5
563
100
AcDbEntity
  8
0
100
AcDbSpline
 62
7
  6
CONTINUOUS
 70
0
 71
3
 72
11
 73
7
 74
0
 42
0.0000001
 43
0.0000001
 44
0.0000000001
 40
0.0
 40
0.0
 40
0.0
 40
0.0
 40
0.3325188318
 40
0.6298636326
 40
0.8603884919
 40
1.0
 40
1.0
 40
1.0
 40
1.0
 10
10.0198782136
 20
92.7452346675
 30
0.0
 10
10.0146290697
 20
92.6918951208
 30
0.0
 10
10.0069679323
 20
92.5906303925
 30
0.0
 10
10.0021335568
 20
92.451962259
 30
0.0
 10
10.0033957035
 20
92.3444077603
 30
0.0
 10
10.0062052348
 20
92.2847062768
 30
0.0
 10
10.0091029905
 20
92.2623902803
 30
0.0
  0
SPLINE
  5
564
100
AcDbEntity
  8
0
100
AcDbSpline
 62
7
  6
CONTINUOUS
 70
0
 71
3
 72
20
 73
16
 74
0
 42
0.0000001
 43
0.0000001
 44
0.0000000001
 40
0.0
 40
0.0
 40
0.0
 40
0.0
 40
0.0023147764
 40
0.0066926157
 40
0.022359659
 40
0.0472986735
 40
0.0813292244
 40
0.1241642497
 40
0.1752801023
 40
0.234096284
 40
0.3000322885
 40
0.450771886
 40
0.6220605947
 40
0.8078161856
 40
1.0
 40
1.0
 40
1.0
 40
1.0
 10
10.1164912451
 20
93.2623902801
 30
0.0
 10
10.1160973716
 20
93.2623902801
 30
0.0
 10
10.1151442748
 20
93.2615077222
 30
0.0
 10
10.1132411035
 20
93.2583575791
 30
0.0
 10
10.1102843014
 20
93.2511338372
 30
0.0
 10
10.1062498212
 20
93.2391707455
 30
0.0
 10
10.1013187962
 20
93.2225269718
 30
0.0
 10
10.0956447713
 20
93.2015139452
 30
0.0
 10
10.0893398809
 20
93.1762899933
 30
0.0
 10
10.0825470464
 20
93.1471464483
 30
0.0
 10
10.0725693654
 20
93.1013419672
 30
0.0
 10
10.0598860335
 20
93.0365491156
 30
0.0
 10
10.045457707
 20
92.9513496775
 30
0.0
 10
10.0323293234
 20
92.8588115285
 30
0.0
 10
10.0249132421
 20
92.7949229348
 30
0.0
 10
10.0215967907
 20
92.7623902801
 30
0.0
  0
SPLINE
  5
565
100
AcDbEntity
  8
0
100
AcDbSpline
 62
7
  6
CONTINUOUS
 70
0
 71
3
 72
15
 73
11
 74
0
 42
0.0000001
 43
0.0000001
 44
0.0000000001
 40
0.0
 40
0.0
 40
0.0
 40
0.0
 40
0.1200386515
 40
0.2411215028
 40
0.3636527873
 40
0.4879517541
 40
0.6140341291
 40
0.7417010383
 40
0.8705389161
 40
1.0
 40
1.0
 40
1.0
 40
1.0
 10
65.342172478
 20
91.681273057
 30
0.0
 10
65.3380273857
 20
91.9665002501
 30
0.0
 10
65.2716605007
 20
92.5401876931
 30
0.0
 10
65.0032643493
 20
93.3672249566
 30
0.0
 10
64.5751833014
 20
94.1357833907
 30
0.0
 10
64.0031230175
 20
94.819253687
 30
0.0
 10
63.306925424
 20
95.3947496713
 30
0.0
 10
62.5106168522
 20
95.8432167947
 30
0.0
 10
61.6415909089
 20
96.149857415
 30
0.0
 10
61.0329289627
 20
96.2530328439
 30
0.0
 10
60.7263355657
 20
96.2784913898
 30
0.0
  0
SPLINE
  5
566
100
AcDbEntity
  8
0
100
AcDbSpline
 62
7
  6
CONTINUOUS
 70
0
 71
3
 72
15
 73
11
 74
0
 42
0.0000001
 43
0.0000001
 44
0.0000000001
 40
0.0
 40
0.0
 40
0.0
 40
0.0
 40
0.1208293385
 40
0.2425092241
 40
0.3652310905
 40
0.4893462736
 40
0.6149721836
 40
0.7420747573
 40
0.870513808
 40
1.0
 40
1.0
 40
1.0
 40
1.0
 10
10.5104986535
 20
91.6812730571
 30
0.0
 10
10.5139142954
 20
91.91630617
 30
0.0
 10
10.5601325634
 20
92.3883442278
 30
0.0
 10
10.7444429753
 20
93.0776301441
 30
0.0
 10
11.0400206677
 20
93.7341733106
 30
0.0
 10
11.4393904104
 20
94.3422723374
 30
0.0
 10
11.9330361658
 20
94.888086215
 30
0.0
 10
12.5093673318
 20
95.3590335458
 30
0.0
 10
13.1546665363
 20
95.7442730135
 30
0.0
 10
13.6198217801
 20
95.937725828
 30
0.0
 10
13.8586612095
 20
96.0177801519
 30
0.0
  0
SPLINE
  5
567
100
AcDbEntity
  8
0
100
AcDbSpline
 62
7
  6
CONTINUOUS
 70
0
 71
3
 72
11
 73
7
 74
0
 42
0.0000001
 43
0.0000001
 44
0.0000000001
 40
0.0
 40
0.0
 40
0.0
 40
0.0
 40
0.2492134059
 40
0.4989669808
 40
0.7491814462
 40
1.0
 40
1.0
 40
1.0
 40
1.0
 10
14.3981603398
 20
91.0510689122
 30
0.0
 10
14.1761719405
 20
90.95709112
 30
0.0
 10
13.7490549941
 20
90.7251281903
 30
0.0
 10
13.1834795739
 20
90.2658861558
 30
0.0
 10
12.708766556
 20
89.7114481713
 30
0.0
 10
12.4596237278
 20
89.292620505
 30
0.0
 10
12.3533464104
 20
89.0745224022
 30
0.0
  0
SPLINE
  5
568
100
AcDbEntity
  8
0
100
AcDbSpline
 62
7
  6
CONTINUOUS
 70
0
 71
3
 72
13
 73
9
 74
0
 42
0.0000001
 43
0.0000001
 44
0.0000000001
 40
0.0
 40
0.0
 40
0.0
 40
0.0
 40
0.2508745346
 40
0.5009955045
 40
0.6261210598
 40
0.7509452915
 40
0.8755610882
 40
1.0
 40
1.0
 40
1.0
 40
1.0
 10
63.9563432837
 20
87.0705561065
 30
0.0
 10
63.9562963481
 20
87.5350054013
 30
0.0
 10
63.8175237996
 20
88.4683257284
 30
0.0
 10
63.2972905376
 20
89.5274374943
 30
0.0
 10
62.6958987903
 20
90.236277955
 30
0.0
 10
62.1615749948
 20
90.6840449409
 30
0.0
 10
61.5571602906
 20
91.0285995012
 30
0.0
 10
61.1190804998
 20
91.1820600401
 30
0.0
 10
60.895454611
 20
91.237420086
 30
0.0
  0
SPLINE
  5
569
100
AcDbEntity
  8
0
100
AcDbSpline
 62
7
  6
CONTINUOUS
 70
0
 71
3
 72
23
 73
19
 74
0
 42
0.0000001
 43
0.0000001
 44
0.0000000001
 40
0.0
 40
0.0
 40
0.0
 40
0.0
 40
0.1426458233
 40
0.2136718369
 40
0.2839868762
 40
0.3524564968
 40
0.4169364808
 40
0.4469654259
 40
0.4751954306
 40
0.5017980569
 40
0.5274783363
 40
0.5781214968
 40
0.6309097105
 40
0.6867543546
 40
0.7454041502
 40
0.8064688654
 40
0.8695218189
 40
1.0
 40
1.0
 40
1.0
 40
1.0
 10
62.0024382329
 20
22.5123902801
 30
0.0
 10
62.0982619656
 20
22.5123902801
 30
0.0
 10
62.2419397472
 20
22.5090641356
 30
0.0
 10
62.4318964842
 20
22.490469416
 30
0.0
 10
62.5709613387
 20
22.4661031676
 30
0.0
 10
62.7020450643
 20
22.4266680455
 30
0.0
 10
62.8005793531
 20
22.3760577571
 30
0.0
 10
62.8634902776
 20
22.3221973062
 30
0.0
 10
62.8996948965
 20
22.2776300516
 30
0.0
 10
62.9235248401
 20
22.2285110693
 30
0.0
 10
62.9387220893
 20
22.1604656354
 30
0.0
 10
62.9286127595
 20
22.0718679432
 30
0.0
 10
62.8822332106
 20
21.9741508956
 30
0.0
 10
62.8131298735
 20
21.8848005062
 30
0.0
 10
62.7275473303
 20
21.8031851832
 30
0.0
 10
62.6293493539
 20
21.7291286626
 30
0.0
 10
62.4840565453
 20
21.6386502446
 30
0.0
 10
62.3668621836
 20
21.5813600539
 30
0.0
 10
62.2861049013
 20
21.5472897768
 30
0.0
  0
ELLIPSE
  5
56A
100
AcDbEntity
  8
0
100
AcDbEllipse
 62
7
  6
CONTINUOUS
 10
45.6263355657
 20
93.7207236135
 30
0.0
 11
1.1
 21
0.0
 31
0.0
 40
0.4166666667
 41
-1.5707963268
 42
0.0
  0
ELLIPSE
  5
56B
100
AcDbEntity
  8
0
100
AcDbEllipse
 62
7
  6
CONTINUOUS
 10
44.2263355657
 20
93.7207236135
 30
0.0
 11
1.1
 21
0.0
 31
0.0
 40
0.4166666667
 41
3.1415926536
 42
4.7123889804
  0
ELLIPSE
  5
56C
100
AcDbEntity
  8
0
100
AcDbEllipse
 62
7
  6
CONTINUOUS
 10
60.6732878442
 20
92.0093425586
 30
0.0
 11
-3.539842723
 21
-3.539842723
 31
0.0
 40
0.998782766
 41
2.3568034778
 42
3.9263818294
  0
ELLIPSE
  5
56D
100
AcDbEntity
  8
0
100
AcDbEllipse
 62
7
  6
CONTINUOUS
 10
10.4103047213
 20
43.49696898
 30
0.0
 11
-0.0
 21
1.0
 31
0.0
 40
0.0349207695
 41
3.1764992386
 42
4.7123889804
  0
ELLIPSE
  5
56E
100
AcDbEntity
  8
0
100
AcDbEllipse
 62
7
  6
CONTINUOUS
 10
10.4103047213
 20
53.0278115802
 30
0.0
 11
-0.0
 21
1.0
 31
0.0
 40
0.0349207695
 41
4.7123889804
 42
6.2482787221
  0
ELLIPSE
  5
56F
100
AcDbEntity
  8
0
100
AcDbEllipse
 62
7
  6
CONTINUOUS
 10
10.7909411088
 20
67.7623902801
 30
0.0
 11
0.0
 21
1.0
 31
0.0
 40
0.0349207695
 41
-1.5707963268
 42
0.0
  0
ELLIPSE
  5
570
100
AcDbEntity
  8
0
100
AcDbEllipse
 62
7
  6
CONTINUOUS
 10
10.7909411088
 20
66.1623902801
 30
0.0
 11
0.0
 21
1.0
 31
0.0
 40
0.0349207695
 41
-3.1415926536
 42
-1.5707963268
  0
ELLIPSE
  5
571
100
AcDbEntity
  8
0
100
AcDbEllipse
 62
7
  6
CONTINUOUS
 10
10.7909411088
 20
74.3623902801
 30
0.0
 11
0.0
 21
1.0
 31
0.0
 40
0.0349207695
 41
-1.5707963268
 42
0.0
  0
ELLIPSE
  5
572
100
AcDbEntity
  8
0
100
AcDbEllipse
 62
7
  6
CONTINUOUS
 10
10.7909411088
 20
72.7623902801
 30
0.0
 11
0.0
 21
1.0
 31
0.0
 40
0.0349207695
 41
-3.1415926536
 42
-1.5707963268
  0
ELLIPSE
  5
573
100
AcDbEntity
  8
0
100
AcDbEllipse
 62
7
  6
CONTINUOUS
 10
10.7909411088
 20
36.5623902801
 30
0.0
 11
0.0
 21
1.0
 31
0.0
 40
0.0349207695
 41
-1.5707963268
 42
0.0
  0
ELLIPSE
  5
574
100
AcDbEntity
  8
0
100
AcDbEllipse
 62
7
  6
CONTINUOUS
 10
10.7909411088
 20
34.9623902801
 30
0.0
 11
-0.0
 21
1.0
 31
0.0
 40
0.0349207695
 41
-3.1415926536
 42
-1.5707963268
  0
ELLIPSE
  5
575
100
AcDbEntity
  8
0
100
AcDbEllipse
 62
7
  6
CONTINUOUS
 10
10.7909411088
 20
29.9623902801
 30
0.0
 11
0.0
 21
1.0
 31
0.0
 40
0.0349207695
 41
-1.5707963268
 42
0.0
  0
ELLIPSE
  5
576
100
AcDbEntity
  8
0
100
AcDbEllipse
 62
7
  6
CONTINUOUS
 10
10.7909411088
 20
28.3623902801
 30
0.0
 11
-0.0
 21
1.0
 31
0.0
 40
0.0349207695
 41
-3.1415926536
 42
-1.5707963268
  0
ELLIPSE
  5
577
100
AcDbEntity
  8
0
100
AcDbEllipse
 62
7
  6
CONTINUOUS
 10
10.7909411088
 20
80.9623902801
 30
0.0
 11
0.0
 21
1.0
 31
0.0
 40
0.0349207695
 41
-1.5707963268
 42
0.0
  0
ELLIPSE
  5
578
100
AcDbEntity
  8
0
100
AcDbEllipse
 62
7
  6
CONTINUOUS
 10
10.7909411088
 20
79.3623902801
 30
0.0
 11
0.0
 21
1.0
 31
0.0
 40
0.0349207695
 41
-3.1415926536
 42
-1.5707963268
  0
ELLIPSE
  5
579
100
AcDbEntity
  8
0
100
AcDbEllipse
 62
7
  6
CONTINUOUS
 10
10.7909411088
 20
61.1623902801
 30
0.0
 11
0.0
 21
1.0
 31
0.0
 40
0.0349207695
 41
-1.5707963268
 42
0.0
  0
ELLIPSE
  5
57A
100
AcDbEntity
  8
0
100
AcDbEllipse
 62
7
  6
CONTINUOUS
 10
10.7909411088
 20
59.5623902801
 30
0.0
 11
0.0
 21
1.0
 31
0.0
 40
0.0349207695
 41
-3.1415926536
 42
-1.5707963268
  0
ELLIPSE
  5
57B
100
AcDbEntity
  8
0
100
AcDbEllipse
 62
7
  6
CONTINUOUS
 10
10.583511738
 20
87.5623902801
 30
0.0
 11
-0.0
 21
1.0
 31
0.0
 40
0.0349207695
 41
-1.5707963268
 42
0.0
  0
ELLIPSE
  5
57C
100
AcDbEntity
  8
0
100
AcDbEllipse
 62
7
  6
CONTINUOUS
 10
10.583511738
 20
85.9623902801
 30
0.0
 11
-0.0
 21
1.0
 31
0.0
 40
0.0349207695
 41
-3.1415926536
 42
-1.5707963268
  0
ELLIPSE
  5
57D
100
AcDbEntity
  8
0
100
AcDbEllipse
 62
7
  6
CONTINUOUS
 10
10.7909411088
 20
44.0623902801
 30
0.0
 11
-0.0
 21
1.0
 31
0.0
 40
0.0349207695
 41
-3.1415926536
 42
-1.5707963268
  0
ELLIPSE
  5
57E
100
AcDbEntity
  8
0
100
AcDbEllipse
 62
7
  6
CONTINUOUS
 10
10.7909411088
 20
45.5623902801
 30
0.0
 11
0.0
 21
1.0
 31
0.0
 40
0.0349207695
 41
-1.5707963268
 42
0.0
  0
ELLIPSE
  5
57F
100
AcDbEntity
  8
0
100
AcDbEllipse
 62
7
  6
CONTINUOUS
 10
10.7909411088
 20
50.9623902801
 30
0.0
 11
0.0
 21
1.0
 31
0.0
 40
0.0349207695
 41
-3.1415926536
 42
-1.5707963268
  0
ELLIPSE
  5
580
100
AcDbEntity
  8
0
100
AcDbEllipse
 62
7
  6
CONTINUOUS
 10
10.7909411088
 20
52.4623902801
 30
0.0
 11
0.0
 21
1.0
 31
0.0
 40
0.0349207695
 41
-1.5707963268
 42
0.0
  0
ELLIPSE
  5
581
100
AcDbEntity
  8
0
100
AcDbEllipse
 62
7
  6
CONTINUOUS
 10
15.1793832872
 20
92.0093425586
 30
0.0
 11
3.539842723
 21
-3.539842723
 31
0.0
 40
0.998782766
 41
2.3568034778
 42
3.9263818294
  0
ELLIPSE
  5
582
100
AcDbEntity
  8
0
100
AcDbEllipse
 62
7
  6
CONTINUOUS
 10
31.6263355657
 20
93.7207236135
 30
0.0
 11
1.1
 21
-0.0
 31
0.0
 40
0.4166666667
 41
-1.5707963268
 42
0.0
  0
ELLIPSE
  5
583
100
AcDbEntity
  8
0
100
AcDbEllipse
 62
7
  6
CONTINUOUS
 10
30.2263355657
 20
93.7207236135
 30
0.0
 11
1.1
 21
0.0
 31
0.0
 40
0.4166666667
 41
3.1415926536
 42
4.7123889804
  0
ELLIPSE
  5
584
100
AcDbEntity
  8
0
100
AcDbEllipse
 62
7
  6
CONTINUOUS
 10
24.6263355657
 20
93.7207236135
 30
0.0
 11
1.1
 21
-0.0
 31
0.0
 40
0.4166666667
 41
-1.5707963268
 42
0.0
  0
ELLIPSE
  5
585
100
AcDbEntity
  8
0
100
AcDbEllipse
 62
7
  6
CONTINUOUS
 10
23.2263355657
 20
93.7207236135
 30
0.0
 11
1.1
 21
0.0
 31
0.0
 40
0.4166666667
 41
3.1415926536
 42
4.7123889804
  0
ELLIPSE
  5
586
100
AcDbEntity
  8
0
100
AcDbEllipse
 62
7
  6
CONTINUOUS
 10
17.6263355657
 20
93.7207236135
 30
0.0
 11
1.1
 21
-0.0
 31
0.0
 40
0.4166666667
 41
-1.5707963268
 42
0.0
  0
ELLIPSE
  5
587
100
AcDbEntity
  8
0
100
AcDbEllipse
 62
7
  6
CONTINUOUS
 10
16.2263355657
 20
93.7207236135
 30
0.0
 11
1.1
 21
-0.0
 31
0.0
 40
0.4166666667
 41
-2.010496656
 42
-1.5707963268
  0
ELLIPSE
  5
588
100
AcDbEntity
  8
0
100
AcDbEllipse
 62
7
  6
CONTINUOUS
 10
65.4423664101
 20
53.0278115802
 30
0.0
 11
-0.0
 21
1.0
 31
0.0
 40
0.0349207695
 41
6.3180918922
 42
7.853981634
  0
ELLIPSE
  5
589
100
AcDbEntity
  8
0
100
AcDbEllipse
 62
7
  6
CONTINUOUS
 10
65.4423664101
 20
43.49696898
 30
0.0
 11
-0.0
 21
1.0
 31
0.0
 40
0.0349207695
 41
1.5707963268
 42
3.1066860686
  0
ELLIPSE
  5
58A
100
AcDbEntity
  8
0
100
AcDbEllipse
 62
7
  6
CONTINUOUS
 10
37.2263355657
 20
93.7207236135
 30
0.0
 11
1.1
 21
-0.0
 31
0.0
 40
0.4166666667
 41
3.1415926536
 42
4.7123889804
  0
ELLIPSE
  5
58B
100
AcDbEntity
  8
0
100
AcDbEllipse
 62
7
  6
CONTINUOUS
 10
38.6263355657
 20
93.7207236135
 30
0.0
 11
1.1
 21
-0.0
 31
0.0
 40
0.4166666667
 41
-1.5707963268
 42
0.0
  0
ELLIPSE
  5
58C
100
AcDbEntity
  8
0
100
AcDbEllipse
 62
7
  6
CONTINUOUS
 10
51.2263355657
 20
93.7207236135
 30
0.0
 11
1.1
 21
-0.0
 31
0.0
 40
0.4166666667
 41
3.1415926536
 42
4.7123889804
  0
ELLIPSE
  5
58D
100
AcDbEntity
  8
0
100
AcDbEllipse
 62
7
  6
CONTINUOUS
 10
52.6263355657
 20
93.7207236135
 30
0.0
 11
1.1
 21
-0.0
 31
0.0
 40
0.4166666667
 41
-1.5707963268
 42
0.0
  0
ELLIPSE
  5
58E
100
AcDbEntity
  8
0
100
AcDbEllipse
 62
7
  6
CONTINUOUS
 10
58.2263355657
 20
93.7207236135
 30
0.0
 11
1.1
 21
0.0
 31
0.0
 40
0.4166666667
 41
3.1415926536
 42
4.7123889804
  0
ELLIPSE
  5
58F
100
AcDbEntity
  8
0
100
AcDbEllipse
 62
7
  6
CONTINUOUS
 10
59.6263355657
 20
93.7207236135
 30
0.0
 11
1.1
 21
-0.0
 31
0.0
 40
0.4166666667
 41
-1.5707963268
 42
-1.1310959976
  0
ELLIPSE
  5
590
100
AcDbEntity
  8
0
100
AcDbEllipse
 62
7
  6
CONTINUOUS
 10
10.3509394132
 20
27.2623902801
 30
0.0
 11
0.0
 21
0.5
 31
0.0
 40
0.0349207695
 41
-3.1415926536
 42
-1.5707963268
  0
ELLIPSE
  5
591
100
AcDbEntity
  8
0
100
AcDbEllipse
 62
7
  6
CONTINUOUS
 10
10.3509394132
 20
31.2623902801
 30
0.0
 11
0.0
 21
0.5
 31
0.0
 40
0.0349207695
 41
-1.5707963268
 42
-0.0
  0
ELLIPSE
  5
592
100
AcDbEntity
  8
0
100
AcDbEllipse
 62
7
  6
CONTINUOUS
 10
10.3509394132
 20
78.3623902801
 30
0.0
 11
0.0
 21
0.5
 31
0.0
 40
0.0349207695
 41
-3.1415926536
 42
-1.5707963268
  0
ELLIPSE
  5
593
100
AcDbEntity
  8
0
100
AcDbEllipse
 62
7
  6
CONTINUOUS
 10
10.3509394132
 20
82.1623902801
 30
0.0
 11
0.0
 21
0.5
 31
0.0
 40
0.0349207695
 41
-1.5707963268
 42
-0.0
  0
ELLIPSE
  5
594
100
AcDbEntity
  8
0
100
AcDbEllipse
 62
7
  6
CONTINUOUS
 10
65.5017317183
 20
82.1623902801
 30
0.0
 11
0.0
 21
0.5
 31
0.0
 40
0.0349207695
 41
-0.0
 42
1.5707963268
  0
ELLIPSE
  5
595
100
AcDbEntity
  8
0
100
AcDbEllipse
 62
7
  6
CONTINUOUS
 10
65.5017317183
 20
78.3623902801
 30
0.0
 11
0.0
 21
0.5
 31
0.0
 40
0.0349207695
 41
-4.7123889804
 42
-3.1415926536
  0
ELLIPSE
  5
596
100
AcDbEntity
  8
0
100
AcDbEllipse
 62
7
  6
CONTINUOUS
 10
65.5017317183
 20
31.2623902801
 30
0.0
 11
-0.0
 21
0.5
 31
0.0
 40
0.0349207695
 41
-0.0
 42
1.5707963268
  0
ELLIPSE
  5
597
100
AcDbEntity
  8
0
100
AcDbEllipse
 62
7
  6
CONTINUOUS
 10
65.5017317183
 20
27.2623902801
 30
0.0
 11
0.0
 21
0.5
 31
0.0
 40
0.0349207695
 41
-4.7123889804
 42
-3.1415926536
  0
ELLIPSE
  5
598
100
AcDbEntity
  8
0
100
AcDbEllipse
 62
7
  6
CONTINUOUS
 10
65.0617300227
 20
66.1623902801
 30
0.0
 11
-0.0
 21
1.0
 31
0.0
 40
0.0349207695
 41
1.5707963268
 42
3.1415926536
  0
ELLIPSE
  5
599
100
AcDbEntity
  8
0
100
AcDbEllipse
 62
7
  6
CONTINUOUS
 10
65.0617300227
 20
67.7623902801
 30
0.0
 11
-0.0
 21
1.0
 31
0.0
 40
0.0349207695
 41
-0.0
 42
1.5707963268
  0
ELLIPSE
  5
59A
100
AcDbEntity
  8
0
100
AcDbEllipse
 62
7
  6
CONTINUOUS
 10
65.0617300227
 20
72.7623902801
 30
0.0
 11
0.0
 21
1.0
 31
0.0
 40
0.0349207695
 41
1.5707963268
 42
3.1415926536
  0
ELLIPSE
  5
59B
100
AcDbEntity
  8
0
100
AcDbEllipse
 62
7
  6
CONTINUOUS
 10
65.0617300227
 20
74.3623902801
 30
0.0
 11
-0.0
 21
1.0
 31
0.0
 40
0.0349207695
 41
-0.0
 42
1.5707963268
  0
ELLIPSE
  5
59C
100
AcDbEntity
  8
0
100
AcDbEllipse
 62
7
  6
CONTINUOUS
 10
65.0617300227
 20
34.9623902801
 30
0.0
 11
0.0
 21
1.0
 31
0.0
 40
0.0349207695
 41
1.5707963268
 42
3.1415926536
  0
ELLIPSE
  5
59D
100
AcDbEntity
  8
0
100
AcDbEllipse
 62
7
  6
CONTINUOUS
 10
65.0617300227
 20
36.5623902801
 30
0.0
 11
0.0
 21
1.0
 31
0.0
 40
0.0349207695
 41
-0.0
 42
1.5707963268
  0
ELLIPSE
  5
59E
100
AcDbEntity
  8
0
100
AcDbEllipse
 62
7
  6
CONTINUOUS
 10
65.0617300227
 20
28.3623902801
 30
0.0
 11
0.0
 21
1.0
 31
0.0
 40
0.0349207695
 41
1.5707963268
 42
3.1415926536
  0
ELLIPSE
  5
59F
100
AcDbEntity
  8
0
100
AcDbEllipse
 62
7
  6
CONTINUOUS
 10
65.0617300227
 20
29.9623902801
 30
0.0
 11
0.0
 21
1.0
 31
0.0
 40
0.0349207695
 41
-0.0
 42
1.5707963268
  0
ELLIPSE
  5
5A0
100
AcDbEntity
  8
0
100
AcDbEllipse
 62
7
  6
CONTINUOUS
 10
65.0617300227
 20
79.3623902801
 30
0.0
 11
-0.0
 21
1.0
 31
0.0
 40
0.0349207695
 41
1.5707963268
 42
3.1415926536
  0
ELLIPSE
  5
5A1
100
AcDbEntity
  8
0
100
AcDbEllipse
 62
7
  6
CONTINUOUS
 10
65.0617300227
 20
80.9623902801
 30
0.0
 11
0.0
 21
1.0
 31
0.0
 40
0.0349207695
 41
-0.0
 42
1.5707963268
  0
ELLIPSE
  5
5A2
100
AcDbEntity
  8
0
100
AcDbEllipse
 62
7
  6
CONTINUOUS
 10
65.0617300227
 20
59.5623902801
 30
0.0
 11
-0.0
 21
1.0
 31
0.0
 40
0.0349207695
 41
1.5707963268
 42
3.1415926536
  0
ELLIPSE
  5
5A3
100
AcDbEntity
  8
0
100
AcDbEllipse
 62
7
  6
CONTINUOUS
 10
65.0617300227
 20
61.1623902801
 30
0.0
 11
-0.0
 21
1.0
 31
0.0
 40
0.0349207695
 41
-0.0
 42
1.5707963268
  0
ELLIPSE
  5
5A4
100
AcDbEntity
  8
0
100
AcDbEllipse
 62
7
  6
CONTINUOUS
 10
65.2691593934
 20
85.9623902801
 30
0.0
 11
-0.0
 21
1.0
 31
0.0
 40
0.0349207695
 41
1.5707963268
 42
3.1415926536
  0
ELLIPSE
  5
5A5
100
AcDbEntity
  8
0
100
AcDbEllipse
 62
7
  6
CONTINUOUS
 10
65.2691593934
 20
87.5623902801
 30
0.0
 11
-0.0
 21
1.0
 31
0.0
 40
0.0349207695
 41
0.0
 42
1.5707963268
  0
ELLIPSE
  5
5A6
100
AcDbEntity
  8
0
100
AcDbEllipse
 62
7
  6
CONTINUOUS
 10
65.0617300227
 20
45.5623902801
 30
0.0
 11
0.0
 21
1.0
 31
0.0
 40
0.0349207695
 41
-0.0
 42
1.5707963268
  0
ELLIPSE
  5
5A7
100
AcDbEntity
  8
0
100
AcDbEllipse
 62
7
  6
CONTINUOUS
 10
65.0617300227
 20
44.0623902801
 30
0.0
 11
0.0
 21
1.0
 31
0.0
 40
0.0349207695
 41
1.5707963268
 42
3.1415926536
  0
ELLIPSE
  5
5A8
100
AcDbEntity
  8
0
100
AcDbEllipse
 62
7
  6
CONTINUOUS
 10
65.0617300227
 20
52.4623902801
 30
0.0
 11
-0.0
 21
1.0
 31
0.0
 40
0.0349207695
 41
-0.0
 42
1.5707963268
  0
ELLIPSE
  5
5A9
100
AcDbEntity
  8
0
100
AcDbEllipse
 62
7
  6
CONTINUOUS
 10
65.0617300227
 20
50.9623902801
 30
0.0
 11
0.0
 21
1.0
 31
0.0
 40
0.0349207695
 41
1.5707963268
 42
3.1415926536
  0
ELLIPSE
  5
5AA
100
AcDbEntity
  8
0
100
AcDbEllipse
 62
7
  6
CONTINUOUS
 10
37.2263355657
 20
95.8162244267
 30
0.0
 11
1.1
 21
-0.0
 31
0.0
 40
0.0349207695
 41
1.5707963268
 42
3.1415926536
  0
ELLIPSE
  5
5AB
100
AcDbEntity
  8
0
100
AcDbEllipse
 62
7
  6
CONTINUOUS
 10
38.6263355657
 20
95.8162244267
 30
0.0
 11
1.1
 21
0.0
 31
0.0
 40
0.0349207695
 41
-0.0
 42
1.5707963268
  0
ELLIPSE
  5
5AC
100
AcDbEntity
  8
0
100
AcDbEllipse
 62
7
  6
CONTINUOUS
 10
38.6263355657
 20
96.816833971
 30
0.0
 11
1.1
 21
0.0
 31
0.0
 40
0.0349207695
 41
0.0
 42
1.5707963268
  0
ELLIPSE
  5
5AD
100
AcDbEntity
  8
0
100
AcDbEllipse
 62
7
  6
CONTINUOUS
 10
37.2263355657
 20
96.816833971
 30
0.0
 11
1.1
 21
0.0
 31
0.0
 40
0.0349207695
 41
1.5707963268
 42
3.1415926536
  0
ELLIPSE
  5
5AE
100
AcDbEntity
  8
0
100
AcDbEllipse
 62
7
  6
CONTINUOUS
 10
44.2263355657
 20
95.8162244267
 30
0.0
 11
1.1
 21
0.0
 31
0.0
 40
0.0349207695
 41
1.5707963268
 42
3.1415926536
  0
ELLIPSE
  5
5AF
100
AcDbEntity
  8
0
100
AcDbEllipse
 62
7
  6
CONTINUOUS
 10
45.6263355657
 20
95.8162244267
 30
0.0
 11
1.1
 21
-0.0
 31
0.0
 40
0.0349207695
 41
-0.0
 42
1.5707963268
  0
ELLIPSE
  5
5B0
100
AcDbEntity
  8
0
100
AcDbEllipse
 62
7
  6
CONTINUOUS
 10
44.2263355657
 20
96.816833971
 30
0.0
 11
1.1
 21
-0.0
 31
0.0
 40
0.0349207695
 41
1.5707963268
 42
3.1415926536
  0
ELLIPSE
  5
5B1
100
AcDbEntity
  8
0
100
AcDbEllipse
 62
7
  6
CONTINUOUS
 10
45.6263355657
 20
96.816833971
 30
0.0
 11
1.1
 21
-0.0
 31
0.0
 40
0.0349207695
 41
0.0
 42
1.5707963268
  0
ELLIPSE
  5
5B2
100
AcDbEntity
  8
0
100
AcDbEllipse
 62
7
  6
CONTINUOUS
 10
51.2263355657
 20
95.8162244267
 30
0.0
 11
1.1
 21
0.0
 31
0.0
 40
0.0349207695
 41
1.5707963268
 42
3.1415926536
  0
ELLIPSE
  5
5B3
100
AcDbEntity
  8
0
100
AcDbEllipse
 62
7
  6
CONTINUOUS
 10
52.6263355657
 20
95.8162244267
 30
0.0
 11
1.1
 21
-0.0
 31
0.0
 40
0.0349207695
 41
-0.0
 42
1.5707963268
  0
ELLIPSE
  5
5B4
100
AcDbEntity
  8
0
100
AcDbEllipse
 62
7
  6
CONTINUOUS
 10
51.2263355657
 20
96.816833971
 30
0.0
 11
1.1
 21
0.0
 31
0.0
 40
0.0349207695
 41
1.5707963268
 42
3.1415926536
  0
ELLIPSE
  5
5B5
100
AcDbEntity
  8
0
100
AcDbEllipse
 62
7
  6
CONTINUOUS
 10
52.6263355657
 20
96.816833971
 30
0.0
 11
1.1
 21
0.0
 31
0.0
 40
0.0349207695
 41
0.0
 42
1.5707963268
  0
ELLIPSE
  5
5B6
100
AcDbEntity
  8
0
100
AcDbEllipse
 62
7
  6
CONTINUOUS
 10
58.2263355657
 20
95.8162244267
 30
0.0
 11
1.1
 21
0.0
 31
0.0
 40
0.0349207695
 41
1.5707963268
 42
3.1415926536
  0
ELLIPSE
  5
5B7
100
AcDbEntity
  8
0
100
AcDbEllipse
 62
7
  6
CONTINUOUS
 10
59.6263355657
 20
95.8162244267
 30
0.0
 11
1.1
 21
0.0
 31
0.0
 40
0.0349207695
 41
-0.0
 42
1.5707963268
  0
ELLIPSE
  5
5B8
100
AcDbEntity
  8
0
100
AcDbEllipse
 62
7
  6
CONTINUOUS
 10
59.6263355657
 20
96.816833971
 30
0.0
 11
1.1
 21
0.0
 31
0.0
 40
0.0349207695
 41
0.6427229134
 42
1.5707963268
  0
ELLIPSE
  5
5B9
100
AcDbEntity
  8
0
100
AcDbEllipse
 62
7
  6
CONTINUOUS
 10
58.2263355657
 20
96.816833971
 30
0.0
 11
1.1
 21
-0.0
 31
0.0
 40
0.0349207695
 41
1.5707963268
 42
3.1415926536
  0
ELLIPSE
  5
5BA
100
AcDbEntity
  8
0
100
AcDbEllipse
 62
7
  6
CONTINUOUS
 10
10.3683997979
 20
67.7623902801
 30
0.0
 11
-0.0
 21
1.0
 31
0.0
 40
0.0349207695
 41
0.0
 42
1.5707963268
  0
ELLIPSE
  5
5BB
100
AcDbEntity
  8
0
100
AcDbEllipse
 62
7
  6
CONTINUOUS
 10
10.3683997979
 20
66.1623902801
 30
0.0
 11
-0.0
 21
1.0
 31
0.0
 40
0.0349207695
 41
1.5707963268
 42
3.1415926536
  0
ELLIPSE
  5
5BC
100
AcDbEntity
  8
0
100
AcDbEllipse
 62
7
  6
CONTINUOUS
 10
10.3683997979
 20
74.3623902801
 30
0.0
 11
-0.0
 21
1.0
 31
0.0
 40
0.0349207695
 41
0.0
 42
1.5707963268
  0
ELLIPSE
  5
5BD
100
AcDbEntity
  8
0
100
AcDbEllipse
 62
7
  6
CONTINUOUS
 10
10.3683997979
 20
72.7623902801
 30
0.0
 11
0.0
 21
1.0
 31
0.0
 40
0.0349207695
 41
1.5707963268
 42
3.1415926536
  0
ELLIPSE
  5
5BE
100
AcDbEntity
  8
0
100
AcDbEllipse
 62
7
  6
CONTINUOUS
 10
10.3683997979
 20
36.5623902801
 30
0.0
 11
0.0
 21
1.0
 31
0.0
 40
0.0349207695
 41
0.0
 42
1.5707963268
  0
ELLIPSE
  5
5BF
100
AcDbEntity
  8
0
100
AcDbEllipse
 62
7
  6
CONTINUOUS
 10
10.3683997979
 20
34.9623902801
 30
0.0
 11
0.0
 21
1.0
 31
0.0
 40
0.0349207695
 41
1.5707963268
 42
3.1415926536
  0
ELLIPSE
  5
5C0
100
AcDbEntity
  8
0
100
AcDbEllipse
 62
7
  6
CONTINUOUS
 10
10.4941145681
 20
29.9623902801
 30
0.0
 11
0.0
 21
1.0
 31
0.0
 40
0.0349207695
 41
0.0
 42
1.5707963268
  0
ELLIPSE
  5
5C1
100
AcDbEntity
  8
0
100
AcDbEllipse
 62
7
  6
CONTINUOUS
 10
10.4941145681
 20
28.3623902801
 30
0.0
 11
-0.0
 21
1.0
 31
0.0
 40
0.0349207695
 41
1.5707963268
 42
3.1415926536
  0
ELLIPSE
  5
5C2
100
AcDbEntity
  8
0
100
AcDbEllipse
 62
7
  6
CONTINUOUS
 10
10.4941145681
 20
80.9623902801
 30
0.0
 11
0.0
 21
1.0
 31
0.0
 40
0.0349207695
 41
0.0
 42
1.5707963268
  0
ELLIPSE
  5
5C3
100
AcDbEntity
  8
0
100
AcDbEllipse
 62
7
  6
CONTINUOUS
 10
10.4941145681
 20
79.3623902801
 30
0.0
 11
-0.0
 21
1.0
 31
0.0
 40
0.0349207695
 41
1.5707963268
 42
3.1415926536
  0
ELLIPSE
  5
5C4
100
AcDbEntity
  8
0
100
AcDbEllipse
 62
7
  6
CONTINUOUS
 10
10.3683997979
 20
61.1623902801
 30
0.0
 11
-0.0
 21
1.0
 31
0.0
 40
0.0349207695
 41
0.0
 42
1.5707963268
  0
ELLIPSE
  5
5C5
100
AcDbEntity
  8
0
100
AcDbEllipse
 62
7
  6
CONTINUOUS
 10
10.3683997979
 20
59.5623902801
 30
0.0
 11
0.0
 21
1.0
 31
0.0
 40
0.0349207695
 41
1.5707963268
 42
3.1415926536
  0
ELLIPSE
  5
5C6
100
AcDbEntity
  8
0
100
AcDbEllipse
 62
7
  6
CONTINUOUS
 10
10.3683997979
 20
87.5623902801
 30
0.0
 11
0.0
 21
1.0
 31
0.0
 40
0.0349207695
 41
0.0
 42
1.5707963268
  0
ELLIPSE
  5
5C7
100
AcDbEntity
  8
0
100
AcDbEllipse
 62
7
  6
CONTINUOUS
 10
10.3683997979
 20
85.9623902801
 30
0.0
 11
0.0
 21
1.0
 31
0.0
 40
0.0349207695
 41
1.5707963268
 42
3.1415926536
  0
ELLIPSE
  5
5C8
100
AcDbEntity
  8
0
100
AcDbEllipse
 62
7
  6
CONTINUOUS
 10
10.5814164918
 20
45.5623902801
 30
0.0
 11
-0.0
 21
1.0
 31
0.0
 40
0.0349207695
 41
0.0
 42
1.5707963268
  0
ELLIPSE
  5
5C9
100
AcDbEntity
  8
0
100
AcDbEllipse
 62
7
  6
CONTINUOUS
 10
10.5814164918
 20
44.0623902801
 30
0.0
 11
-0.0
 21
1.0
 31
0.0
 40
0.0349207695
 41
1.5707963268
 42
3.1415926536
  0
ELLIPSE
  5
5CA
100
AcDbEntity
  8
0
100
AcDbEllipse
 62
7
  6
CONTINUOUS
 10
10.5814164918
 20
52.4623902801
 30
0.0
 11
-0.0
 21
1.0
 31
0.0
 40
0.0349207695
 41
0.0
 42
1.5707963268
  0
ELLIPSE
  5
5CB
100
AcDbEntity
  8
0
100
AcDbEllipse
 62
7
  6
CONTINUOUS
 10
10.5814164918
 20
50.9623902801
 30
0.0
 11
0.0
 21
1.0
 31
0.0
 40
0.0349207695
 41
1.5707963268
 42
3.1415926536
  0
ELLIPSE
  5
5CC
100
AcDbEntity
  8
0
100
AcDbEllipse
 62
7
  6
CONTINUOUS
 10
16.2263355657
 20
96.816833971
 30
0.0
 11
1.1
 21
0.0
 31
0.0
 40
0.0349207695
 41
1.5707963268
 42
2.4988697402
  0
ELLIPSE
  5
5CD
100
AcDbEntity
  8
0
100
AcDbEllipse
 62
7
  6
CONTINUOUS
 10
16.2263355657
 20
95.8162244267
 30
0.0
 11
1.1
 21
-0.0
 31
0.0
 40
0.0349207695
 41
1.5707963268
 42
3.1415926536
  0
ELLIPSE
  5
5CE
100
AcDbEntity
  8
0
100
AcDbEllipse
 62
7
  6
CONTINUOUS
 10
17.6263355657
 20
95.8162244267
 30
0.0
 11
1.1
 21
-0.0
 31
0.0
 40
0.0349207695
 41
-0.0
 42
1.5707963268
  0
ELLIPSE
  5
5CF
100
AcDbEntity
  8
0
100
AcDbEllipse
 62
7
  6
CONTINUOUS
 10
17.6263355657
 20
96.816833971
 30
0.0
 11
1.1
 21
-0.0
 31
0.0
 40
0.0349207695
 41
0.0
 42
1.5707963268
  0
ELLIPSE
  5
5D0
100
AcDbEntity
  8
0
100
AcDbEllipse
 62
7
  6
CONTINUOUS
 10
23.2263355657
 20
95.8162244267
 30
0.0
 11
1.1
 21
-0.0
 31
0.0
 40
0.0349207695
 41
1.5707963268
 42
3.1415926536
  0
ELLIPSE
  5
5D1
100
AcDbEntity
  8
0
100
AcDbEllipse
 62
7
  6
CONTINUOUS
 10
24.6263355657
 20
95.8162244267
 30
0.0
 11
1.1
 21
-0.0
 31
0.0
 40
0.0349207695
 41
-0.0
 42
1.5707963268
  0
ELLIPSE
  5
5D2
100
AcDbEntity
  8
0
100
AcDbEllipse
 62
7
  6
CONTINUOUS
 10
23.2263355657
 20
96.816833971
 30
0.0
 11
1.1
 21
-0.0
 31
0.0
 40
0.0349207695
 41
1.5707963268
 42
3.1415926536
  0
ELLIPSE
  5
5D3
100
AcDbEntity
  8
0
100
AcDbEllipse
 62
7
  6
CONTINUOUS
 10
24.6263355657
 20
96.816833971
 30
0.0
 11
1.1
 21
-0.0
 31
0.0
 40
0.0349207695
 41
0.0
 42
1.5707963268
  0
ELLIPSE
  5
5D4
100
AcDbEntity
  8
0
100
AcDbEllipse
 62
7
  6
CONTINUOUS
 10
30.2263355657
 20
95.8162244267
 30
0.0
 11
1.1
 21
-0.0
 31
0.0
 40
0.0349207695
 41
1.5707963268
 42
3.1415926536
  0
ELLIPSE
  5
5D5
100
AcDbEntity
  8
0
100
AcDbEllipse
 62
7
  6
CONTINUOUS
 10
31.6263355657
 20
95.8162244267
 30
0.0
 11
1.1
 21
0.0
 31
0.0
 40
0.0349207695
 41
-0.0
 42
1.5707963268
  0
ELLIPSE
  5
5D6
100
AcDbEntity
  8
0
100
AcDbEllipse
 62
7
  6
CONTINUOUS
 10
31.6263355657
 20
96.816833971
 30
0.0
 11
1.1
 21
0.0
 31
0.0
 40
0.0349207695
 41
0.0
 42
1.5707963268
  0
ELLIPSE
  5
5D7
100
AcDbEntity
  8
0
100
AcDbEllipse
 62
7
  6
CONTINUOUS
 10
30.2263355657
 20
96.816833971
 30
0.0
 11
1.1
 21
0.0
 31
0.0
 40
0.0349207695
 41
1.5707963268
 42
3.1415926536
  0
ELLIPSE
  5
5D8
100
AcDbEntity
  8
0
100
AcDbEllipse
 62
7
  6
CONTINUOUS
 10
15.1763355657
 20
25.3676085968
 30
0.0
 11
0.0
 21
4.1460049589
 31
0.0
 40
0.9993900839
 41
-3.5406033624
 42
-3.1415926536
  0
ELLIPSE
  5
5D9
100
AcDbEntity
  8
0
100
AcDbEllipse
 62
7
  6
CONTINUOUS
 10
17.3617899075
 20
38.8123902801
 30
0.0
 11
-0.0
 21
0.5
 31
0.0
 40
0.500076164
 41
0.1758636832
 42
0.2614151907
  0
ELLIPSE
  5
5DA
100
AcDbEntity
  8
0
100
AcDbEllipse
 62
7
  6
CONTINUOUS
 10
17.4264117297
 20
38.8123902801
 30
0.0
 11
0.500076164
 21
0.0
 31
0.0
 40
0.9998476952
 41
1.8322115175
 42
3.1415926536
  0
ELLIPSE
  5
5DB
100
AcDbEntity
  8
0
100
AcDbEllipse
 62
7
  6
CONTINUOUS
 10
17.0493823273
 20
38.8123902801
 30
0.0
 11
-0.500076164
 21
0.0
 31
0.0
 40
0.9998476952
 41
-1.5707963268
 42
0.0
  0
ELLIPSE
  5
5DC
100
AcDbEntity
  8
0
100
AcDbEllipse
 62
7
  6
CONTINUOUS
 10
65.839033642
 20
92.7452346675
 30
0.0
 11
-0.0
 21
0.5
 31
0.0
 40
0.0349207695
 41
-3.1066860683
 42
-2.8788789291
  0
ELLIPSE
  5
5DD
100
AcDbEntity
  8
0
100
AcDbEllipse
 62
7
  6
CONTINUOUS
 10
65.839033642
 20
86.7452346675
 30
0.0
 11
0.0
 21
0.5
 31
0.0
 40
0.0349207695
 41
-3.1066860685
 42
-1.5707963268
  0
ELLIPSE
  5
5DE
100
AcDbEntity
  8
0
100
AcDbEllipse
 62
7
  6
CONTINUOUS
 10
65.839033642
 20
86.7795458927
 30
0.0
 11
0.0
 21
0.5
 31
0.0
 40
0.0349207695
 41
-1.5707963268
 42
-0.0349065851
  0
ELLIPSE
  5
5DF
100
AcDbEntity
  8
0
100
AcDbEllipse
 62
7
  6
CONTINUOUS
 10
58.8032888041
 20
38.8123902801
 30
0.0
 11
0.500076164
 21
0.0
 31
0.0
 40
0.9998476952
 41
-0.0
 42
1.5707963268
  0
ELLIPSE
  5
5E0
100
AcDbEntity
  8
0
100
AcDbEllipse
 62
7
  6
CONTINUOUS
 10
58.4262594017
 20
38.8123902801
 30
0.0
 11
0.500076164
 21
-0.0
 31
0.0
 40
0.9998476952
 41
-0.0
 42
1.3093811361
  0
ELLIPSE
  5
5E1
100
AcDbEntity
  8
0
100
AcDbEllipse
 62
7
  6
CONTINUOUS
 10
10.0136374895
 20
92.7452346675
 30
0.0
 11
0.0
 21
0.5
 31
0.0
 40
0.0349207695
 41
-3.4043063781
 42
-3.1764992388
  0
ELLIPSE
  5
5E2
100
AcDbEntity
  8
0
100
AcDbEllipse
 62
7
  6
CONTINUOUS
 10
10.0136374895
 20
86.7795458927
 30
0.0
 11
-0.0
 21
0.5
 31
0.0
 40
0.0349207695
 41
0.0349065851
 42
1.5707963268
  0
ELLIPSE
  5
5E3
100
AcDbEntity
  8
0
100
AcDbEllipse
 62
7
  6
CONTINUOUS
 10
10.0136374895
 20
86.7623902801
 30
0.0
 11
0.0
 21
0.5
 31
0.0
 40
0.0349207695
 41
1.5707963268
 42
3.1415926536
  0
ELLIPSE
  5
5E4
100
AcDbEntity
  8
0
100
AcDbEllipse
 62
7
  6
CONTINUOUS
 10
10.4187184156
 20
43.6623902801
 30
0.0
 11
0.0
 21
0.4
 31
0.0
 40
0.0349207695
 41
-3.1415926536
 42
-1.5707963268
  0
ELLIPSE
  5
5E5
100
AcDbEntity
  8
0
100
AcDbEllipse
 62
7
  6
CONTINUOUS
 10
10.4187184156
 20
52.8623902801
 30
0.0
 11
-0.0
 21
0.4
 31
0.0
 40
0.0349207695
 41
-1.5707963268
 42
0.0
  0
ELLIPSE
  5
5E6
100
AcDbEntity
  8
0
100
AcDbEllipse
 62
7
  6
CONTINUOUS
 10
10.0136374895
 20
39.2623902801
 30
0.0
 11
0.0
 21
0.5
 31
0.0
 40
0.0349207695
 41
-0.0
 42
1.5707963268
  0
ELLIPSE
  5
5E7
100
AcDbEntity
  8
0
100
AcDbEllipse
 62
7
  6
CONTINUOUS
 10
10.0136374895
 20
39.2452346675
 30
0.0
 11
0.0
 21
0.5
 31
0.0
 40
0.0349207695
 41
1.5707963268
 42
3.1066860685
  0
ELLIPSE
  5
5E8
100
AcDbEntity
  8
0
100
AcDbEllipse
 62
7
  6
CONTINUOUS
 10
10.0136374895
 20
33.2795458927
 30
0.0
 11
-0.0
 21
0.5
 31
0.0
 40
0.0349207695
 41
0.0349065851
 42
1.5707963268
  0
ELLIPSE
  5
5E9
100
AcDbEntity
  8
0
100
AcDbEllipse
 62
7
  6
CONTINUOUS
 10
10.0136374895
 20
33.2623902801
 30
0.0
 11
0.0
 21
0.5
 31
0.0
 40
0.0349207695
 41
1.5707963268
 42
3.1415926536
  0
ELLIPSE
  5
5EA
100
AcDbEntity
  8
0
100
AcDbEllipse
 62
7
  6
CONTINUOUS
 10
65.839033642
 20
33.2452346675
 30
0.0
 11
-0.0
 21
0.5
 31
0.0
 40
0.0349207695
 41
-3.1066860685
 42
-1.5707963268
  0
ELLIPSE
  5
5EB
100
AcDbEntity
  8
0
100
AcDbEllipse
 62
7
  6
CONTINUOUS
 10
65.839033642
 20
33.2795458927
 30
0.0
 11
-0.0
 21
0.5
 31
0.0
 40
0.0349207695
 41
-1.5707963268
 42
-0.0349065851
  0
ELLIPSE
  5
5EC
100
AcDbEntity
  8
0
100
AcDbEllipse
 62
7
  6
CONTINUOUS
 10
65.839033642
 20
39.2452346675
 30
0.0
 11
0.0
 21
0.5
 31
0.0
 40
0.0349207695
 41
-3.1066860685
 42
-1.5707963268
  0
ELLIPSE
  5
5ED
100
AcDbEntity
  8
0
100
AcDbEllipse
 62
7
  6
CONTINUOUS
 10
65.839033642
 20
39.2795458927
 30
0.0
 11
-0.0
 21
0.5
 31
0.0
 40
0.0349207695
 41
-1.5707963268
 42
-0.0349065851
  0
ELLIPSE
  5
5EE
100
AcDbEntity
  8
0
100
AcDbEllipse
 62
7
  6
CONTINUOUS
 10
10.2985582589
 20
27.2623902801
 30
0.0
 11
0.0
 21
0.5
 31
0.0
 40
0.0349207695
 41
-4.7123889804
 42
-3.1415926536
  0
ELLIPSE
  5
5EF
100
AcDbEntity
  8
0
100
AcDbEllipse
 62
7
  6
CONTINUOUS
 10
10.2985582589
 20
31.2623902801
 30
0.0
 11
0.0
 21
0.5
 31
0.0
 40
0.0349207695
 41
0.0
 42
1.5707963268
  0
ELLIPSE
  5
5F0
100
AcDbEntity
  8
0
100
AcDbEllipse
 62
7
  6
CONTINUOUS
 10
10.2985582589
 20
82.1623902801
 30
0.0
 11
0.0
 21
0.5
 31
0.0
 40
0.0349207695
 41
0.0
 42
1.5707963268
  0
ELLIPSE
  5
5F1
100
AcDbEntity
  8
0
100
AcDbEllipse
 62
7
  6
CONTINUOUS
 10
10.2985582589
 20
78.3623902801
 30
0.0
 11
0.0
 21
0.5
 31
0.0
 40
0.0349207695
 41
-4.7123889804
 42
-3.1415926536
  0
ELLIPSE
  5
5F2
100
AcDbEntity
  8
0
100
AcDbEllipse
 62
7
  6
CONTINUOUS
 10
65.5541128725
 20
78.3623902801
 30
0.0
 11
0.0
 21
0.5
 31
0.0
 40
0.0349207695
 41
-3.1415926536
 42
-1.5707963268
  0
ELLIPSE
  5
5F3
100
AcDbEntity
  8
0
100
AcDbEllipse
 62
7
  6
CONTINUOUS
 10
65.5541128725
 20
82.1623902801
 30
0.0
 11
0.0
 21
0.5
 31
0.0
 40
0.0349207695
 41
-1.5707963268
 42
0.0
  0
ELLIPSE
  5
5F4
100
AcDbEntity
  8
0
100
AcDbEllipse
 62
7
  6
CONTINUOUS
 10
65.5541128725
 20
31.2623902801
 30
0.0
 11
0.0
 21
0.5
 31
0.0
 40
0.0349207695
 41
-1.5707963268
 42
0.0
  0
ELLIPSE
  5
5F5
100
AcDbEntity
  8
0
100
AcDbEllipse
 62
7
  6
CONTINUOUS
 10
65.5541128725
 20
27.2623902801
 30
0.0
 11
0.0
 21
0.5
 31
0.0
 40
0.0349207695
 41
-3.1415926536
 42
-1.5707963268
  0
ELLIPSE
  5
5F6
100
AcDbEntity
  8
0
100
AcDbEllipse
 62
7
  6
CONTINUOUS
 10
65.4842713335
 20
66.1623902801
 30
0.0
 11
0.0
 21
1.0
 31
0.0
 40
0.0349207695
 41
-3.1415926536
 42
-1.5707963268
  0
ELLIPSE
  5
5F7
100
AcDbEntity
  8
0
100
AcDbEllipse
 62
7
  6
CONTINUOUS
 10
65.4842713335
 20
67.7623902801
 30
0.0
 11
0.0
 21
1.0
 31
0.0
 40
0.0349207695
 41
-1.5707963268
 42
-0.0
  0
ELLIPSE
  5
5F8
100
AcDbEntity
  8
0
100
AcDbEllipse
 62
7
  6
CONTINUOUS
 10
65.4842713335
 20
72.7623902801
 30
0.0
 11
-0.0
 21
1.0
 31
0.0
 40
0.0349207695
 41
-3.1415926536
 42
-1.5707963268
  0
ELLIPSE
  5
5F9
100
AcDbEntity
  8
0
100
AcDbEllipse
 62
7
  6
CONTINUOUS
 10
65.4842713335
 20
74.3623902801
 30
0.0
 11
0.0
 21
1.0
 31
0.0
 40
0.0349207695
 41
-1.5707963268
 42
-0.0
  0
ELLIPSE
  5
5FA
100
AcDbEntity
  8
0
100
AcDbEllipse
 62
7
  6
CONTINUOUS
 10
65.4842713335
 20
34.9623902801
 30
0.0
 11
0.0
 21
1.0
 31
0.0
 40
0.0349207695
 41
-3.1415926536
 42
-1.5707963268
  0
ELLIPSE
  5
5FB
100
AcDbEntity
  8
0
100
AcDbEllipse
 62
7
  6
CONTINUOUS
 10
65.4842713335
 20
36.5623902801
 30
0.0
 11
-0.0
 21
1.0
 31
0.0
 40
0.0349207695
 41
-1.5707963268
 42
-0.0
  0
ELLIPSE
  5
5FC
100
AcDbEntity
  8
0
100
AcDbEllipse
 62
7
  6
CONTINUOUS
 10
65.3585565633
 20
28.3623902801
 30
0.0
 11
-0.0
 21
1.0
 31
0.0
 40
0.0349207695
 41
-3.1415926536
 42
-1.5707963268
  0
ELLIPSE
  5
5FD
100
AcDbEntity
  8
0
100
AcDbEllipse
 62
7
  6
CONTINUOUS
 10
65.3585565633
 20
29.9623902801
 30
0.0
 11
0.0
 21
1.0
 31
0.0
 40
0.0349207695
 41
-1.5707963268
 42
-0.0
  0
ELLIPSE
  5
5FE
100
AcDbEntity
  8
0
100
AcDbEllipse
 62
7
  6
CONTINUOUS
 10
65.3585565633
 20
79.3623902801
 30
0.0
 11
-0.0
 21
1.0
 31
0.0
 40
0.0349207695
 41
-3.1415926536
 42
-1.5707963268
  0
ELLIPSE
  5
5FF
100
AcDbEntity
  8
0
100
AcDbEllipse
 62
7
  6
CONTINUOUS
 10
65.3585565633
 20
80.9623902801
 30
0.0
 11
0.0
 21
1.0
 31
0.0
 40
0.0349207695
 41
-1.5707963268
 42
-0.0
  0
ELLIPSE
  5
600
100
AcDbEntity
  8
0
100
AcDbEllipse
 62
7
  6
CONTINUOUS
 10
65.4842713335
 20
59.5623902801
 30
0.0
 11
0.0
 21
1.0
 31
0.0
 40
0.0349207695
 41
-3.1415926536
 42
-1.5707963268
  0
ELLIPSE
  5
601
100
AcDbEntity
  8
0
100
AcDbEllipse
 62
7
  6
CONTINUOUS
 10
65.4842713335
 20
61.1623902801
 30
0.0
 11
0.0
 21
1.0
 31
0.0
 40
0.0349207695
 41
-1.5707963268
 42
-0.0
  0
ELLIPSE
  5
602
100
AcDbEntity
  8
0
100
AcDbEllipse
 62
7
  6
CONTINUOUS
 10
65.4842713335
 20
85.9623902801
 30
0.0
 11
-0.0
 21
1.0
 31
0.0
 40
0.0349207695
 41
-3.1415926536
 42
-1.5707963268
  0
ELLIPSE
  5
603
100
AcDbEntity
  8
0
100
AcDbEllipse
 62
7
  6
CONTINUOUS
 10
65.4842713335
 20
87.5623902801
 30
0.0
 11
-0.0
 21
1.0
 31
0.0
 40
0.0349207695
 41
-1.5707963268
 42
-0.0
  0
ELLIPSE
  5
604
100
AcDbEntity
  8
0
100
AcDbEllipse
 62
7
  6
CONTINUOUS
 10
65.2712546396
 20
44.0623902801
 30
0.0
 11
0.0
 21
1.0
 31
0.0
 40
0.0349207695
 41
-3.1415926536
 42
-1.5707963268
  0
ELLIPSE
  5
605
100
AcDbEntity
  8
0
100
AcDbEllipse
 62
7
  6
CONTINUOUS
 10
65.2712546396
 20
45.5623902801
 30
0.0
 11
0.0
 21
1.0
 31
0.0
 40
0.0349207695
 41
-1.5707963268
 42
0.0
  0
ELLIPSE
  5
606
100
AcDbEntity
  8
0
100
AcDbEllipse
 62
7
  6
CONTINUOUS
 10
65.2712546396
 20
50.9623902801
 30
0.0
 11
0.0
 21
1.0
 31
0.0
 40
0.0349207695
 41
-3.1415926536
 42
-1.5707963268
  0
ELLIPSE
  5
607
100
AcDbEntity
  8
0
100
AcDbEllipse
 62
7
  6
CONTINUOUS
 10
65.2712546396
 20
52.4623902801
 30
0.0
 11
0.0
 21
1.0
 31
0.0
 40
0.0349207695
 41
-1.5707963268
 42
0.0
  0
ELLIPSE
  5
608
100
AcDbEntity
  8
0
100
AcDbEllipse
 62
7
  6
CONTINUOUS
 10
60.6763355657
 20
25.3676085968
 30
0.0
 11
0.0
 21
4.1460049589
 31
0.0
 40
0.9993900839
 41
-3.1415926536
 42
-2.7425819448
  0
ELLIPSE
  5
609
100
AcDbEntity
  8
0
100
AcDbEllipse
 62
7
  6
CONTINUOUS
 10
65.4339527159
 20
52.8623902801
 30
0.0
 11
-0.0
 21
0.4
 31
0.0
 40
0.0349207695
 41
-0.0
 42
1.5707963268
  0
ELLIPSE
  5
60A
100
AcDbEntity
  8
0
100
AcDbEllipse
 62
7
  6
CONTINUOUS
 10
65.4339527159
 20
43.6623902801
 30
0.0
 11
0.0
 21
0.4
 31
0.0
 40
0.0349207695
 41
-4.7123889804
 42
-3.1415926536
  0
ENDSEC
  0
SECTION
  2
OBJECTS
  0
DICTIONARY
  5
C
100
AcDbDictionary
280
0
281
1
  3
ACAD_GROUP
350
D
  3
ACAD_MLINESTYLE
350
17
  3
ACAD_LAYOUT
350
1A
  3
ACAD_PLOTSETTINGS
350
19
  3
ACAD_PLOTSTYLENAME
350
E
  0
DICTIONARY
  5
D
102
{ACAD_REACTORS
330
C
102
}
100
AcDbDictionary
280
0
281
1
  0
ACDBDICTIONARYWDFLT
  5
E
102
{ACAD_REACTORS
330
C
102
}
100
AcDbDictionary
281
1
  3
Normal
350
F
100
AcDbDictionaryWithDefault
340
F
  0
DICTIONARY
  5
17
102
{ACAD_REACTORS
330
C
102
}
100
AcDbDictionary
280
0
281
1
  3
Standard
350
18
  0
DICTIONARY
  5
19
102
{ACAD_REACTORS
330
C
102
}
100
AcDbDictionary
281
1
  0
DICTIONARY
  5
1A
102
{ACAD_REACTORS
330
C
102
}
100
AcDbDictionary
281
1
  3
Model
350
60B
  3
Layout1
350
60C
  0
ACDBPLACEHOLDER
  5
F
102
{ACAD_REACTORS
330
E
102
}
  0
MLINESTYLE
  5
18
102
{ACAD_REACTORS
330
17
102
}
100
AcDbMlineStyle
  2
STANDARD
 70
0
  3

 62
256
 51
90.0
 52
90.0
 71
2
 49
0.5
 62
256
  6
BYLAYER
 49
-0.5
 62
256
  6
BYLAYER
  0
LAYOUT
  5
60B
102
{ACAD_REACTORS
330
1A
102
}
100
AcDbPlotSettings
  1

  2
none_device
  4

  6

 40
0.0
 41
0.0
 42
0.0
 43
0.0
 44
210.0
 45
297.0
 46
0.0
 47
0.0
 48
0.0
 49
0.0
140
0.0
141
0.0
142
1.0
143
1.0
 70
1024
 72
1
 73
0
 74
0
  7

 75
0
147
1.0
148
0.0
149
0.0
100
AcDbLayout
  1
Model
 70
0
 71
0
 10
0.0
 20
0.0
 11
210.0
 21
297.0
 12
0.0
 22
0.0
 32
0.0
 14
0.0
 24
0.0
 34
0.0
 15
0.0
 25
0.0
 35
0.0
146
0.0
 13
0.0
 23
0.0
 33
0.0
 16
1.0
 26
0.0
 36
0.0
 17
0.0
 27
1.0
 37
0.0
 76
0
330
210
345
0
346
0
  0
LAYOUT
  5
60C
102
{ACAD_REACTORS
330
1A
102
}
100
AcDbPlotSettings
  1

  2
none_device
  4

  6

 40
0.0
 41
0.0
 42
0.0
 43
0.0
 44
210.0
 45
297.0
 46
0.0
 47
0.0
 48
0.0
 49
0.0
140
0.0
141
0.0
142
1.0
143
1.0
 70
0
 72
1
 73
0
 74
0
  7

 75
0
147
1.0
148
0.0
149
0.0
100
AcDbLayout
  1
Layout1
 70
0
 71
1
 10
0.0
 20
0.0
 11
210.0
 21
297.0
 12
0.0
 22
0.0
 32
0.0
 14
0.0
 24
0.0
 34
0.0
 15
0.0
 25
0.0
 35
0.0
146
0.0
 13
0.0
 23
0.0
 33
0.0
 16
1.0
 26
0.0
 36
0.0
 17
0.0
 27
1.0
 37
0.0
 76
0
330
211
345
0
346
0
  0
ENDSEC
  0
EOF
