  0
SECTION
  2
HEADER
  9
$ACADVER
  1
AC1009
  9
$DWGCODEPAGE
  3
ansi_1250
  9
$INSBASE
 10
0.0
 20
0.0
 30
0.0
  9
$EXTMIN
 10
-2.656333
 20
-3.797667
 30
0.0
  9
$EXTMAX
 10
2.656333
 20
3.797667
 30
0.0
  9
$LIMMIN
 10
0.0
 20
0.0
  9
$LIMMAX
 10
0.0
 20
0.0
  9
$ORTHOMODE
 70
     0
  9
$REGENMODE
 70
     1
  9
$FILLMODE
 70
     1
  9
$QTEXTMODE
 70
     0
  9
$MIRRTEXT
 70
     1
  9
$DRAGMODE
 70
     2
  9
$LTSCALE
 40
1.0
  9
$OSMODE
 70
     0
  9
$ATTMODE
 70
     1
  9
$TEXTSIZE
 40
0.2
  9
$TRACEWID
 40
0.05
  9
$TEXTSTYLE
  7
STANDARD
  9
$CLAYER
  8
0
  9
$CELTYPE
  6
CONTINUOUS
  9
$CECOLOR
 62
   256
  9
$DIMSCALE
 40
1.0
  9
$DIMASZ
 40
0.18
  9
$DIMEXO
 40
0.0625
  9
$DIMDLI
 40
0.38
  9
$DIMRND
 40
0.0
  9
$DIMDLE
 40
0.0
  9
$DIMEXE
 40
0.18
  9
$DIMTP
 40
0.0
  9
$DIMTM
 40
0.0
  9
$DIMTXT
 40
0.18
  9
$DIMCEN
 40
0.09
  9
$DIMTSZ
 40
0.0
  9
$DIMTOL
 70
     0
  9
$DIMLIM
 70
     0
  9
$DIMTIH
 70
     1
  9
$DIMTOH
 70
     1
  9
$DIMSE1
 70
     0
  9
$DIMSE2
 70
     0
  9
$DIMTAD
 70
     0
  9
$DIMZIN
 70
     0
  9
$DIMBLK
  1

  9
$DIMASO
 70
     1
  9
$DIMSHO
 70
     1
  9
$DIMPOST
  1

  9
$DIMAPOST
  1

  9
$DIMALT
 70
     0
  9
$DIMALTD
 70
     2
  9
$DIMALTF
 40
25.4
  9
$DIMLFAC
 40
1.0
  9
$DIMTOFL
 70
     0
  9
$DIMTVP
 40
0.0
  9
$DIMTIX
 70
     0
  9
$DIMSOXD
 70
     0
  9
$DIMSAH
 70
     0
  9
$DIMBLK1
  1

  9
$DIMBLK2
  1

  9
$DIMSTYLE
  2
STANDARD
  9
$DIMCLRD
 70
     0
  9
$DIMCLRE
 70
     0
  9
$DIMCLRT
 70
     0
  9
$DIMTFAC
 40
1.0
  9
$DIMGAP
 40
0.09
  9
$LUNITS
 70
     2
  9
$LUPREC
 70
     4
  9
$AXISMODE
 70
     0
  9
$AXISUNIT
 10
0.0
 20
0.0
  9
$SKETCHINC
 40
0.1
  9
$FILLETRAD
 40
0.0
  9
$AUNITS
 70
     0
  9
$AUPREC
 70
     0
  9
$MENU
  1
acad
  9
$ELEVATION
 40
0.0
  9
$PELEVATION
 40
0.0
  9
$THICKNESS
 40
0.0
  9
$LIMCHECK
 70
     0
  9
$BLIPMODE
 70
     1
  9
$CHAMFERA
 40
0.0
  9
$CHAMFERB
 40
0.0
  9
$SKPOLY
 70
     0
  9
$TDCREATE
 40
0.000000000
  9
$TDUPDATE
 40
0.000000000
  9
$TDINDWG
 40
0.0000000000
  9
$TDUSRTIMER
 40
0.0000000000
  9
$USRTIMER
 70
     1
  9
$ANGBASE
 50
0.0
  9
$ANGDIR
 70
     0
  9
$PDMODE
 70
     0
  9
$PDSIZE
 40
0.0
  9
$PLINEWID
 40
0.0
  9
$COORDS
 70
     0
  9
$SPLFRAME
 70
     0
  9
$SPLINETYPE
 70
     6
  9
$SPLINESEGS
 70
     8
  9
$ATTDIA
 70
     0
  9
$ATTREQ
 70
     1
  9
$HANDLING
 70
     1
  9
$HANDSEED
  5
468
  9
$SURFTAB1
 70
     6
  9
$SURFTAB2
 70
     6
  9
$SURFTYPE
 70
     6
  9
$SURFU
 70
     6
  9
$SURFV
 70
     6
  9
$UCSNAME
  2

  9
$UCSORG
 10
0.0
 20
0.0
 30
0.0
  9
$UCSXDIR
 10
1.0
 20
0.0
 30
0.0
  9
$UCSYDIR
 10
0.0
 20
1.0
 30
0.0
  9
$PUCSNAME
  2

  9
$PUCSORG
 10
0.0
 20
0.0
 30
0.0
  9
$PUCSXDIR
 10
1.0
 20
0.0
 30
0.0
  9
$PUCSYDIR
 10
0.0
 20
1.0
 30
0.0
  9
$USERI1
 70
     0
  9
$USERI2
 70
     0
  9
$USERI3
 70
     0
  9
$USERI4
 70
     0
  9
$USERI5
 70
     0
  9
$USERR1
 40
0.0
  9
$USERR2
 40
0.0
  9
$USERR3
 40
0.0
  9
$USERR4
 40
0.0
  9
$USERR5
 40
0.0
  9
$WORLDVIEW
 70
     1
  9
$SHADEDGE
 70
     3
  9
$SHADEDIF
 70
    70
  9
$TILEMODE
 70
     1
  9
$MAXACTVP
 70
    16
  9
$PINSBASE
 10
0.0
 20
0.0
 30
0.0
  9
$PLIMCHECK
 70
     0
  9
$PEXTMIN
 10
1.000000E+20
 20
1.000000E+20
 30
1.000000E+20
  9
$PEXTMAX
 10
-1.000000E+20
 20
-1.000000E+20
 30
-1.000000E+20
  9
$PLIMMIN
 10
0.0
 20
0.0
  9
$PLIMMAX
 10
12.0
 20
9.0
  9
$UNITMODE
 70
     0
  9
$VISRETAIN
 70
     0
  9
$PLINEGEN
 70
     1
  9
$PSLTSCALE
 70
     0
  9
$TREEDEPTH
 70
  3020
  0
ENDSEC
  0
SECTION
  2
TABLES
  0
TABLE
  2
VPORT
 70
     1
  0
VPORT
  2
*ACTIVE
 70
     0
 10
0.0
 20
0.0
 11
1.0
 21
1.0
 12
6.591288
 22
4.579184
 13
0.0
 23
0.0
 14
1.0
 24
1.0
 15
0.0
 25
0.0
 16
0.0
 26
0.0
 36
1.0
 17
0.0
 27
0.0
 37
0.0
 40
9.158369
 41
0.688564
 42
50.0
 43
0.0
 44
0.0
 50
0.0
 51
0.0
 71
     0
 72
   100
 73
     1
 74
     1
 75
     0
 76
     0
 77
     0
 78
     0
  0
ENDTAB
  0
TABLE
  2
LTYPE
 70
     5
  0
LTYPE
  2
CONTINUOUS
 70
    64
  3
Solid line
 72
    65
 73
     0
 40
0.0
  0
LTYPE
  2
CENTER
 70
    64
  3
Center ____ _ ____ _ ____ _ ____ _ ____ _ ____
 72
    65
 73
     4
 40
50.8
 49
31.75
 49
-6.35
 49
6.35
 49
-6.35
  0
LTYPE
  2
HIDDEN
 70
    64
  3
Hidden __ __ __ __ __ __ __ __ __ __ __ __ __ __
 72
    65
 73
     2
 40
9.525
 49
6.35
 49
-3.175
  0
LTYPE
  2
CENTER2
 70
    64
  3
Center (.5x) ___ _ ___ _ ___ _ ___ _ ___ _ ___
 72
    65
 73
     4
 40
28.575
 49
19.05
 49
-3.175
 49
3.175
 49
-3.175
  0
LTYPE
  2
HIDDEN2
 70
    64
  3
Hidden (.5x) _ _ _ _ _ _ _ _ _ _ _ _ _ _ _ _ _
 72
    65
 73
     2
 40
4.7625
 49
3.175
 49
-1.5875
  0
ENDTAB
  0
TABLE
  2
LAYER
 70
     1
  0
LAYER
  2
0
 70
     0
 62
     7
  6
CONTINUOUS
  0
ENDTAB
  0
TABLE
  2
STYLE
 70
     1
  0
STYLE
  2
STANDARD
 70
     0
 40
0.0
 41
1.0
 50
0.0
 71
     0
 42
0.0
  3
txt
  4

  0
ENDTAB
  0
TABLE
  2
VIEW
 70
     0
  0
ENDTAB
  0
TABLE
  2
UCS
 70
     0
  0
ENDTAB
  0
TABLE
  2
APPID
 70
     1
  0
APPID
  2
ACAD
 70
     0
  0
ENDTAB
  0
TABLE
  2
DIMSTYLE
 70
     1
  0
DIMSTYLE
  2
STANDARD
 70
     0
  3

  4

  5

  6

  7

 40
1.0
 41
0.18
 42
0.0625
 43
0.38
 44
0.18
 45
0.0
 46
0.0
 47
0.0
 48
0.0
 71
     0
 72
     0
 73
     1
 74
     1
 75
     0
 76
     0
 77
     0
 78
     0
140
0.18
141
0.09
142
0.0
143
25.4
144
1.0
145
0.0
146
1.0
147
0.09
170
     0
171
     2
172
     0
173
     0
174
     0
175
     0
176
     0
177
     0
178
     0
  0
ENDTAB
  0
ENDSEC
  0
SECTION
  2
BLOCKS
  0
ENDSEC
  0
SECTION
  2
ENTITIES
  0
ARC
  8
0
  6
CONTINUOUS
 62
     7
  5
256
 10
-0.69
 20
-1.38
 30
0.0
 40
0.08
 50
194.477512
 51
345.522488
  0
ARC
  8
0
  6
CONTINUOUS
 62
     7
  5
257
 10
0.69
 20
1.38
 30
0.0
 40
0.08
 50
14.477512
 51
165.522488
  0
ARC
  8
0
  6
CONTINUOUS
 62
     7
  5
258
 10
-0.73
 20
-1.365
 30
0.0
 40
0.15
 50
193.493399
 51
270.0
  0
LINE
  8
0
  6
CONTINUOUS
 62
     7
  5
259
 10
-0.65
 20
-1.515
 30
0.0
 11
-0.73
 21
-1.515
 31
0.0
  0
ARC
  8
0
  6
CONTINUOUS
 62
     7
  5
25A
 10
-0.65
 20
-1.365
 30
0.0
 40
0.15
 50
270.0
 51
320.369788
  0
ARC
  8
0
  6
CONTINUOUS
 62
     7
  5
25B
 10
0.0
 20
1.141333
 30
0.0
 40
2.656333
 50
258.392437
 51
286.920947
  0
ARC
  8
0
  6
CONTINUOUS
 62
     7
  5
25C
 10
0.73
 20
1.365
 30
0.0
 40
0.15
 50
13.493399
 51
90.0
  0
LINE
  8
0
  6
CONTINUOUS
 62
     7
  5
25D
 10
0.65
 20
1.515
 30
0.0
 11
0.73
 21
1.515
 31
0.0
  0
ARC
  8
0
  6
CONTINUOUS
 62
     7
  5
25E
 10
0.65
 20
1.365
 30
0.0
 40
0.15
 50
90.0
 51
140.369788
  0
ARC
  8
0
  6
CONTINUOUS
 62
     7
  5
25F
 10
0.0
 20
-1.141333
 30
0.0
 40
2.656333
 50
78.392437
 51
106.920947
  0
LINE
  8
0
  6
CONTINUOUS
 62
     7
  5
260
 10
0.69
 20
-1.175
 30
0.0
 11
0.687798
 21
-1.199731
 31
0.0
  0
LINE
  8
0
  6
CONTINUOUS
 62
     7
  5
261
 10
0.687798
 20
-1.199731
 30
0.0
 11
0.681017
 21
-1.224341
 31
0.0
  0
LINE
  8
0
  6
CONTINUOUS
 62
     7
  5
262
 10
0.681017
 20
-1.224341
 30
0.0
 11
0.669854
 21
-1.247354
 31
0.0
  0
LINE
  8
0
  6
CONTINUOUS
 62
     7
  5
263
 10
0.669854
 20
-1.247354
 30
0.0
 11
0.655053
 21
-1.267542
 31
0.0
  0
LINE
  8
0
  6
CONTINUOUS
 62
     7
  5
264
 10
0.655053
 20
-1.267542
 30
0.0
 11
0.637409
 21
-1.28436
 31
0.0
  0
LINE
  8
0
  6
CONTINUOUS
 62
     7
  5
265
 10
0.637409
 20
-1.28436
 30
0.0
 11
0.616453
 21
-1.298223
 31
0.0
  0
LINE
  8
0
  6
CONTINUOUS
 62
     7
  5
266
 10
0.616453
 20
-1.298223
 30
0.0
 11
0.593095
 21
-1.308202
 31
0.0
  0
LINE
  8
0
  6
CONTINUOUS
 62
     7
  5
267
 10
0.593095
 20
-1.308202
 30
0.0
 11
0.568565
 21
-1.313764
 31
0.0
  0
LINE
  8
0
  6
CONTINUOUS
 62
     7
  5
268
 10
0.568565
 20
-1.313764
 30
0.0
 11
0.544248
 21
-1.314882
 31
0.0
  0
LINE
  8
0
  6
CONTINUOUS
 62
     7
  5
269
 10
0.544248
 20
-1.314882
 30
0.0
 11
0.519641
 21
-1.311669
 31
0.0
  0
LINE
  8
0
  6
CONTINUOUS
 62
     7
  5
26A
 10
0.519641
 20
-1.311669
 30
0.0
 11
0.495427
 21
-1.303926
 31
0.0
  0
LINE
  8
0
  6
CONTINUOUS
 62
     7
  5
26B
 10
0.495427
 20
-1.303926
 30
0.0
 11
0.472994
 21
-1.291919
 31
0.0
  0
LINE
  8
0
  6
CONTINUOUS
 62
     7
  5
26C
 10
0.472994
 20
-1.291919
 30
0.0
 11
0.453523
 21
-1.276451
 31
0.0
  0
LINE
  8
0
  6
CONTINUOUS
 62
     7
  5
26D
 10
0.453523
 20
-1.276451
 30
0.0
 11
0.437247
 21
-1.257986
 31
0.0
  0
LINE
  8
0
  6
CONTINUOUS
 62
     7
  5
26E
 10
0.437247
 20
-1.257986
 30
0.0
 11
0.424081
 21
-1.236192
 31
0.0
  0
LINE
  8
0
  6
CONTINUOUS
 62
     7
  5
26F
 10
0.424081
 20
-1.236192
 30
0.0
 11
0.415026
 21
-1.212175
 31
0.0
  0
LINE
  8
0
  6
CONTINUOUS
 62
     7
  5
270
 10
0.415026
 20
-1.212175
 30
0.0
 11
0.41054
 21
-1.187282
 31
0.0
  0
LINE
  8
0
  6
CONTINUOUS
 62
     7
  5
271
 10
0.41054
 20
-1.187282
 30
0.0
 11
0.41054
 21
-1.162718
 31
0.0
  0
LINE
  8
0
  6
CONTINUOUS
 62
     7
  5
272
 10
0.41054
 20
-1.162718
 30
0.0
 11
0.415026
 21
-1.137825
 31
0.0
  0
LINE
  8
0
  6
CONTINUOUS
 62
     7
  5
273
 10
0.415026
 20
-1.137825
 30
0.0
 11
0.424081
 21
-1.113808
 31
0.0
  0
LINE
  8
0
  6
CONTINUOUS
 62
     7
  5
274
 10
0.424081
 20
-1.113808
 30
0.0
 11
0.437247
 21
-1.092014
 31
0.0
  0
LINE
  8
0
  6
CONTINUOUS
 62
     7
  5
275
 10
0.437247
 20
-1.092014
 30
0.0
 11
0.453523
 21
-1.073549
 31
0.0
  0
LINE
  8
0
  6
CONTINUOUS
 62
     7
  5
276
 10
0.453523
 20
-1.073549
 30
0.0
 11
0.472994
 21
-1.058081
 31
0.0
  0
LINE
  8
0
  6
CONTINUOUS
 62
     7
  5
277
 10
0.472994
 20
-1.058081
 30
0.0
 11
0.495427
 21
-1.046074
 31
0.0
  0
LINE
  8
0
  6
CONTINUOUS
 62
     7
  5
278
 10
0.495427
 20
-1.046074
 30
0.0
 11
0.519641
 21
-1.038331
 31
0.0
  0
LINE
  8
0
  6
CONTINUOUS
 62
     7
  5
279
 10
0.519641
 20
-1.038331
 30
0.0
 11
0.544248
 21
-1.035118
 31
0.0
  0
LINE
  8
0
  6
CONTINUOUS
 62
     7
  5
27A
 10
0.544248
 20
-1.035118
 30
0.0
 11
0.568565
 21
-1.036236
 31
0.0
  0
LINE
  8
0
  6
CONTINUOUS
 62
     7
  5
27B
 10
0.568565
 20
-1.036236
 30
0.0
 11
0.593095
 21
-1.041798
 31
0.0
  0
LINE
  8
0
  6
CONTINUOUS
 62
     7
  5
27C
 10
0.593095
 20
-1.041798
 30
0.0
 11
0.616453
 21
-1.051777
 31
0.0
  0
LINE
  8
0
  6
CONTINUOUS
 62
     7
  5
27D
 10
0.616453
 20
-1.051777
 30
0.0
 11
0.637409
 21
-1.06564
 31
0.0
  0
LINE
  8
0
  6
CONTINUOUS
 62
     7
  5
27E
 10
0.637409
 20
-1.06564
 30
0.0
 11
0.655053
 21
-1.082458
 31
0.0
  0
LINE
  8
0
  6
CONTINUOUS
 62
     7
  5
27F
 10
0.655053
 20
-1.082458
 30
0.0
 11
0.669854
 21
-1.102646
 31
0.0
  0
LINE
  8
0
  6
CONTINUOUS
 62
     7
  5
280
 10
0.669854
 20
-1.102646
 30
0.0
 11
0.681017
 21
-1.125659
 31
0.0
  0
LINE
  8
0
  6
CONTINUOUS
 62
     7
  5
281
 10
0.681017
 20
-1.125659
 30
0.0
 11
0.687798
 21
-1.150269
 31
0.0
  0
LINE
  8
0
  6
CONTINUOUS
 62
     7
  5
282
 10
0.687798
 20
-1.150269
 30
0.0
 11
0.69
 21
-1.175
 31
0.0
  0
LINE
  8
0
  6
CONTINUOUS
 62
     7
  5
283
 10
0.69
 20
1.175
 30
0.0
 11
0.687798
 21
1.150269
 31
0.0
  0
LINE
  8
0
  6
CONTINUOUS
 62
     7
  5
284
 10
0.687798
 20
1.150269
 30
0.0
 11
0.681017
 21
1.125659
 31
0.0
  0
LINE
  8
0
  6
CONTINUOUS
 62
     7
  5
285
 10
0.681017
 20
1.125659
 30
0.0
 11
0.669854
 21
1.102646
 31
0.0
  0
LINE
  8
0
  6
CONTINUOUS
 62
     7
  5
286
 10
0.669854
 20
1.102646
 30
0.0
 11
0.655053
 21
1.082458
 31
0.0
  0
LINE
  8
0
  6
CONTINUOUS
 62
     7
  5
287
 10
0.655053
 20
1.082458
 30
0.0
 11
0.637409
 21
1.06564
 31
0.0
  0
LINE
  8
0
  6
CONTINUOUS
 62
     7
  5
288
 10
0.637409
 20
1.06564
 30
0.0
 11
0.616453
 21
1.051777
 31
0.0
  0
LINE
  8
0
  6
CONTINUOUS
 62
     7
  5
289
 10
0.616453
 20
1.051777
 30
0.0
 11
0.593095
 21
1.041798
 31
0.0
  0
LINE
  8
0
  6
CONTINUOUS
 62
     7
  5
28A
 10
0.593095
 20
1.041798
 30
0.0
 11
0.568565
 21
1.036236
 31
0.0
  0
LINE
  8
0
  6
CONTINUOUS
 62
     7
  5
28B
 10
0.568565
 20
1.036236
 30
0.0
 11
0.544248
 21
1.035118
 31
0.0
  0
LINE
  8
0
  6
CONTINUOUS
 62
     7
  5
28C
 10
0.544248
 20
1.035118
 30
0.0
 11
0.519641
 21
1.038331
 31
0.0
  0
LINE
  8
0
  6
CONTINUOUS
 62
     7
  5
28D
 10
0.519641
 20
1.038331
 30
0.0
 11
0.495427
 21
1.046074
 31
0.0
  0
LINE
  8
0
  6
CONTINUOUS
 62
     7
  5
28E
 10
0.495427
 20
1.046074
 30
0.0
 11
0.472994
 21
1.058081
 31
0.0
  0
LINE
  8
0
  6
CONTINUOUS
 62
     7
  5
28F
 10
0.472994
 20
1.058081
 30
0.0
 11
0.453523
 21
1.073549
 31
0.0
  0
LINE
  8
0
  6
CONTINUOUS
 62
     7
  5
290
 10
0.453523
 20
1.073549
 30
0.0
 11
0.437247
 21
1.092014
 31
0.0
  0
LINE
  8
0
  6
CONTINUOUS
 62
     7
  5
291
 10
0.437247
 20
1.092014
 30
0.0
 11
0.424081
 21
1.113808
 31
0.0
  0
LINE
  8
0
  6
CONTINUOUS
 62
     7
  5
292
 10
0.424081
 20
1.113808
 30
0.0
 11
0.415026
 21
1.137825
 31
0.0
  0
LINE
  8
0
  6
CONTINUOUS
 62
     7
  5
293
 10
0.415026
 20
1.137825
 30
0.0
 11
0.41054
 21
1.162718
 31
0.0
  0
LINE
  8
0
  6
CONTINUOUS
 62
     7
  5
294
 10
0.41054
 20
1.162718
 30
0.0
 11
0.41054
 21
1.187282
 31
0.0
  0
LINE
  8
0
  6
CONTINUOUS
 62
     7
  5
295
 10
0.41054
 20
1.187282
 30
0.0
 11
0.415026
 21
1.212175
 31
0.0
  0
LINE
  8
0
  6
CONTINUOUS
 62
     7
  5
296
 10
0.415026
 20
1.212175
 30
0.0
 11
0.424081
 21
1.236192
 31
0.0
  0
LINE
  8
0
  6
CONTINUOUS
 62
     7
  5
297
 10
0.424081
 20
1.236192
 30
0.0
 11
0.437247
 21
1.257986
 31
0.0
  0
LINE
  8
0
  6
CONTINUOUS
 62
     7
  5
298
 10
0.437247
 20
1.257986
 30
0.0
 11
0.453523
 21
1.276451
 31
0.0
  0
LINE
  8
0
  6
CONTINUOUS
 62
     7
  5
299
 10
0.453523
 20
1.276451
 30
0.0
 11
0.472994
 21
1.291919
 31
0.0
  0
LINE
  8
0
  6
CONTINUOUS
 62
     7
  5
29A
 10
0.472994
 20
1.291919
 30
0.0
 11
0.495427
 21
1.303926
 31
0.0
  0
LINE
  8
0
  6
CONTINUOUS
 62
     7
  5
29B
 10
0.495427
 20
1.303926
 30
0.0
 11
0.519641
 21
1.311669
 31
0.0
  0
LINE
  8
0
  6
CONTINUOUS
 62
     7
  5
29C
 10
0.519641
 20
1.311669
 30
0.0
 11
0.544248
 21
1.314882
 31
0.0
  0
LINE
  8
0
  6
CONTINUOUS
 62
     7
  5
29D
 10
0.544248
 20
1.314882
 30
0.0
 11
0.568565
 21
1.313764
 31
0.0
  0
LINE
  8
0
  6
CONTINUOUS
 62
     7
  5
29E
 10
0.568565
 20
1.313764
 30
0.0
 11
0.593095
 21
1.308202
 31
0.0
  0
LINE
  8
0
  6
CONTINUOUS
 62
     7
  5
29F
 10
0.593095
 20
1.308202
 30
0.0
 11
0.616453
 21
1.298223
 31
0.0
  0
LINE
  8
0
  6
CONTINUOUS
 62
     7
  5
2A0
 10
0.616453
 20
1.298223
 30
0.0
 11
0.637409
 21
1.28436
 31
0.0
  0
LINE
  8
0
  6
CONTINUOUS
 62
     7
  5
2A1
 10
0.637409
 20
1.28436
 30
0.0
 11
0.655053
 21
1.267542
 31
0.0
  0
LINE
  8
0
  6
CONTINUOUS
 62
     7
  5
2A2
 10
0.655053
 20
1.267542
 30
0.0
 11
0.669854
 21
1.247354
 31
0.0
  0
LINE
  8
0
  6
CONTINUOUS
 62
     7
  5
2A3
 10
0.669854
 20
1.247354
 30
0.0
 11
0.681017
 21
1.224341
 31
0.0
  0
LINE
  8
0
  6
CONTINUOUS
 62
     7
  5
2A4
 10
0.681017
 20
1.224341
 30
0.0
 11
0.687798
 21
1.199731
 31
0.0
  0
LINE
  8
0
  6
CONTINUOUS
 62
     7
  5
2A5
 10
0.687798
 20
1.199731
 30
0.0
 11
0.69
 21
1.175
 31
0.0
  0
LINE
  8
0
  6
CONTINUOUS
 62
     7
  5
2A6
 10
0.0
 20
-1.315
 30
0.0
 11
-0.012209
 21
-1.314467
 31
0.0
  0
LINE
  8
0
  6
CONTINUOUS
 62
     7
  5
2A7
 10
-0.012209
 20
-1.314467
 30
0.0
 11
-0.024595
 21
-1.312823
 31
0.0
  0
LINE
  8
0
  6
CONTINUOUS
 62
     7
  5
2A8
 10
-0.024595
 20
-1.312823
 30
0.0
 11
-0.036962
 21
-1.310033
 31
0.0
  0
LINE
  8
0
  6
CONTINUOUS
 62
     7
  5
2A9
 10
-0.036962
 20
-1.310033
 30
0.0
 11
-0.049113
 21
-1.306103
 31
0.0
  0
LINE
  8
0
  6
CONTINUOUS
 62
     7
  5
2AA
 10
-0.049113
 20
-1.306103
 30
0.0
 11
-0.060876
 21
-1.301072
 31
0.0
  0
LINE
  8
0
  6
CONTINUOUS
 62
     7
  5
2AB
 10
-0.060876
 20
-1.301072
 30
0.0
 11
-0.072097
 21
-1.295008
 31
0.0
  0
LINE
  8
0
  6
CONTINUOUS
 62
     7
  5
2AC
 10
-0.072097
 20
-1.295008
 30
0.0
 11
-0.082626
 21
-1.288017
 31
0.0
  0
LINE
  8
0
  6
CONTINUOUS
 62
     7
  5
2AD
 10
-0.082626
 20
-1.288017
 30
0.0
 11
-0.092328
 21
-1.28024
 31
0.0
  0
LINE
  8
0
  6
CONTINUOUS
 62
     7
  5
2AE
 10
-0.092328
 20
-1.28024
 30
0.0
 11
-0.10111
 21
-1.271833
 31
0.0
  0
LINE
  8
0
  6
CONTINUOUS
 62
     7
  5
2AF
 10
-0.10111
 20
-1.271833
 30
0.0
 11
-0.109217
 21
-1.262588
 31
0.0
  0
LINE
  8
0
  6
CONTINUOUS
 62
     7
  5
2B0
 10
-0.109217
 20
-1.262588
 30
0.0
 11
-0.116621
 21
-1.252457
 31
0.0
  0
LINE
  8
0
  6
CONTINUOUS
 62
     7
  5
2B1
 10
-0.116621
 20
-1.252457
 30
0.0
 11
-0.123164
 21
-1.241564
 31
0.0
  0
LINE
  8
0
  6
CONTINUOUS
 62
     7
  5
2B2
 10
-0.123164
 20
-1.241564
 30
0.0
 11
-0.128721
 21
-1.230053
 31
0.0
  0
LINE
  8
0
  6
CONTINUOUS
 62
     7
  5
2B3
 10
-0.128721
 20
-1.230053
 30
0.0
 11
-0.133208
 21
-1.218076
 31
0.0
  0
LINE
  8
0
  6
CONTINUOUS
 62
     7
  5
2B4
 10
-0.133208
 20
-1.218076
 30
0.0
 11
-0.136571
 21
-1.205794
 31
0.0
  0
LINE
  8
0
  6
CONTINUOUS
 62
     7
  5
2B5
 10
-0.136571
 20
-1.205794
 30
0.0
 11
-0.138787
 21
-1.193392
 31
0.0
  0
LINE
  8
0
  6
CONTINUOUS
 62
     7
  5
2B6
 10
-0.138787
 20
-1.193392
 30
0.0
 11
-0.139868
 21
-1.18107
 31
0.0
  0
LINE
  8
0
  6
CONTINUOUS
 62
     7
  5
2B7
 10
-0.139868
 20
-1.18107
 30
0.0
 11
-0.139868
 21
-1.16893
 31
0.0
  0
LINE
  8
0
  6
CONTINUOUS
 62
     7
  5
2B8
 10
-0.139868
 20
-1.16893
 30
0.0
 11
-0.138787
 21
-1.156608
 31
0.0
  0
LINE
  8
0
  6
CONTINUOUS
 62
     7
  5
2B9
 10
-0.138787
 20
-1.156608
 30
0.0
 11
-0.136571
 21
-1.144206
 31
0.0
  0
LINE
  8
0
  6
CONTINUOUS
 62
     7
  5
2BA
 10
-0.136571
 20
-1.144206
 30
0.0
 11
-0.133208
 21
-1.131924
 31
0.0
  0
LINE
  8
0
  6
CONTINUOUS
 62
     7
  5
2BB
 10
-0.133208
 20
-1.131924
 30
0.0
 11
-0.128721
 21
-1.119947
 31
0.0
  0
LINE
  8
0
  6
CONTINUOUS
 62
     7
  5
2BC
 10
-0.128721
 20
-1.119947
 30
0.0
 11
-0.123164
 21
-1.108436
 31
0.0
  0
LINE
  8
0
  6
CONTINUOUS
 62
     7
  5
2BD
 10
-0.123164
 20
-1.108436
 30
0.0
 11
-0.116621
 21
-1.097543
 31
0.0
  0
LINE
  8
0
  6
CONTINUOUS
 62
     7
  5
2BE
 10
-0.116621
 20
-1.097543
 30
0.0
 11
-0.109217
 21
-1.087412
 31
0.0
  0
LINE
  8
0
  6
CONTINUOUS
 62
     7
  5
2BF
 10
-0.109217
 20
-1.087412
 30
0.0
 11
-0.10111
 21
-1.078167
 31
0.0
  0
LINE
  8
0
  6
CONTINUOUS
 62
     7
  5
2C0
 10
-0.10111
 20
-1.078167
 30
0.0
 11
-0.092328
 21
-1.06976
 31
0.0
  0
LINE
  8
0
  6
CONTINUOUS
 62
     7
  5
2C1
 10
-0.092328
 20
-1.06976
 30
0.0
 11
-0.082626
 21
-1.061983
 31
0.0
  0
LINE
  8
0
  6
CONTINUOUS
 62
     7
  5
2C2
 10
-0.082626
 20
-1.061983
 30
0.0
 11
-0.072097
 21
-1.054992
 31
0.0
  0
LINE
  8
0
  6
CONTINUOUS
 62
     7
  5
2C3
 10
-0.072097
 20
-1.054992
 30
0.0
 11
-0.060876
 21
-1.048928
 31
0.0
  0
LINE
  8
0
  6
CONTINUOUS
 62
     7
  5
2C4
 10
-0.060876
 20
-1.048928
 30
0.0
 11
-0.049113
 21
-1.043897
 31
0.0
  0
LINE
  8
0
  6
CONTINUOUS
 62
     7
  5
2C5
 10
-0.049113
 20
-1.043897
 30
0.0
 11
-0.036962
 21
-1.039967
 31
0.0
  0
LINE
  8
0
  6
CONTINUOUS
 62
     7
  5
2C6
 10
-0.036962
 20
-1.039967
 30
0.0
 11
-0.024595
 21
-1.037177
 31
0.0
  0
LINE
  8
0
  6
CONTINUOUS
 62
     7
  5
2C7
 10
-0.024595
 20
-1.037177
 30
0.0
 11
-0.012209
 21
-1.035533
 31
0.0
  0
LINE
  8
0
  6
CONTINUOUS
 62
     7
  5
2C8
 10
-0.012209
 20
-1.035533
 30
0.0
 11
0.0
 21
-1.035
 31
0.0
  0
LINE
  8
0
  6
CONTINUOUS
 62
     7
  5
2C9
 10
0.0
 20
-1.035
 30
0.0
 11
0.012209
 21
-1.035533
 31
0.0
  0
LINE
  8
0
  6
CONTINUOUS
 62
     7
  5
2CA
 10
0.012209
 20
-1.035533
 30
0.0
 11
0.024595
 21
-1.037177
 31
0.0
  0
LINE
  8
0
  6
CONTINUOUS
 62
     7
  5
2CB
 10
0.024595
 20
-1.037177
 30
0.0
 11
0.036962
 21
-1.039967
 31
0.0
  0
LINE
  8
0
  6
CONTINUOUS
 62
     7
  5
2CC
 10
0.036962
 20
-1.039967
 30
0.0
 11
0.049113
 21
-1.043897
 31
0.0
  0
LINE
  8
0
  6
CONTINUOUS
 62
     7
  5
2CD
 10
0.049113
 20
-1.043897
 30
0.0
 11
0.060876
 21
-1.048928
 31
0.0
  0
LINE
  8
0
  6
CONTINUOUS
 62
     7
  5
2CE
 10
0.060876
 20
-1.048928
 30
0.0
 11
0.072097
 21
-1.054992
 31
0.0
  0
LINE
  8
0
  6
CONTINUOUS
 62
     7
  5
2CF
 10
0.072097
 20
-1.054992
 30
0.0
 11
0.082626
 21
-1.061983
 31
0.0
  0
LINE
  8
0
  6
CONTINUOUS
 62
     7
  5
2D0
 10
0.082626
 20
-1.061983
 30
0.0
 11
0.092328
 21
-1.06976
 31
0.0
  0
LINE
  8
0
  6
CONTINUOUS
 62
     7
  5
2D1
 10
0.092328
 20
-1.06976
 30
0.0
 11
0.10111
 21
-1.078167
 31
0.0
  0
LINE
  8
0
  6
CONTINUOUS
 62
     7
  5
2D2
 10
0.10111
 20
-1.078167
 30
0.0
 11
0.109217
 21
-1.087412
 31
0.0
  0
LINE
  8
0
  6
CONTINUOUS
 62
     7
  5
2D3
 10
0.109217
 20
-1.087412
 30
0.0
 11
0.116621
 21
-1.097543
 31
0.0
  0
LINE
  8
0
  6
CONTINUOUS
 62
     7
  5
2D4
 10
0.116621
 20
-1.097543
 30
0.0
 11
0.123164
 21
-1.108436
 31
0.0
  0
LINE
  8
0
  6
CONTINUOUS
 62
     7
  5
2D5
 10
0.123164
 20
-1.108436
 30
0.0
 11
0.128721
 21
-1.119947
 31
0.0
  0
LINE
  8
0
  6
CONTINUOUS
 62
     7
  5
2D6
 10
0.128721
 20
-1.119947
 30
0.0
 11
0.133208
 21
-1.131924
 31
0.0
  0
LINE
  8
0
  6
CONTINUOUS
 62
     7
  5
2D7
 10
0.133208
 20
-1.131924
 30
0.0
 11
0.136571
 21
-1.144206
 31
0.0
  0
LINE
  8
0
  6
CONTINUOUS
 62
     7
  5
2D8
 10
0.136571
 20
-1.144206
 30
0.0
 11
0.138787
 21
-1.156608
 31
0.0
  0
LINE
  8
0
  6
CONTINUOUS
 62
     7
  5
2D9
 10
0.138787
 20
-1.156608
 30
0.0
 11
0.139868
 21
-1.16893
 31
0.0
  0
LINE
  8
0
  6
CONTINUOUS
 62
     7
  5
2DA
 10
0.139868
 20
-1.16893
 30
0.0
 11
0.139868
 21
-1.18107
 31
0.0
  0
LINE
  8
0
  6
CONTINUOUS
 62
     7
  5
2DB
 10
0.139868
 20
-1.18107
 30
0.0
 11
0.138787
 21
-1.193392
 31
0.0
  0
LINE
  8
0
  6
CONTINUOUS
 62
     7
  5
2DC
 10
0.138787
 20
-1.193392
 30
0.0
 11
0.136571
 21
-1.205794
 31
0.0
  0
LINE
  8
0
  6
CONTINUOUS
 62
     7
  5
2DD
 10
0.136571
 20
-1.205794
 30
0.0
 11
0.133208
 21
-1.218076
 31
0.0
  0
LINE
  8
0
  6
CONTINUOUS
 62
     7
  5
2DE
 10
0.133208
 20
-1.218076
 30
0.0
 11
0.128721
 21
-1.230053
 31
0.0
  0
LINE
  8
0
  6
CONTINUOUS
 62
     7
  5
2DF
 10
0.128721
 20
-1.230053
 30
0.0
 11
0.123164
 21
-1.241564
 31
0.0
  0
LINE
  8
0
  6
CONTINUOUS
 62
     7
  5
2E0
 10
0.123164
 20
-1.241564
 30
0.0
 11
0.116621
 21
-1.252457
 31
0.0
  0
LINE
  8
0
  6
CONTINUOUS
 62
     7
  5
2E1
 10
0.116621
 20
-1.252457
 30
0.0
 11
0.109217
 21
-1.262588
 31
0.0
  0
LINE
  8
0
  6
CONTINUOUS
 62
     7
  5
2E2
 10
0.109217
 20
-1.262588
 30
0.0
 11
0.10111
 21
-1.271833
 31
0.0
  0
LINE
  8
0
  6
CONTINUOUS
 62
     7
  5
2E3
 10
0.10111
 20
-1.271833
 30
0.0
 11
0.092328
 21
-1.28024
 31
0.0
  0
LINE
  8
0
  6
CONTINUOUS
 62
     7
  5
2E4
 10
0.092328
 20
-1.28024
 30
0.0
 11
0.082626
 21
-1.288017
 31
0.0
  0
LINE
  8
0
  6
CONTINUOUS
 62
     7
  5
2E5
 10
0.082626
 20
-1.288017
 30
0.0
 11
0.072097
 21
-1.295008
 31
0.0
  0
LINE
  8
0
  6
CONTINUOUS
 62
     7
  5
2E6
 10
0.072097
 20
-1.295008
 30
0.0
 11
0.060876
 21
-1.301072
 31
0.0
  0
LINE
  8
0
  6
CONTINUOUS
 62
     7
  5
2E7
 10
0.060876
 20
-1.301072
 30
0.0
 11
0.049113
 21
-1.306103
 31
0.0
  0
LINE
  8
0
  6
CONTINUOUS
 62
     7
  5
2E8
 10
0.049113
 20
-1.306103
 30
0.0
 11
0.036962
 21
-1.310033
 31
0.0
  0
LINE
  8
0
  6
CONTINUOUS
 62
     7
  5
2E9
 10
0.036962
 20
-1.310033
 30
0.0
 11
0.024595
 21
-1.312823
 31
0.0
  0
LINE
  8
0
  6
CONTINUOUS
 62
     7
  5
2EA
 10
0.024595
 20
-1.312823
 30
0.0
 11
0.012209
 21
-1.314467
 31
0.0
  0
LINE
  8
0
  6
CONTINUOUS
 62
     7
  5
2EB
 10
0.012209
 20
-1.314467
 30
0.0
 11
0.0
 21
-1.315
 31
0.0
  0
LINE
  8
0
  6
CONTINUOUS
 62
     7
  5
2EC
 10
0.0
 20
1.035
 30
0.0
 11
-0.012209
 21
1.035533
 31
0.0
  0
LINE
  8
0
  6
CONTINUOUS
 62
     7
  5
2ED
 10
-0.012209
 20
1.035533
 30
0.0
 11
-0.024595
 21
1.037177
 31
0.0
  0
LINE
  8
0
  6
CONTINUOUS
 62
     7
  5
2EE
 10
-0.024595
 20
1.037177
 30
0.0
 11
-0.036962
 21
1.039967
 31
0.0
  0
LINE
  8
0
  6
CONTINUOUS
 62
     7
  5
2EF
 10
-0.036962
 20
1.039967
 30
0.0
 11
-0.049113
 21
1.043897
 31
0.0
  0
LINE
  8
0
  6
CONTINUOUS
 62
     7
  5
2F0
 10
-0.049113
 20
1.043897
 30
0.0
 11
-0.060876
 21
1.048928
 31
0.0
  0
LINE
  8
0
  6
CONTINUOUS
 62
     7
  5
2F1
 10
-0.060876
 20
1.048928
 30
0.0
 11
-0.072097
 21
1.054992
 31
0.0
  0
LINE
  8
0
  6
CONTINUOUS
 62
     7
  5
2F2
 10
-0.072097
 20
1.054992
 30
0.0
 11
-0.082626
 21
1.061983
 31
0.0
  0
LINE
  8
0
  6
CONTINUOUS
 62
     7
  5
2F3
 10
-0.082626
 20
1.061983
 30
0.0
 11
-0.092328
 21
1.06976
 31
0.0
  0
LINE
  8
0
  6
CONTINUOUS
 62
     7
  5
2F4
 10
-0.092328
 20
1.06976
 30
0.0
 11
-0.10111
 21
1.078167
 31
0.0
  0
LINE
  8
0
  6
CONTINUOUS
 62
     7
  5
2F5
 10
-0.10111
 20
1.078167
 30
0.0
 11
-0.109217
 21
1.087412
 31
0.0
  0
LINE
  8
0
  6
CONTINUOUS
 62
     7
  5
2F6
 10
-0.109217
 20
1.087412
 30
0.0
 11
-0.116621
 21
1.097543
 31
0.0
  0
LINE
  8
0
  6
CONTINUOUS
 62
     7
  5
2F7
 10
-0.116621
 20
1.097543
 30
0.0
 11
-0.123164
 21
1.108436
 31
0.0
  0
LINE
  8
0
  6
CONTINUOUS
 62
     7
  5
2F8
 10
-0.123164
 20
1.108436
 30
0.0
 11
-0.128721
 21
1.119947
 31
0.0
  0
LINE
  8
0
  6
CONTINUOUS
 62
     7
  5
2F9
 10
-0.128721
 20
1.119947
 30
0.0
 11
-0.133208
 21
1.131924
 31
0.0
  0
LINE
  8
0
  6
CONTINUOUS
 62
     7
  5
2FA
 10
-0.133208
 20
1.131924
 30
0.0
 11
-0.136571
 21
1.144206
 31
0.0
  0
LINE
  8
0
  6
CONTINUOUS
 62
     7
  5
2FB
 10
-0.136571
 20
1.144206
 30
0.0
 11
-0.138787
 21
1.156608
 31
0.0
  0
LINE
  8
0
  6
CONTINUOUS
 62
     7
  5
2FC
 10
-0.138787
 20
1.156608
 30
0.0
 11
-0.139868
 21
1.16893
 31
0.0
  0
LINE
  8
0
  6
CONTINUOUS
 62
     7
  5
2FD
 10
-0.139868
 20
1.16893
 30
0.0
 11
-0.139868
 21
1.18107
 31
0.0
  0
LINE
  8
0
  6
CONTINUOUS
 62
     7
  5
2FE
 10
-0.139868
 20
1.18107
 30
0.0
 11
-0.138787
 21
1.193392
 31
0.0
  0
LINE
  8
0
  6
CONTINUOUS
 62
     7
  5
2FF
 10
-0.138787
 20
1.193392
 30
0.0
 11
-0.136571
 21
1.205794
 31
0.0
  0
LINE
  8
0
  6
CONTINUOUS
 62
     7
  5
300
 10
-0.136571
 20
1.205794
 30
0.0
 11
-0.133208
 21
1.218076
 31
0.0
  0
LINE
  8
0
  6
CONTINUOUS
 62
     7
  5
301
 10
-0.133208
 20
1.218076
 30
0.0
 11
-0.128721
 21
1.230053
 31
0.0
  0
LINE
  8
0
  6
CONTINUOUS
 62
     7
  5
302
 10
-0.128721
 20
1.230053
 30
0.0
 11
-0.123164
 21
1.241564
 31
0.0
  0
LINE
  8
0
  6
CONTINUOUS
 62
     7
  5
303
 10
-0.123164
 20
1.241564
 30
0.0
 11
-0.116621
 21
1.252457
 31
0.0
  0
LINE
  8
0
  6
CONTINUOUS
 62
     7
  5
304
 10
-0.116621
 20
1.252457
 30
0.0
 11
-0.109217
 21
1.262588
 31
0.0
  0
LINE
  8
0
  6
CONTINUOUS
 62
     7
  5
305
 10
-0.109217
 20
1.262588
 30
0.0
 11
-0.10111
 21
1.271833
 31
0.0
  0
LINE
  8
0
  6
CONTINUOUS
 62
     7
  5
306
 10
-0.10111
 20
1.271833
 30
0.0
 11
-0.092328
 21
1.28024
 31
0.0
  0
LINE
  8
0
  6
CONTINUOUS
 62
     7
  5
307
 10
-0.092328
 20
1.28024
 30
0.0
 11
-0.082626
 21
1.288017
 31
0.0
  0
LINE
  8
0
  6
CONTINUOUS
 62
     7
  5
308
 10
-0.082626
 20
1.288017
 30
0.0
 11
-0.072097
 21
1.295008
 31
0.0
  0
LINE
  8
0
  6
CONTINUOUS
 62
     7
  5
309
 10
-0.072097
 20
1.295008
 30
0.0
 11
-0.060876
 21
1.301072
 31
0.0
  0
LINE
  8
0
  6
CONTINUOUS
 62
     7
  5
30A
 10
-0.060876
 20
1.301072
 30
0.0
 11
-0.049113
 21
1.306103
 31
0.0
  0
LINE
  8
0
  6
CONTINUOUS
 62
     7
  5
30B
 10
-0.049113
 20
1.306103
 30
0.0
 11
-0.036962
 21
1.310033
 31
0.0
  0
LINE
  8
0
  6
CONTINUOUS
 62
     7
  5
30C
 10
-0.036962
 20
1.310033
 30
0.0
 11
-0.024595
 21
1.312823
 31
0.0
  0
LINE
  8
0
  6
CONTINUOUS
 62
     7
  5
30D
 10
-0.024595
 20
1.312823
 30
0.0
 11
-0.012209
 21
1.314467
 31
0.0
  0
LINE
  8
0
  6
CONTINUOUS
 62
     7
  5
30E
 10
-0.012209
 20
1.314467
 30
0.0
 11
0.0
 21
1.315
 31
0.0
  0
LINE
  8
0
  6
CONTINUOUS
 62
     7
  5
30F
 10
0.0
 20
1.315
 30
0.0
 11
0.012209
 21
1.314467
 31
0.0
  0
LINE
  8
0
  6
CONTINUOUS
 62
     7
  5
310
 10
0.012209
 20
1.314467
 30
0.0
 11
0.024595
 21
1.312823
 31
0.0
  0
LINE
  8
0
  6
CONTINUOUS
 62
     7
  5
311
 10
0.024595
 20
1.312823
 30
0.0
 11
0.036962
 21
1.310033
 31
0.0
  0
LINE
  8
0
  6
CONTINUOUS
 62
     7
  5
312
 10
0.036962
 20
1.310033
 30
0.0
 11
0.049113
 21
1.306103
 31
0.0
  0
LINE
  8
0
  6
CONTINUOUS
 62
     7
  5
313
 10
0.049113
 20
1.306103
 30
0.0
 11
0.060876
 21
1.301072
 31
0.0
  0
LINE
  8
0
  6
CONTINUOUS
 62
     7
  5
314
 10
0.060876
 20
1.301072
 30
0.0
 11
0.072097
 21
1.295008
 31
0.0
  0
LINE
  8
0
  6
CONTINUOUS
 62
     7
  5
315
 10
0.072097
 20
1.295008
 30
0.0
 11
0.082626
 21
1.288017
 31
0.0
  0
LINE
  8
0
  6
CONTINUOUS
 62
     7
  5
316
 10
0.082626
 20
1.288017
 30
0.0
 11
0.092328
 21
1.28024
 31
0.0
  0
LINE
  8
0
  6
CONTINUOUS
 62
     7
  5
317
 10
0.092328
 20
1.28024
 30
0.0
 11
0.10111
 21
1.271833
 31
0.0
  0
LINE
  8
0
  6
CONTINUOUS
 62
     7
  5
318
 10
0.10111
 20
1.271833
 30
0.0
 11
0.109217
 21
1.262588
 31
0.0
  0
LINE
  8
0
  6
CONTINUOUS
 62
     7
  5
319
 10
0.109217
 20
1.262588
 30
0.0
 11
0.116621
 21
1.252457
 31
0.0
  0
LINE
  8
0
  6
CONTINUOUS
 62
     7
  5
31A
 10
0.116621
 20
1.252457
 30
0.0
 11
0.123164
 21
1.241564
 31
0.0
  0
LINE
  8
0
  6
CONTINUOUS
 62
     7
  5
31B
 10
0.123164
 20
1.241564
 30
0.0
 11
0.128721
 21
1.230053
 31
0.0
  0
LINE
  8
0
  6
CONTINUOUS
 62
     7
  5
31C
 10
0.128721
 20
1.230053
 30
0.0
 11
0.133208
 21
1.218076
 31
0.0
  0
LINE
  8
0
  6
CONTINUOUS
 62
     7
  5
31D
 10
0.133208
 20
1.218076
 30
0.0
 11
0.136571
 21
1.205794
 31
0.0
  0
LINE
  8
0
  6
CONTINUOUS
 62
     7
  5
31E
 10
0.136571
 20
1.205794
 30
0.0
 11
0.138787
 21
1.193392
 31
0.0
  0
LINE
  8
0
  6
CONTINUOUS
 62
     7
  5
31F
 10
0.138787
 20
1.193392
 30
0.0
 11
0.139868
 21
1.18107
 31
0.0
  0
LINE
  8
0
  6
CONTINUOUS
 62
     7
  5
320
 10
0.139868
 20
1.18107
 30
0.0
 11
0.139868
 21
1.16893
 31
0.0
  0
LINE
  8
0
  6
CONTINUOUS
 62
     7
  5
321
 10
0.139868
 20
1.16893
 30
0.0
 11
0.138787
 21
1.156608
 31
0.0
  0
LINE
  8
0
  6
CONTINUOUS
 62
     7
  5
322
 10
0.138787
 20
1.156608
 30
0.0
 11
0.136571
 21
1.144206
 31
0.0
  0
LINE
  8
0
  6
CONTINUOUS
 62
     7
  5
323
 10
0.136571
 20
1.144206
 30
0.0
 11
0.133208
 21
1.131924
 31
0.0
  0
LINE
  8
0
  6
CONTINUOUS
 62
     7
  5
324
 10
0.133208
 20
1.131924
 30
0.0
 11
0.128721
 21
1.119947
 31
0.0
  0
LINE
  8
0
  6
CONTINUOUS
 62
     7
  5
325
 10
0.128721
 20
1.119947
 30
0.0
 11
0.123164
 21
1.108436
 31
0.0
  0
LINE
  8
0
  6
CONTINUOUS
 62
     7
  5
326
 10
0.123164
 20
1.108436
 30
0.0
 11
0.116621
 21
1.097543
 31
0.0
  0
LINE
  8
0
  6
CONTINUOUS
 62
     7
  5
327
 10
0.116621
 20
1.097543
 30
0.0
 11
0.109217
 21
1.087412
 31
0.0
  0
LINE
  8
0
  6
CONTINUOUS
 62
     7
  5
328
 10
0.109217
 20
1.087412
 30
0.0
 11
0.10111
 21
1.078167
 31
0.0
  0
LINE
  8
0
  6
CONTINUOUS
 62
     7
  5
329
 10
0.10111
 20
1.078167
 30
0.0
 11
0.092328
 21
1.06976
 31
0.0
  0
LINE
  8
0
  6
CONTINUOUS
 62
     7
  5
32A
 10
0.092328
 20
1.06976
 30
0.0
 11
0.082626
 21
1.061983
 31
0.0
  0
LINE
  8
0
  6
CONTINUOUS
 62
     7
  5
32B
 10
0.082626
 20
1.061983
 30
0.0
 11
0.072097
 21
1.054992
 31
0.0
  0
LINE
  8
0
  6
CONTINUOUS
 62
     7
  5
32C
 10
0.072097
 20
1.054992
 30
0.0
 11
0.060876
 21
1.048928
 31
0.0
  0
LINE
  8
0
  6
CONTINUOUS
 62
     7
  5
32D
 10
0.060876
 20
1.048928
 30
0.0
 11
0.049113
 21
1.043897
 31
0.0
  0
LINE
  8
0
  6
CONTINUOUS
 62
     7
  5
32E
 10
0.049113
 20
1.043897
 30
0.0
 11
0.036962
 21
1.039967
 31
0.0
  0
LINE
  8
0
  6
CONTINUOUS
 62
     7
  5
32F
 10
0.036962
 20
1.039967
 30
0.0
 11
0.024595
 21
1.037177
 31
0.0
  0
LINE
  8
0
  6
CONTINUOUS
 62
     7
  5
330
 10
0.024595
 20
1.037177
 30
0.0
 11
0.012209
 21
1.035533
 31
0.0
  0
LINE
  8
0
  6
CONTINUOUS
 62
     7
  5
331
 10
0.012209
 20
1.035533
 30
0.0
 11
0.0
 21
1.035
 31
0.0
  0
LINE
  8
0
  6
CONTINUOUS
 62
     7
  5
332
 10
-0.41
 20
-1.175
 30
0.0
 11
-0.412204
 21
-1.199741
 31
0.0
  0
LINE
  8
0
  6
CONTINUOUS
 62
     7
  5
333
 10
-0.412204
 20
-1.199741
 30
0.0
 11
-0.418999
 21
-1.224384
 31
0.0
  0
LINE
  8
0
  6
CONTINUOUS
 62
     7
  5
334
 10
-0.418999
 20
-1.224384
 30
0.0
 11
-0.4302
 21
-1.247443
 31
0.0
  0
LINE
  8
0
  6
CONTINUOUS
 62
     7
  5
335
 10
-0.4302
 20
-1.247443
 30
0.0
 11
-0.445072
 21
-1.267683
 31
0.0
  0
LINE
  8
0
  6
CONTINUOUS
 62
     7
  5
336
 10
-0.445072
 20
-1.267683
 30
0.0
 11
-0.462823
 21
-1.284545
 31
0.0
  0
LINE
  8
0
  6
CONTINUOUS
 62
     7
  5
337
 10
-0.462823
 20
-1.284545
 30
0.0
 11
-0.483911
 21
-1.298419
 31
0.0
  0
LINE
  8
0
  6
CONTINUOUS
 62
     7
  5
338
 10
-0.483911
 20
-1.298419
 30
0.0
 11
-0.507391
 21
-1.308358
 31
0.0
  0
LINE
  8
0
  6
CONTINUOUS
 62
     7
  5
339
 10
-0.507391
 20
-1.308358
 30
0.0
 11
-0.531993
 21
-1.313837
 31
0.0
  0
LINE
  8
0
  6
CONTINUOUS
 62
     7
  5
33A
 10
-0.531993
 20
-1.313837
 30
0.0
 11
-0.556316
 21
-1.314857
 31
0.0
  0
LINE
  8
0
  6
CONTINUOUS
 62
     7
  5
33B
 10
-0.556316
 20
-1.314857
 30
0.0
 11
-0.580889
 21
-1.31155
 31
0.0
  0
LINE
  8
0
  6
CONTINUOUS
 62
     7
  5
33C
 10
-0.580889
 20
-1.31155
 30
0.0
 11
-0.605002
 21
-1.303743
 31
0.0
  0
LINE
  8
0
  6
CONTINUOUS
 62
     7
  5
33D
 10
-0.605002
 20
-1.303743
 30
0.0
 11
-0.627303
 21
-1.291723
 31
0.0
  0
LINE
  8
0
  6
CONTINUOUS
 62
     7
  5
33E
 10
-0.627303
 20
-1.291723
 30
0.0
 11
-0.64665
 21
-1.276286
 31
0.0
  0
LINE
  8
0
  6
CONTINUOUS
 62
     7
  5
33F
 10
-0.64665
 20
-1.276286
 30
0.0
 11
-0.662838
 21
-1.25787
 31
0.0
  0
LINE
  8
0
  6
CONTINUOUS
 62
     7
  5
340
 10
-0.662838
 20
-1.25787
 30
0.0
 11
-0.67595
 21
-1.236127
 31
0.0
  0
LINE
  8
0
  6
CONTINUOUS
 62
     7
  5
341
 10
-0.67595
 20
-1.236127
 30
0.0
 11
-0.684981
 21
-1.21215
 31
0.0
  0
LINE
  8
0
  6
CONTINUOUS
 62
     7
  5
342
 10
-0.684981
 20
-1.21215
 30
0.0
 11
-0.68946
 21
-1.187279
 31
0.0
  0
LINE
  8
0
  6
CONTINUOUS
 62
     7
  5
343
 10
-0.68946
 20
-1.187279
 30
0.0
 11
-0.68946
 21
-1.162721
 31
0.0
  0
LINE
  8
0
  6
CONTINUOUS
 62
     7
  5
344
 10
-0.68946
 20
-1.162721
 30
0.0
 11
-0.684981
 21
-1.13785
 31
0.0
  0
LINE
  8
0
  6
CONTINUOUS
 62
     7
  5
345
 10
-0.684981
 20
-1.13785
 30
0.0
 11
-0.67595
 21
-1.113873
 31
0.0
  0
LINE
  8
0
  6
CONTINUOUS
 62
     7
  5
346
 10
-0.67595
 20
-1.113873
 30
0.0
 11
-0.662838
 21
-1.09213
 31
0.0
  0
LINE
  8
0
  6
CONTINUOUS
 62
     7
  5
347
 10
-0.662838
 20
-1.09213
 30
0.0
 11
-0.64665
 21
-1.073714
 31
0.0
  0
LINE
  8
0
  6
CONTINUOUS
 62
     7
  5
348
 10
-0.64665
 20
-1.073714
 30
0.0
 11
-0.627303
 21
-1.058277
 31
0.0
  0
LINE
  8
0
  6
CONTINUOUS
 62
     7
  5
349
 10
-0.627303
 20
-1.058277
 30
0.0
 11
-0.605002
 21
-1.046257
 31
0.0
  0
LINE
  8
0
  6
CONTINUOUS
 62
     7
  5
34A
 10
-0.605002
 20
-1.046257
 30
0.0
 11
-0.580889
 21
-1.03845
 31
0.0
  0
LINE
  8
0
  6
CONTINUOUS
 62
     7
  5
34B
 10
-0.580889
 20
-1.03845
 30
0.0
 11
-0.556316
 21
-1.035143
 31
0.0
  0
LINE
  8
0
  6
CONTINUOUS
 62
     7
  5
34C
 10
-0.556316
 20
-1.035143
 30
0.0
 11
-0.531993
 21
-1.036163
 31
0.0
  0
LINE
  8
0
  6
CONTINUOUS
 62
     7
  5
34D
 10
-0.531993
 20
-1.036163
 30
0.0
 11
-0.507391
 21
-1.041642
 31
0.0
  0
LINE
  8
0
  6
CONTINUOUS
 62
     7
  5
34E
 10
-0.507391
 20
-1.041642
 30
0.0
 11
-0.483911
 21
-1.051581
 31
0.0
  0
LINE
  8
0
  6
CONTINUOUS
 62
     7
  5
34F
 10
-0.483911
 20
-1.051581
 30
0.0
 11
-0.462823
 21
-1.065455
 31
0.0
  0
LINE
  8
0
  6
CONTINUOUS
 62
     7
  5
350
 10
-0.462823
 20
-1.065455
 30
0.0
 11
-0.445072
 21
-1.082317
 31
0.0
  0
LINE
  8
0
  6
CONTINUOUS
 62
     7
  5
351
 10
-0.445072
 20
-1.082317
 30
0.0
 11
-0.4302
 21
-1.102557
 31
0.0
  0
LINE
  8
0
  6
CONTINUOUS
 62
     7
  5
352
 10
-0.4302
 20
-1.102557
 30
0.0
 11
-0.418999
 21
-1.125616
 31
0.0
  0
LINE
  8
0
  6
CONTINUOUS
 62
     7
  5
353
 10
-0.418999
 20
-1.125616
 30
0.0
 11
-0.412204
 21
-1.150259
 31
0.0
  0
LINE
  8
0
  6
CONTINUOUS
 62
     7
  5
354
 10
-0.412204
 20
-1.150259
 30
0.0
 11
-0.41
 21
-1.175
 31
0.0
  0
LINE
  8
0
  6
CONTINUOUS
 62
     7
  5
355
 10
-0.41
 20
1.175
 30
0.0
 11
-0.412204
 21
1.150259
 31
0.0
  0
LINE
  8
0
  6
CONTINUOUS
 62
     7
  5
356
 10
-0.412204
 20
1.150259
 30
0.0
 11
-0.418999
 21
1.125616
 31
0.0
  0
LINE
  8
0
  6
CONTINUOUS
 62
     7
  5
357
 10
-0.418999
 20
1.125616
 30
0.0
 11
-0.4302
 21
1.102557
 31
0.0
  0
LINE
  8
0
  6
CONTINUOUS
 62
     7
  5
358
 10
-0.4302
 20
1.102557
 30
0.0
 11
-0.445072
 21
1.082317
 31
0.0
  0
LINE
  8
0
  6
CONTINUOUS
 62
     7
  5
359
 10
-0.445072
 20
1.082317
 30
0.0
 11
-0.462823
 21
1.065455
 31
0.0
  0
LINE
  8
0
  6
CONTINUOUS
 62
     7
  5
35A
 10
-0.462823
 20
1.065455
 30
0.0
 11
-0.483911
 21
1.051581
 31
0.0
  0
LINE
  8
0
  6
CONTINUOUS
 62
     7
  5
35B
 10
-0.483911
 20
1.051581
 30
0.0
 11
-0.507391
 21
1.041642
 31
0.0
  0
LINE
  8
0
  6
CONTINUOUS
 62
     7
  5
35C
 10
-0.507391
 20
1.041642
 30
0.0
 11
-0.531993
 21
1.036163
 31
0.0
  0
LINE
  8
0
  6
CONTINUOUS
 62
     7
  5
35D
 10
-0.531993
 20
1.036163
 30
0.0
 11
-0.556316
 21
1.035143
 31
0.0
  0
LINE
  8
0
  6
CONTINUOUS
 62
     7
  5
35E
 10
-0.556316
 20
1.035143
 30
0.0
 11
-0.580889
 21
1.03845
 31
0.0
  0
LINE
  8
0
  6
CONTINUOUS
 62
     7
  5
35F
 10
-0.580889
 20
1.03845
 30
0.0
 11
-0.605002
 21
1.046257
 31
0.0
  0
LINE
  8
0
  6
CONTINUOUS
 62
     7
  5
360
 10
-0.605002
 20
1.046257
 30
0.0
 11
-0.627303
 21
1.058277
 31
0.0
  0
LINE
  8
0
  6
CONTINUOUS
 62
     7
  5
361
 10
-0.627303
 20
1.058277
 30
0.0
 11
-0.64665
 21
1.073714
 31
0.0
  0
LINE
  8
0
  6
CONTINUOUS
 62
     7
  5
362
 10
-0.64665
 20
1.073714
 30
0.0
 11
-0.662838
 21
1.09213
 31
0.0
  0
LINE
  8
0
  6
CONTINUOUS
 62
     7
  5
363
 10
-0.662838
 20
1.09213
 30
0.0
 11
-0.67595
 21
1.113873
 31
0.0
  0
LINE
  8
0
  6
CONTINUOUS
 62
     7
  5
364
 10
-0.67595
 20
1.113873
 30
0.0
 11
-0.684981
 21
1.13785
 31
0.0
  0
LINE
  8
0
  6
CONTINUOUS
 62
     7
  5
365
 10
-0.684981
 20
1.13785
 30
0.0
 11
-0.68946
 21
1.162721
 31
0.0
  0
LINE
  8
0
  6
CONTINUOUS
 62
     7
  5
366
 10
-0.68946
 20
1.162721
 30
0.0
 11
-0.68946
 21
1.187279
 31
0.0
  0
LINE
  8
0
  6
CONTINUOUS
 62
     7
  5
367
 10
-0.68946
 20
1.187279
 30
0.0
 11
-0.684981
 21
1.21215
 31
0.0
  0
LINE
  8
0
  6
CONTINUOUS
 62
     7
  5
368
 10
-0.684981
 20
1.21215
 30
0.0
 11
-0.67595
 21
1.236127
 31
0.0
  0
LINE
  8
0
  6
CONTINUOUS
 62
     7
  5
369
 10
-0.67595
 20
1.236127
 30
0.0
 11
-0.662838
 21
1.25787
 31
0.0
  0
LINE
  8
0
  6
CONTINUOUS
 62
     7
  5
36A
 10
-0.662838
 20
1.25787
 30
0.0
 11
-0.64665
 21
1.276286
 31
0.0
  0
LINE
  8
0
  6
CONTINUOUS
 62
     7
  5
36B
 10
-0.64665
 20
1.276286
 30
0.0
 11
-0.627303
 21
1.291723
 31
0.0
  0
LINE
  8
0
  6
CONTINUOUS
 62
     7
  5
36C
 10
-0.627303
 20
1.291723
 30
0.0
 11
-0.605002
 21
1.303743
 31
0.0
  0
LINE
  8
0
  6
CONTINUOUS
 62
     7
  5
36D
 10
-0.605002
 20
1.303743
 30
0.0
 11
-0.580889
 21
1.31155
 31
0.0
  0
LINE
  8
0
  6
CONTINUOUS
 62
     7
  5
36E
 10
-0.580889
 20
1.31155
 30
0.0
 11
-0.556316
 21
1.314857
 31
0.0
  0
LINE
  8
0
  6
CONTINUOUS
 62
     7
  5
36F
 10
-0.556316
 20
1.314857
 30
0.0
 11
-0.531993
 21
1.313837
 31
0.0
  0
LINE
  8
0
  6
CONTINUOUS
 62
     7
  5
370
 10
-0.531993
 20
1.313837
 30
0.0
 11
-0.507391
 21
1.308358
 31
0.0
  0
LINE
  8
0
  6
CONTINUOUS
 62
     7
  5
371
 10
-0.507391
 20
1.308358
 30
0.0
 11
-0.483911
 21
1.298419
 31
0.0
  0
LINE
  8
0
  6
CONTINUOUS
 62
     7
  5
372
 10
-0.483911
 20
1.298419
 30
0.0
 11
-0.462823
 21
1.284545
 31
0.0
  0
LINE
  8
0
  6
CONTINUOUS
 62
     7
  5
373
 10
-0.462823
 20
1.284545
 30
0.0
 11
-0.445072
 21
1.267683
 31
0.0
  0
LINE
  8
0
  6
CONTINUOUS
 62
     7
  5
374
 10
-0.445072
 20
1.267683
 30
0.0
 11
-0.4302
 21
1.247443
 31
0.0
  0
LINE
  8
0
  6
CONTINUOUS
 62
     7
  5
375
 10
-0.4302
 20
1.247443
 30
0.0
 11
-0.418999
 21
1.224384
 31
0.0
  0
LINE
  8
0
  6
CONTINUOUS
 62
     7
  5
376
 10
-0.418999
 20
1.224384
 30
0.0
 11
-0.412204
 21
1.199741
 31
0.0
  0
LINE
  8
0
  6
CONTINUOUS
 62
     7
  5
377
 10
-0.412204
 20
1.199741
 30
0.0
 11
-0.41
 21
1.175
 31
0.0
  0
LINE
  8
0
  6
CONTINUOUS
 62
     7
  5
378
 10
-0.88
 20
-0.95
 30
0.0
 11
-0.88
 21
-1.4
 31
0.0
  0
LINE
  8
0
  6
CONTINUOUS
 62
     7
  5
379
 10
-0.88
 20
1.4
 30
0.0
 11
-0.88
 21
0.95
 31
0.0
  0
LINE
  8
0
  6
CONTINUOUS
 62
     7
  5
37A
 10
0.88
 20
1.4
 30
0.0
 11
-0.88
 21
1.4
 31
0.0
  0
LINE
  8
0
  6
CONTINUOUS
 62
     7
  5
37B
 10
-0.88
 20
-1.4
 30
0.0
 11
0.88
 21
-1.4
 31
0.0
  0
LINE
  8
0
  6
CONTINUOUS
 62
     7
  5
37C
 10
0.88
 20
-0.95
 30
0.0
 11
0.88
 21
-1.4
 31
0.0
  0
LINE
  8
0
  6
CONTINUOUS
 62
     7
  5
37D
 10
0.88
 20
1.4
 30
0.0
 11
0.88
 21
0.95
 31
0.0
  0
LINE
  8
0
  6
CONTINUOUS
 62
     7
  5
37E
 10
0.88
 20
0.95
 30
0.0
 11
-0.88
 21
0.95
 31
0.0
  0
LINE
  8
0
  6
CONTINUOUS
 62
     7
  5
37F
 10
-0.88
 20
-0.95
 30
0.0
 11
0.88
 21
-0.95
 31
0.0
  0
LINE
  8
0
  6
CONTINUOUS
 62
     7
  5
380
 10
-0.88
 20
-0.6
 30
0.0
 11
-0.88
 21
-0.95
 31
0.0
  0
LINE
  8
0
  6
CONTINUOUS
 62
     7
  5
381
 10
-0.88
 20
0.6
 30
0.0
 11
-0.88
 21
-0.6
 31
0.0
  0
LINE
  8
0
  6
CONTINUOUS
 62
     7
  5
382
 10
-0.88
 20
0.95
 30
0.0
 11
-0.88
 21
0.6
 31
0.0
  0
LINE
  8
0
  6
CONTINUOUS
 62
     7
  5
383
 10
-0.095
 20
-0.75
 30
0.0
 11
-0.096636
 21
-0.768461
 31
0.0
  0
LINE
  8
0
  6
CONTINUOUS
 62
     7
  5
384
 10
-0.096636
 20
-0.768461
 30
0.0
 11
-0.101683
 21
-0.786863
 31
0.0
  0
LINE
  8
0
  6
CONTINUOUS
 62
     7
  5
385
 10
-0.101683
 20
-0.786863
 30
0.0
 11
-0.110016
 21
-0.80411
 31
0.0
  0
LINE
  8
0
  6
CONTINUOUS
 62
     7
  5
386
 10
-0.110016
 20
-0.80411
 30
0.0
 11
-0.121106
 21
-0.819288
 31
0.0
  0
LINE
  8
0
  6
CONTINUOUS
 62
     7
  5
387
 10
-0.121106
 20
-0.819288
 30
0.0
 11
-0.134361
 21
-0.831954
 31
0.0
  0
LINE
  8
0
  6
CONTINUOUS
 62
     7
  5
388
 10
-0.134361
 20
-0.831954
 30
0.0
 11
-0.150143
 21
-0.842408
 31
0.0
  0
LINE
  8
0
  6
CONTINUOUS
 62
     7
  5
389
 10
-0.150143
 20
-0.842408
 30
0.0
 11
-0.167764
 21
-0.849929
 31
0.0
  0
LINE
  8
0
  6
CONTINUOUS
 62
     7
  5
38A
 10
-0.167764
 20
-0.849929
 30
0.0
 11
-0.186273
 21
-0.854099
 31
0.0
  0
LINE
  8
0
  6
CONTINUOUS
 62
     7
  5
38B
 10
-0.186273
 20
-0.854099
 30
0.0
 11
-0.204605
 21
-0.854899
 31
0.0
  0
LINE
  8
0
  6
CONTINUOUS
 62
     7
  5
38C
 10
-0.204605
 20
-0.854899
 30
0.0
 11
-0.223131
 21
-0.852421
 31
0.0
  0
LINE
  8
0
  6
CONTINUOUS
 62
     7
  5
38D
 10
-0.223131
 20
-0.852421
 30
0.0
 11
-0.241305
 21
-0.846534
 31
0.0
  0
LINE
  8
0
  6
CONTINUOUS
 62
     7
  5
38E
 10
-0.241305
 20
-0.846534
 30
0.0
 11
-0.258092
 21
-0.837466
 31
0.0
  0
LINE
  8
0
  6
CONTINUOUS
 62
     7
  5
38F
 10
-0.258092
 20
-0.837466
 30
0.0
 11
-0.272615
 21
-0.825842
 31
0.0
  0
LINE
  8
0
  6
CONTINUOUS
 62
     7
  5
390
 10
-0.272615
 20
-0.825842
 30
0.0
 11
-0.28475
 21
-0.811988
 31
0.0
  0
LINE
  8
0
  6
CONTINUOUS
 62
     7
  5
391
 10
-0.28475
 20
-0.811988
 30
0.0
 11
-0.294544
 21
-0.795678
 31
0.0
  0
LINE
  8
0
  6
CONTINUOUS
 62
     7
  5
392
 10
-0.294544
 20
-0.795678
 30
0.0
 11
-0.30127
 21
-0.777738
 31
0.0
  0
LINE
  8
0
  6
CONTINUOUS
 62
     7
  5
393
 10
-0.30127
 20
-0.777738
 30
0.0
 11
-0.304599
 21
-0.759163
 31
0.0
  0
LINE
  8
0
  6
CONTINUOUS
 62
     7
  5
394
 10
-0.304599
 20
-0.759163
 30
0.0
 11
-0.304599
 21
-0.740837
 31
0.0
  0
LINE
  8
0
  6
CONTINUOUS
 62
     7
  5
395
 10
-0.304599
 20
-0.740837
 30
0.0
 11
-0.30127
 21
-0.722262
 31
0.0
  0
LINE
  8
0
  6
CONTINUOUS
 62
     7
  5
396
 10
-0.30127
 20
-0.722262
 30
0.0
 11
-0.294544
 21
-0.704322
 31
0.0
  0
LINE
  8
0
  6
CONTINUOUS
 62
     7
  5
397
 10
-0.294544
 20
-0.704322
 30
0.0
 11
-0.28475
 21
-0.688012
 31
0.0
  0
LINE
  8
0
  6
CONTINUOUS
 62
     7
  5
398
 10
-0.28475
 20
-0.688012
 30
0.0
 11
-0.272615
 21
-0.674158
 31
0.0
  0
LINE
  8
0
  6
CONTINUOUS
 62
     7
  5
399
 10
-0.272615
 20
-0.674158
 30
0.0
 11
-0.258092
 21
-0.662534
 31
0.0
  0
LINE
  8
0
  6
CONTINUOUS
 62
     7
  5
39A
 10
-0.258092
 20
-0.662534
 30
0.0
 11
-0.241305
 21
-0.653466
 31
0.0
  0
LINE
  8
0
  6
CONTINUOUS
 62
     7
  5
39B
 10
-0.241305
 20
-0.653466
 30
0.0
 11
-0.223131
 21
-0.647579
 31
0.0
  0
LINE
  8
0
  6
CONTINUOUS
 62
     7
  5
39C
 10
-0.223131
 20
-0.647579
 30
0.0
 11
-0.204605
 21
-0.645101
 31
0.0
  0
LINE
  8
0
  6
CONTINUOUS
 62
     7
  5
39D
 10
-0.204605
 20
-0.645101
 30
0.0
 11
-0.186273
 21
-0.645901
 31
0.0
  0
LINE
  8
0
  6
CONTINUOUS
 62
     7
  5
39E
 10
-0.186273
 20
-0.645901
 30
0.0
 11
-0.167764
 21
-0.650071
 31
0.0
  0
LINE
  8
0
  6
CONTINUOUS
 62
     7
  5
39F
 10
-0.167764
 20
-0.650071
 30
0.0
 11
-0.150143
 21
-0.657592
 31
0.0
  0
LINE
  8
0
  6
CONTINUOUS
 62
     7
  5
3A0
 10
-0.150143
 20
-0.657592
 30
0.0
 11
-0.134361
 21
-0.668046
 31
0.0
  0
LINE
  8
0
  6
CONTINUOUS
 62
     7
  5
3A1
 10
-0.134361
 20
-0.668046
 30
0.0
 11
-0.121106
 21
-0.680712
 31
0.0
  0
LINE
  8
0
  6
CONTINUOUS
 62
     7
  5
3A2
 10
-0.121106
 20
-0.680712
 30
0.0
 11
-0.110016
 21
-0.69589
 31
0.0
  0
LINE
  8
0
  6
CONTINUOUS
 62
     7
  5
3A3
 10
-0.110016
 20
-0.69589
 30
0.0
 11
-0.101683
 21
-0.713137
 31
0.0
  0
LINE
  8
0
  6
CONTINUOUS
 62
     7
  5
3A4
 10
-0.101683
 20
-0.713137
 30
0.0
 11
-0.096636
 21
-0.731539
 31
0.0
  0
LINE
  8
0
  6
CONTINUOUS
 62
     7
  5
3A5
 10
-0.096636
 20
-0.731539
 30
0.0
 11
-0.095
 21
-0.75
 31
0.0
  0
LINE
  8
0
  6
CONTINUOUS
 62
     7
  5
3A6
 10
-0.095
 20
0.75
 30
0.0
 11
-0.096636
 21
0.731539
 31
0.0
  0
LINE
  8
0
  6
CONTINUOUS
 62
     7
  5
3A7
 10
-0.096636
 20
0.731539
 30
0.0
 11
-0.101683
 21
0.713137
 31
0.0
  0
LINE
  8
0
  6
CONTINUOUS
 62
     7
  5
3A8
 10
-0.101683
 20
0.713137
 30
0.0
 11
-0.110016
 21
0.69589
 31
0.0
  0
LINE
  8
0
  6
CONTINUOUS
 62
     7
  5
3A9
 10
-0.110016
 20
0.69589
 30
0.0
 11
-0.121106
 21
0.680712
 31
0.0
  0
LINE
  8
0
  6
CONTINUOUS
 62
     7
  5
3AA
 10
-0.121106
 20
0.680712
 30
0.0
 11
-0.134361
 21
0.668046
 31
0.0
  0
LINE
  8
0
  6
CONTINUOUS
 62
     7
  5
3AB
 10
-0.134361
 20
0.668046
 30
0.0
 11
-0.150143
 21
0.657592
 31
0.0
  0
LINE
  8
0
  6
CONTINUOUS
 62
     7
  5
3AC
 10
-0.150143
 20
0.657592
 30
0.0
 11
-0.167764
 21
0.650071
 31
0.0
  0
LINE
  8
0
  6
CONTINUOUS
 62
     7
  5
3AD
 10
-0.167764
 20
0.650071
 30
0.0
 11
-0.186273
 21
0.645901
 31
0.0
  0
LINE
  8
0
  6
CONTINUOUS
 62
     7
  5
3AE
 10
-0.186273
 20
0.645901
 30
0.0
 11
-0.204605
 21
0.645101
 31
0.0
  0
LINE
  8
0
  6
CONTINUOUS
 62
     7
  5
3AF
 10
-0.204605
 20
0.645101
 30
0.0
 11
-0.223131
 21
0.647579
 31
0.0
  0
LINE
  8
0
  6
CONTINUOUS
 62
     7
  5
3B0
 10
-0.223131
 20
0.647579
 30
0.0
 11
-0.241305
 21
0.653466
 31
0.0
  0
LINE
  8
0
  6
CONTINUOUS
 62
     7
  5
3B1
 10
-0.241305
 20
0.653466
 30
0.0
 11
-0.258092
 21
0.662534
 31
0.0
  0
LINE
  8
0
  6
CONTINUOUS
 62
     7
  5
3B2
 10
-0.258092
 20
0.662534
 30
0.0
 11
-0.272615
 21
0.674158
 31
0.0
  0
LINE
  8
0
  6
CONTINUOUS
 62
     7
  5
3B3
 10
-0.272615
 20
0.674158
 30
0.0
 11
-0.28475
 21
0.688012
 31
0.0
  0
LINE
  8
0
  6
CONTINUOUS
 62
     7
  5
3B4
 10
-0.28475
 20
0.688012
 30
0.0
 11
-0.294544
 21
0.704322
 31
0.0
  0
LINE
  8
0
  6
CONTINUOUS
 62
     7
  5
3B5
 10
-0.294544
 20
0.704322
 30
0.0
 11
-0.30127
 21
0.722262
 31
0.0
  0
LINE
  8
0
  6
CONTINUOUS
 62
     7
  5
3B6
 10
-0.30127
 20
0.722262
 30
0.0
 11
-0.304599
 21
0.740837
 31
0.0
  0
LINE
  8
0
  6
CONTINUOUS
 62
     7
  5
3B7
 10
-0.304599
 20
0.740837
 30
0.0
 11
-0.304599
 21
0.759163
 31
0.0
  0
LINE
  8
0
  6
CONTINUOUS
 62
     7
  5
3B8
 10
-0.304599
 20
0.759163
 30
0.0
 11
-0.30127
 21
0.777738
 31
0.0
  0
LINE
  8
0
  6
CONTINUOUS
 62
     7
  5
3B9
 10
-0.30127
 20
0.777738
 30
0.0
 11
-0.294544
 21
0.795678
 31
0.0
  0
LINE
  8
0
  6
CONTINUOUS
 62
     7
  5
3BA
 10
-0.294544
 20
0.795678
 30
0.0
 11
-0.28475
 21
0.811988
 31
0.0
  0
LINE
  8
0
  6
CONTINUOUS
 62
     7
  5
3BB
 10
-0.28475
 20
0.811988
 30
0.0
 11
-0.272615
 21
0.825842
 31
0.0
  0
LINE
  8
0
  6
CONTINUOUS
 62
     7
  5
3BC
 10
-0.272615
 20
0.825842
 30
0.0
 11
-0.258092
 21
0.837466
 31
0.0
  0
LINE
  8
0
  6
CONTINUOUS
 62
     7
  5
3BD
 10
-0.258092
 20
0.837466
 30
0.0
 11
-0.241305
 21
0.846534
 31
0.0
  0
LINE
  8
0
  6
CONTINUOUS
 62
     7
  5
3BE
 10
-0.241305
 20
0.846534
 30
0.0
 11
-0.223131
 21
0.852421
 31
0.0
  0
LINE
  8
0
  6
CONTINUOUS
 62
     7
  5
3BF
 10
-0.223131
 20
0.852421
 30
0.0
 11
-0.204605
 21
0.854899
 31
0.0
  0
LINE
  8
0
  6
CONTINUOUS
 62
     7
  5
3C0
 10
-0.204605
 20
0.854899
 30
0.0
 11
-0.186273
 21
0.854099
 31
0.0
  0
LINE
  8
0
  6
CONTINUOUS
 62
     7
  5
3C1
 10
-0.186273
 20
0.854099
 30
0.0
 11
-0.167764
 21
0.849929
 31
0.0
  0
LINE
  8
0
  6
CONTINUOUS
 62
     7
  5
3C2
 10
-0.167764
 20
0.849929
 30
0.0
 11
-0.150143
 21
0.842408
 31
0.0
  0
LINE
  8
0
  6
CONTINUOUS
 62
     7
  5
3C3
 10
-0.150143
 20
0.842408
 30
0.0
 11
-0.134361
 21
0.831954
 31
0.0
  0
LINE
  8
0
  6
CONTINUOUS
 62
     7
  5
3C4
 10
-0.134361
 20
0.831954
 30
0.0
 11
-0.121106
 21
0.819288
 31
0.0
  0
LINE
  8
0
  6
CONTINUOUS
 62
     7
  5
3C5
 10
-0.121106
 20
0.819288
 30
0.0
 11
-0.110016
 21
0.80411
 31
0.0
  0
LINE
  8
0
  6
CONTINUOUS
 62
     7
  5
3C6
 10
-0.110016
 20
0.80411
 30
0.0
 11
-0.101683
 21
0.786863
 31
0.0
  0
LINE
  8
0
  6
CONTINUOUS
 62
     7
  5
3C7
 10
-0.101683
 20
0.786863
 30
0.0
 11
-0.096636
 21
0.768461
 31
0.0
  0
LINE
  8
0
  6
CONTINUOUS
 62
     7
  5
3C8
 10
-0.096636
 20
0.768461
 30
0.0
 11
-0.095
 21
0.75
 31
0.0
  0
LINE
  8
0
  6
CONTINUOUS
 62
     7
  5
3C9
 10
0.305
 20
-0.75
 30
0.0
 11
0.303365
 21
-0.768459
 31
0.0
  0
LINE
  8
0
  6
CONTINUOUS
 62
     7
  5
3CA
 10
0.303365
 20
-0.768459
 30
0.0
 11
0.29832
 21
-0.786854
 31
0.0
  0
LINE
  8
0
  6
CONTINUOUS
 62
     7
  5
3CB
 10
0.29832
 20
-0.786854
 30
0.0
 11
0.289994
 21
-0.804093
 31
0.0
  0
LINE
  8
0
  6
CONTINUOUS
 62
     7
  5
3CC
 10
0.289994
 20
-0.804093
 30
0.0
 11
0.278918
 21
-0.81926
 31
0.0
  0
LINE
  8
0
  6
CONTINUOUS
 62
     7
  5
3CD
 10
0.278918
 20
-0.81926
 30
0.0
 11
0.265685
 21
-0.831918
 31
0.0
  0
LINE
  8
0
  6
CONTINUOUS
 62
     7
  5
3CE
 10
0.265685
 20
-0.831918
 30
0.0
 11
0.249929
 21
-0.842369
 31
0.0
  0
LINE
  8
0
  6
CONTINUOUS
 62
     7
  5
3CF
 10
0.249929
 20
-0.842369
 30
0.0
 11
0.232332
 21
-0.849898
 31
0.0
  0
LINE
  8
0
  6
CONTINUOUS
 62
     7
  5
3D0
 10
0.232332
 20
-0.849898
 30
0.0
 11
0.213839
 21
-0.854084
 31
0.0
  0
LINE
  8
0
  6
CONTINUOUS
 62
     7
  5
3D1
 10
0.213839
 20
-0.854084
 30
0.0
 11
0.195508
 21
-0.854904
 31
0.0
  0
LINE
  8
0
  6
CONTINUOUS
 62
     7
  5
3D2
 10
0.195508
 20
-0.854904
 30
0.0
 11
0.176975
 21
-0.852444
 31
0.0
  0
LINE
  8
0
  6
CONTINUOUS
 62
     7
  5
3D3
 10
0.176975
 20
-0.852444
 30
0.0
 11
0.15878
 21
-0.846571
 31
0.0
  0
LINE
  8
0
  6
CONTINUOUS
 62
     7
  5
3D4
 10
0.15878
 20
-0.846571
 30
0.0
 11
0.141967
 21
-0.837505
 31
0.0
  0
LINE
  8
0
  6
CONTINUOUS
 62
     7
  5
3D5
 10
0.141967
 20
-0.837505
 30
0.0
 11
0.127418
 21
-0.825874
 31
0.0
  0
LINE
  8
0
  6
CONTINUOUS
 62
     7
  5
3D6
 10
0.127418
 20
-0.825874
 30
0.0
 11
0.115267
 21
-0.81201
 31
0.0
  0
LINE
  8
0
  6
CONTINUOUS
 62
     7
  5
3D7
 10
0.115267
 20
-0.81201
 30
0.0
 11
0.105462
 21
-0.79569
 31
0.0
  0
LINE
  8
0
  6
CONTINUOUS
 62
     7
  5
3D8
 10
0.105462
 20
-0.79569
 30
0.0
 11
0.098731
 21
-0.777743
 31
0.0
  0
LINE
  8
0
  6
CONTINUOUS
 62
     7
  5
3D9
 10
0.098731
 20
-0.777743
 30
0.0
 11
0.095401
 21
-0.759163
 31
0.0
  0
LINE
  8
0
  6
CONTINUOUS
 62
     7
  5
3DA
 10
0.095401
 20
-0.759163
 30
0.0
 11
0.095401
 21
-0.740837
 31
0.0
  0
LINE
  8
0
  6
CONTINUOUS
 62
     7
  5
3DB
 10
0.095401
 20
-0.740837
 30
0.0
 11
0.098731
 21
-0.722257
 31
0.0
  0
LINE
  8
0
  6
CONTINUOUS
 62
     7
  5
3DC
 10
0.098731
 20
-0.722257
 30
0.0
 11
0.105462
 21
-0.70431
 31
0.0
  0
LINE
  8
0
  6
CONTINUOUS
 62
     7
  5
3DD
 10
0.105462
 20
-0.70431
 30
0.0
 11
0.115267
 21
-0.68799
 31
0.0
  0
LINE
  8
0
  6
CONTINUOUS
 62
     7
  5
3DE
 10
0.115267
 20
-0.68799
 30
0.0
 11
0.127418
 21
-0.674126
 31
0.0
  0
LINE
  8
0
  6
CONTINUOUS
 62
     7
  5
3DF
 10
0.127418
 20
-0.674126
 30
0.0
 11
0.141967
 21
-0.662495
 31
0.0
  0
LINE
  8
0
  6
CONTINUOUS
 62
     7
  5
3E0
 10
0.141967
 20
-0.662495
 30
0.0
 11
0.15878
 21
-0.653429
 31
0.0
  0
LINE
  8
0
  6
CONTINUOUS
 62
     7
  5
3E1
 10
0.15878
 20
-0.653429
 30
0.0
 11
0.176975
 21
-0.647556
 31
0.0
  0
LINE
  8
0
  6
CONTINUOUS
 62
     7
  5
3E2
 10
0.176975
 20
-0.647556
 30
0.0
 11
0.195508
 21
-0.645096
 31
0.0
  0
LINE
  8
0
  6
CONTINUOUS
 62
     7
  5
3E3
 10
0.195508
 20
-0.645096
 30
0.0
 11
0.213839
 21
-0.645916
 31
0.0
  0
LINE
  8
0
  6
CONTINUOUS
 62
     7
  5
3E4
 10
0.213839
 20
-0.645916
 30
0.0
 11
0.232332
 21
-0.650102
 31
0.0
  0
LINE
  8
0
  6
CONTINUOUS
 62
     7
  5
3E5
 10
0.232332
 20
-0.650102
 30
0.0
 11
0.249929
 21
-0.657631
 31
0.0
  0
LINE
  8
0
  6
CONTINUOUS
 62
     7
  5
3E6
 10
0.249929
 20
-0.657631
 30
0.0
 11
0.265685
 21
-0.668082
 31
0.0
  0
LINE
  8
0
  6
CONTINUOUS
 62
     7
  5
3E7
 10
0.265685
 20
-0.668082
 30
0.0
 11
0.278918
 21
-0.68074
 31
0.0
  0
LINE
  8
0
  6
CONTINUOUS
 62
     7
  5
3E8
 10
0.278918
 20
-0.68074
 30
0.0
 11
0.289994
 21
-0.695907
 31
0.0
  0
LINE
  8
0
  6
CONTINUOUS
 62
     7
  5
3E9
 10
0.289994
 20
-0.695907
 30
0.0
 11
0.29832
 21
-0.713146
 31
0.0
  0
LINE
  8
0
  6
CONTINUOUS
 62
     7
  5
3EA
 10
0.29832
 20
-0.713146
 30
0.0
 11
0.303365
 21
-0.731541
 31
0.0
  0
LINE
  8
0
  6
CONTINUOUS
 62
     7
  5
3EB
 10
0.303365
 20
-0.731541
 30
0.0
 11
0.305
 21
-0.75
 31
0.0
  0
LINE
  8
0
  6
CONTINUOUS
 62
     7
  5
3EC
 10
0.305
 20
0.75
 30
0.0
 11
0.303365
 21
0.731541
 31
0.0
  0
LINE
  8
0
  6
CONTINUOUS
 62
     7
  5
3ED
 10
0.303365
 20
0.731541
 30
0.0
 11
0.29832
 21
0.713146
 31
0.0
  0
LINE
  8
0
  6
CONTINUOUS
 62
     7
  5
3EE
 10
0.29832
 20
0.713146
 30
0.0
 11
0.289994
 21
0.695907
 31
0.0
  0
LINE
  8
0
  6
CONTINUOUS
 62
     7
  5
3EF
 10
0.289994
 20
0.695907
 30
0.0
 11
0.278918
 21
0.68074
 31
0.0
  0
LINE
  8
0
  6
CONTINUOUS
 62
     7
  5
3F0
 10
0.278918
 20
0.68074
 30
0.0
 11
0.265685
 21
0.668082
 31
0.0
  0
LINE
  8
0
  6
CONTINUOUS
 62
     7
  5
3F1
 10
0.265685
 20
0.668082
 30
0.0
 11
0.249929
 21
0.657631
 31
0.0
  0
LINE
  8
0
  6
CONTINUOUS
 62
     7
  5
3F2
 10
0.249929
 20
0.657631
 30
0.0
 11
0.232332
 21
0.650102
 31
0.0
  0
LINE
  8
0
  6
CONTINUOUS
 62
     7
  5
3F3
 10
0.232332
 20
0.650102
 30
0.0
 11
0.213839
 21
0.645916
 31
0.0
  0
LINE
  8
0
  6
CONTINUOUS
 62
     7
  5
3F4
 10
0.213839
 20
0.645916
 30
0.0
 11
0.195508
 21
0.645096
 31
0.0
  0
LINE
  8
0
  6
CONTINUOUS
 62
     7
  5
3F5
 10
0.195508
 20
0.645096
 30
0.0
 11
0.176975
 21
0.647556
 31
0.0
  0
LINE
  8
0
  6
CONTINUOUS
 62
     7
  5
3F6
 10
0.176975
 20
0.647556
 30
0.0
 11
0.15878
 21
0.653429
 31
0.0
  0
LINE
  8
0
  6
CONTINUOUS
 62
     7
  5
3F7
 10
0.15878
 20
0.653429
 30
0.0
 11
0.141967
 21
0.662495
 31
0.0
  0
LINE
  8
0
  6
CONTINUOUS
 62
     7
  5
3F8
 10
0.141967
 20
0.662495
 30
0.0
 11
0.127418
 21
0.674126
 31
0.0
  0
LINE
  8
0
  6
CONTINUOUS
 62
     7
  5
3F9
 10
0.127418
 20
0.674126
 30
0.0
 11
0.115267
 21
0.68799
 31
0.0
  0
LINE
  8
0
  6
CONTINUOUS
 62
     7
  5
3FA
 10
0.115267
 20
0.68799
 30
0.0
 11
0.105462
 21
0.70431
 31
0.0
  0
LINE
  8
0
  6
CONTINUOUS
 62
     7
  5
3FB
 10
0.105462
 20
0.70431
 30
0.0
 11
0.098731
 21
0.722257
 31
0.0
  0
LINE
  8
0
  6
CONTINUOUS
 62
     7
  5
3FC
 10
0.098731
 20
0.722257
 30
0.0
 11
0.095401
 21
0.740837
 31
0.0
  0
LINE
  8
0
  6
CONTINUOUS
 62
     7
  5
3FD
 10
0.095401
 20
0.740837
 30
0.0
 11
0.095401
 21
0.759163
 31
0.0
  0
LINE
  8
0
  6
CONTINUOUS
 62
     7
  5
3FE
 10
0.095401
 20
0.759163
 30
0.0
 11
0.098731
 21
0.777743
 31
0.0
  0
LINE
  8
0
  6
CONTINUOUS
 62
     7
  5
3FF
 10
0.098731
 20
0.777743
 30
0.0
 11
0.105462
 21
0.79569
 31
0.0
  0
LINE
  8
0
  6
CONTINUOUS
 62
     7
  5
400
 10
0.105462
 20
0.79569
 30
0.0
 11
0.115267
 21
0.81201
 31
0.0
  0
LINE
  8
0
  6
CONTINUOUS
 62
     7
  5
401
 10
0.115267
 20
0.81201
 30
0.0
 11
0.127418
 21
0.825874
 31
0.0
  0
LINE
  8
0
  6
CONTINUOUS
 62
     7
  5
402
 10
0.127418
 20
0.825874
 30
0.0
 11
0.141967
 21
0.837505
 31
0.0
  0
LINE
  8
0
  6
CONTINUOUS
 62
     7
  5
403
 10
0.141967
 20
0.837505
 30
0.0
 11
0.15878
 21
0.846571
 31
0.0
  0
LINE
  8
0
  6
CONTINUOUS
 62
     7
  5
404
 10
0.15878
 20
0.846571
 30
0.0
 11
0.176975
 21
0.852444
 31
0.0
  0
LINE
  8
0
  6
CONTINUOUS
 62
     7
  5
405
 10
0.176975
 20
0.852444
 30
0.0
 11
0.195508
 21
0.854904
 31
0.0
  0
LINE
  8
0
  6
CONTINUOUS
 62
     7
  5
406
 10
0.195508
 20
0.854904
 30
0.0
 11
0.213839
 21
0.854084
 31
0.0
  0
LINE
  8
0
  6
CONTINUOUS
 62
     7
  5
407
 10
0.213839
 20
0.854084
 30
0.0
 11
0.232332
 21
0.849898
 31
0.0
  0
LINE
  8
0
  6
CONTINUOUS
 62
     7
  5
408
 10
0.232332
 20
0.849898
 30
0.0
 11
0.249929
 21
0.842369
 31
0.0
  0
LINE
  8
0
  6
CONTINUOUS
 62
     7
  5
409
 10
0.249929
 20
0.842369
 30
0.0
 11
0.265685
 21
0.831918
 31
0.0
  0
LINE
  8
0
  6
CONTINUOUS
 62
     7
  5
40A
 10
0.265685
 20
0.831918
 30
0.0
 11
0.278918
 21
0.81926
 31
0.0
  0
LINE
  8
0
  6
CONTINUOUS
 62
     7
  5
40B
 10
0.278918
 20
0.81926
 30
0.0
 11
0.289994
 21
0.804093
 31
0.0
  0
LINE
  8
0
  6
CONTINUOUS
 62
     7
  5
40C
 10
0.289994
 20
0.804093
 30
0.0
 11
0.29832
 21
0.786854
 31
0.0
  0
LINE
  8
0
  6
CONTINUOUS
 62
     7
  5
40D
 10
0.29832
 20
0.786854
 30
0.0
 11
0.303365
 21
0.768459
 31
0.0
  0
LINE
  8
0
  6
CONTINUOUS
 62
     7
  5
40E
 10
0.303365
 20
0.768459
 30
0.0
 11
0.305
 21
0.75
 31
0.0
  0
LINE
  8
0
  6
CONTINUOUS
 62
     7
  5
40F
 10
0.705
 20
-0.75
 30
0.0
 11
0.703345
 21
-0.768568
 31
0.0
  0
LINE
  8
0
  6
CONTINUOUS
 62
     7
  5
410
 10
0.703345
 20
-0.768568
 30
0.0
 11
0.698248
 21
-0.787044
 31
0.0
  0
LINE
  8
0
  6
CONTINUOUS
 62
     7
  5
411
 10
0.698248
 20
-0.787044
 30
0.0
 11
0.689861
 21
-0.804314
 31
0.0
  0
LINE
  8
0
  6
CONTINUOUS
 62
     7
  5
412
 10
0.689861
 20
-0.804314
 30
0.0
 11
0.678745
 21
-0.819456
 31
0.0
  0
LINE
  8
0
  6
CONTINUOUS
 62
     7
  5
413
 10
0.678745
 20
-0.819456
 30
0.0
 11
0.665499
 21
-0.832067
 31
0.0
  0
LINE
  8
0
  6
CONTINUOUS
 62
     7
  5
414
 10
0.665499
 20
-0.832067
 30
0.0
 11
0.649773
 21
-0.842453
 31
0.0
  0
LINE
  8
0
  6
CONTINUOUS
 62
     7
  5
415
 10
0.649773
 20
-0.842453
 30
0.0
 11
0.632256
 21
-0.849923
 31
0.0
  0
LINE
  8
0
  6
CONTINUOUS
 62
     7
  5
416
 10
0.632256
 20
-0.849923
 30
0.0
 11
0.613871
 21
-0.85408
 31
0.0
  0
LINE
  8
0
  6
CONTINUOUS
 62
     7
  5
417
 10
0.613871
 20
-0.85408
 30
0.0
 11
0.595654
 21
-0.85491
 31
0.0
  0
LINE
  8
0
  6
CONTINUOUS
 62
     7
  5
418
 10
0.595654
 20
-0.85491
 30
0.0
 11
0.577221
 21
-0.852499
 31
0.0
  0
LINE
  8
0
  6
CONTINUOUS
 62
     7
  5
419
 10
0.577221
 20
-0.852499
 30
0.0
 11
0.559081
 21
-0.846699
 31
0.0
  0
LINE
  8
0
  6
CONTINUOUS
 62
     7
  5
41A
 10
0.559081
 20
-0.846699
 30
0.0
 11
0.54227
 21
-0.837706
 31
0.0
  0
LINE
  8
0
  6
CONTINUOUS
 62
     7
  5
41B
 10
0.54227
 20
-0.837706
 30
0.0
 11
0.52767
 21
-0.826115
 31
0.0
  0
LINE
  8
0
  6
CONTINUOUS
 62
     7
  5
41C
 10
0.52767
 20
-0.826115
 30
0.0
 11
0.515461
 21
-0.812275
 31
0.0
  0
LINE
  8
0
  6
CONTINUOUS
 62
     7
  5
41D
 10
0.515461
 20
-0.812275
 30
0.0
 11
0.505578
 21
-0.79593
 31
0.0
  0
LINE
  8
0
  6
CONTINUOUS
 62
     7
  5
41E
 10
0.505578
 20
-0.79593
 30
0.0
 11
0.498777
 21
-0.777908
 31
0.0
  0
LINE
  8
0
  6
CONTINUOUS
 62
     7
  5
41F
 10
0.498777
 20
-0.777908
 30
0.0
 11
0.495406
 21
-0.759222
 31
0.0
  0
LINE
  8
0
  6
CONTINUOUS
 62
     7
  5
420
 10
0.495406
 20
-0.759222
 30
0.0
 11
0.495406
 21
-0.740778
 31
0.0
  0
LINE
  8
0
  6
CONTINUOUS
 62
     7
  5
421
 10
0.495406
 20
-0.740778
 30
0.0
 11
0.498777
 21
-0.722092
 31
0.0
  0
LINE
  8
0
  6
CONTINUOUS
 62
     7
  5
422
 10
0.498777
 20
-0.722092
 30
0.0
 11
0.505578
 21
-0.70407
 31
0.0
  0
LINE
  8
0
  6
CONTINUOUS
 62
     7
  5
423
 10
0.505578
 20
-0.70407
 30
0.0
 11
0.515461
 21
-0.687725
 31
0.0
  0
LINE
  8
0
  6
CONTINUOUS
 62
     7
  5
424
 10
0.515461
 20
-0.687725
 30
0.0
 11
0.52767
 21
-0.673885
 31
0.0
  0
LINE
  8
0
  6
CONTINUOUS
 62
     7
  5
425
 10
0.52767
 20
-0.673885
 30
0.0
 11
0.54227
 21
-0.662294
 31
0.0
  0
LINE
  8
0
  6
CONTINUOUS
 62
     7
  5
426
 10
0.54227
 20
-0.662294
 30
0.0
 11
0.559081
 21
-0.653301
 31
0.0
  0
LINE
  8
0
  6
CONTINUOUS
 62
     7
  5
427
 10
0.559081
 20
-0.653301
 30
0.0
 11
0.577221
 21
-0.647501
 31
0.0
  0
LINE
  8
0
  6
CONTINUOUS
 62
     7
  5
428
 10
0.577221
 20
-0.647501
 30
0.0
 11
0.595654
 21
-0.64509
 31
0.0
  0
LINE
  8
0
  6
CONTINUOUS
 62
     7
  5
429
 10
0.595654
 20
-0.64509
 30
0.0
 11
0.613871
 21
-0.64592
 31
0.0
  0
LINE
  8
0
  6
CONTINUOUS
 62
     7
  5
42A
 10
0.613871
 20
-0.64592
 30
0.0
 11
0.632256
 21
-0.650077
 31
0.0
  0
LINE
  8
0
  6
CONTINUOUS
 62
     7
  5
42B
 10
0.632256
 20
-0.650077
 30
0.0
 11
0.649773
 21
-0.657547
 31
0.0
  0
LINE
  8
0
  6
CONTINUOUS
 62
     7
  5
42C
 10
0.649773
 20
-0.657547
 30
0.0
 11
0.665499
 21
-0.667933
 31
0.0
  0
LINE
  8
0
  6
CONTINUOUS
 62
     7
  5
42D
 10
0.665499
 20
-0.667933
 30
0.0
 11
0.678745
 21
-0.680544
 31
0.0
  0
LINE
  8
0
  6
CONTINUOUS
 62
     7
  5
42E
 10
0.678745
 20
-0.680544
 30
0.0
 11
0.689861
 21
-0.695686
 31
0.0
  0
LINE
  8
0
  6
CONTINUOUS
 62
     7
  5
42F
 10
0.689861
 20
-0.695686
 30
0.0
 11
0.698248
 21
-0.712956
 31
0.0
  0
LINE
  8
0
  6
CONTINUOUS
 62
     7
  5
430
 10
0.698248
 20
-0.712956
 30
0.0
 11
0.703345
 21
-0.731432
 31
0.0
  0
LINE
  8
0
  6
CONTINUOUS
 62
     7
  5
431
 10
0.703345
 20
-0.731432
 30
0.0
 11
0.705
 21
-0.75
 31
0.0
  0
LINE
  8
0
  6
CONTINUOUS
 62
     7
  5
432
 10
0.705
 20
0.75
 30
0.0
 11
0.703345
 21
0.731432
 31
0.0
  0
LINE
  8
0
  6
CONTINUOUS
 62
     7
  5
433
 10
0.703345
 20
0.731432
 30
0.0
 11
0.698248
 21
0.712956
 31
0.0
  0
LINE
  8
0
  6
CONTINUOUS
 62
     7
  5
434
 10
0.698248
 20
0.712956
 30
0.0
 11
0.689861
 21
0.695686
 31
0.0
  0
LINE
  8
0
  6
CONTINUOUS
 62
     7
  5
435
 10
0.689861
 20
0.695686
 30
0.0
 11
0.678745
 21
0.680544
 31
0.0
  0
LINE
  8
0
  6
CONTINUOUS
 62
     7
  5
436
 10
0.678745
 20
0.680544
 30
0.0
 11
0.665499
 21
0.667933
 31
0.0
  0
LINE
  8
0
  6
CONTINUOUS
 62
     7
  5
437
 10
0.665499
 20
0.667933
 30
0.0
 11
0.649773
 21
0.657547
 31
0.0
  0
LINE
  8
0
  6
CONTINUOUS
 62
     7
  5
438
 10
0.649773
 20
0.657547
 30
0.0
 11
0.632256
 21
0.650077
 31
0.0
  0
LINE
  8
0
  6
CONTINUOUS
 62
     7
  5
439
 10
0.632256
 20
0.650077
 30
0.0
 11
0.613871
 21
0.64592
 31
0.0
  0
LINE
  8
0
  6
CONTINUOUS
 62
     7
  5
43A
 10
0.613871
 20
0.64592
 30
0.0
 11
0.595654
 21
0.64509
 31
0.0
  0
LINE
  8
0
  6
CONTINUOUS
 62
     7
  5
43B
 10
0.595654
 20
0.64509
 30
0.0
 11
0.577221
 21
0.647501
 31
0.0
  0
LINE
  8
0
  6
CONTINUOUS
 62
     7
  5
43C
 10
0.577221
 20
0.647501
 30
0.0
 11
0.559081
 21
0.653301
 31
0.0
  0
LINE
  8
0
  6
CONTINUOUS
 62
     7
  5
43D
 10
0.559081
 20
0.653301
 30
0.0
 11
0.54227
 21
0.662294
 31
0.0
  0
LINE
  8
0
  6
CONTINUOUS
 62
     7
  5
43E
 10
0.54227
 20
0.662294
 30
0.0
 11
0.52767
 21
0.673885
 31
0.0
  0
LINE
  8
0
  6
CONTINUOUS
 62
     7
  5
43F
 10
0.52767
 20
0.673885
 30
0.0
 11
0.515461
 21
0.687725
 31
0.0
  0
LINE
  8
0
  6
CONTINUOUS
 62
     7
  5
440
 10
0.515461
 20
0.687725
 30
0.0
 11
0.505578
 21
0.70407
 31
0.0
  0
LINE
  8
0
  6
CONTINUOUS
 62
     7
  5
441
 10
0.505578
 20
0.70407
 30
0.0
 11
0.498777
 21
0.722092
 31
0.0
  0
LINE
  8
0
  6
CONTINUOUS
 62
     7
  5
442
 10
0.498777
 20
0.722092
 30
0.0
 11
0.495406
 21
0.740778
 31
0.0
  0
LINE
  8
0
  6
CONTINUOUS
 62
     7
  5
443
 10
0.495406
 20
0.740778
 30
0.0
 11
0.495406
 21
0.759222
 31
0.0
  0
LINE
  8
0
  6
CONTINUOUS
 62
     7
  5
444
 10
0.495406
 20
0.759222
 30
0.0
 11
0.498777
 21
0.777908
 31
0.0
  0
LINE
  8
0
  6
CONTINUOUS
 62
     7
  5
445
 10
0.498777
 20
0.777908
 30
0.0
 11
0.505578
 21
0.79593
 31
0.0
  0
LINE
  8
0
  6
CONTINUOUS
 62
     7
  5
446
 10
0.505578
 20
0.79593
 30
0.0
 11
0.515461
 21
0.812275
 31
0.0
  0
LINE
  8
0
  6
CONTINUOUS
 62
     7
  5
447
 10
0.515461
 20
0.812275
 30
0.0
 11
0.52767
 21
0.826115
 31
0.0
  0
LINE
  8
0
  6
CONTINUOUS
 62
     7
  5
448
 10
0.52767
 20
0.826115
 30
0.0
 11
0.54227
 21
0.837706
 31
0.0
  0
LINE
  8
0
  6
CONTINUOUS
 62
     7
  5
449
 10
0.54227
 20
0.837706
 30
0.0
 11
0.559081
 21
0.846699
 31
0.0
  0
LINE
  8
0
  6
CONTINUOUS
 62
     7
  5
44A
 10
0.559081
 20
0.846699
 30
0.0
 11
0.577221
 21
0.852499
 31
0.0
  0
LINE
  8
0
  6
CONTINUOUS
 62
     7
  5
44B
 10
0.577221
 20
0.852499
 30
0.0
 11
0.595654
 21
0.85491
 31
0.0
  0
LINE
  8
0
  6
CONTINUOUS
 62
     7
  5
44C
 10
0.595654
 20
0.85491
 30
0.0
 11
0.613871
 21
0.85408
 31
0.0
  0
LINE
  8
0
  6
CONTINUOUS
 62
     7
  5
44D
 10
0.613871
 20
0.85408
 30
0.0
 11
0.632256
 21
0.849923
 31
0.0
  0
LINE
  8
0
  6
CONTINUOUS
 62
     7
  5
44E
 10
0.632256
 20
0.849923
 30
0.0
 11
0.649773
 21
0.842453
 31
0.0
  0
LINE
  8
0
  6
CONTINUOUS
 62
     7
  5
44F
 10
0.649773
 20
0.842453
 30
0.0
 11
0.665499
 21
0.832067
 31
0.0
  0
LINE
  8
0
  6
CONTINUOUS
 62
     7
  5
450
 10
0.665499
 20
0.832067
 30
0.0
 11
0.678745
 21
0.819456
 31
0.0
  0
LINE
  8
0
  6
CONTINUOUS
 62
     7
  5
451
 10
0.678745
 20
0.819456
 30
0.0
 11
0.689861
 21
0.804314
 31
0.0
  0
LINE
  8
0
  6
CONTINUOUS
 62
     7
  5
452
 10
0.689861
 20
0.804314
 30
0.0
 11
0.698248
 21
0.787044
 31
0.0
  0
LINE
  8
0
  6
CONTINUOUS
 62
     7
  5
453
 10
0.698248
 20
0.787044
 30
0.0
 11
0.703345
 21
0.768568
 31
0.0
  0
LINE
  8
0
  6
CONTINUOUS
 62
     7
  5
454
 10
0.703345
 20
0.768568
 30
0.0
 11
0.705
 21
0.75
 31
0.0
  0
LINE
  8
0
  6
CONTINUOUS
 62
     7
  5
455
 10
-0.45
 20
0.125
 30
0.0
 11
0.45
 21
0.125
 31
0.0
  0
LINE
  8
0
  6
CONTINUOUS
 62
     7
  5
456
 10
0.45
 20
0.125
 30
0.0
 11
0.45
 21
-0.125
 31
0.0
  0
LINE
  8
0
  6
CONTINUOUS
 62
     7
  5
457
 10
0.45
 20
-0.125
 30
0.0
 11
-0.45
 21
-0.125
 31
0.0
  0
LINE
  8
0
  6
CONTINUOUS
 62
     7
  5
458
 10
-0.45
 20
-0.125
 30
0.0
 11
-0.45
 21
0.125
 31
0.0
  0
LINE
  8
0
  6
CONTINUOUS
 62
     7
  5
459
 10
-0.88
 20
-0.6
 30
0.0
 11
0.88
 21
-0.6
 31
0.0
  0
LINE
  8
0
  6
CONTINUOUS
 62
     7
  5
45A
 10
0.88
 20
0.6
 30
0.0
 11
0.88
 21
-0.6
 31
0.0
  0
LINE
  8
0
  6
CONTINUOUS
 62
     7
  5
45B
 10
0.88
 20
0.6
 30
0.0
 11
-0.88
 21
0.6
 31
0.0
  0
LINE
  8
0
  6
CONTINUOUS
 62
     7
  5
45C
 10
0.88
 20
-0.6
 30
0.0
 11
0.88
 21
-0.95
 31
0.0
  0
LINE
  8
0
  6
CONTINUOUS
 62
     7
  5
45D
 10
0.88
 20
0.95
 30
0.0
 11
0.88
 21
0.6
 31
0.0
  0
LINE
  8
0
  6
CONTINUOUS
 62
     3
  5
45E
 10
0.61
 20
1.18
 30
0.0
 11
0.77
 21
1.18
 31
0.0
  0
LINE
  8
0
  6
CONTINUOUS
 62
     3
  5
45F
 10
0.69
 20
1.1
 30
0.0
 11
0.69
 21
1.26
 31
0.0
  0
LINE
  8
0
  6
CONTINUOUS
 62
     3
  5
460
 10
0.61
 20
1.38
 30
0.0
 11
0.77
 21
1.38
 31
0.0
  0
LINE
  8
0
  6
CONTINUOUS
 62
     3
  5
461
 10
0.69
 20
1.3
 30
0.0
 11
0.69
 21
1.46
 31
0.0
  0
LINE
  8
0
  6
CONTINUOUS
 62
     3
  5
462
 10
-0.77
 20
-1.18
 30
0.0
 11
-0.61
 21
-1.18
 31
0.0
  0
LINE
  8
0
  6
CONTINUOUS
 62
     3
  5
463
 10
-0.69
 20
-1.26
 30
0.0
 11
-0.69
 21
-1.1
 31
0.0
  0
LINE
  8
0
  6
CONTINUOUS
 62
     3
  5
464
 10
-0.77
 20
-1.38
 30
0.0
 11
-0.61
 21
-1.38
 31
0.0
  0
LINE
  8
0
  6
CONTINUOUS
 62
     3
  5
465
 10
-0.69
 20
-1.46
 30
0.0
 11
-0.69
 21
-1.3
 31
0.0
  0
ENDSEC
  0
EOF
