999
DXF file: C:\Users\sesa63760\Dev\_Creo\CAD\MCADPP0003422_3D-CAD\drw0001_3.dxf
999
Pro/ENGINEER 2019471 by Parametric Technology Corporation
  0
SECTION
  2
HEADER
  9
$ACADVER
  1
AC1024
  9
$DWGCODEPAGE
  3
ANSI_1252
  9
$EXTMAX
 10
66.3633052407
 20
93.8566745547
 30
0.0
  9
$EXTMIN
 10
0.0
 20
0.0
 30
0.0
  9
$LIMMIN
 10
0.0
 20
0.0
  9
$LIMMAX
 10
66.3633052407
 20
93.8566745547
  9
$VIEWCTR
 10
33.1816526204
 20
46.9283372774
  9
$VIEWSIZE
 40
93.8566745547
  9
$CLAYER
  8
0
  9
$LTSCALE
 40
6.1180647117
  9
$CELTYPE
  6
BYLAYER
  9
$DIMSCALE
 40
1.0
  9
$DIMASZ
 40
0.7900393481
  9
$DIMEXO
 40
1.0
  9
$DIMDLI
 40
4.2270265281
  9
$DIMEXE
 40
1.0
  9
$DIMCEN
 40
1.0011378619
  9
$DIMLFAC
 40
1.0
  9
$DIMBLK
  1
_FILLED
  9
$DIMALT
 70
0
  9
$DIMALTF
 40
0.0393700787
  9
$DIMTXT
 40
1.1060550873
  9
$DIMTOL
 70
1
  9
$DIMLIM
 70
0
  9
$DIMTFAC
 40
1.0
  9
$DIMTP
 40
0.01
  9
$DIMTM
 40
0.01
  9
$DIMGAP
 40
0.625
  9
$DIMDSEP
 70
46
  9
$AUNITS
 70
0
  9
$PDMODE
 70
3
  9
$PDSIZE
 40
0.3125
  9
$HANDSEED
  5
254
  9
$TILEMODE
 70
1
  9
$MEASUREMENT
 70
1
  9
$INSUNITS
 70
4
  0
ENDSEC
  0
SECTION
  2
CLASSES
  0
CLASS
  1
ACDBDICTIONARYWDFLT
  2
AcDbDictionaryWithDefault
  3
AutoCAD 2000
 90
0
 91
1
280
0
281
0
  0
CLASS
  1
ACDBPLACEHOLDER
  2
AcDbPlaceHolder
  3
AutoCAD 2000
 90
0
 91
1
280
0
281
0
  0
CLASS
  1
LAYOUT
  2
AcDbLayout
  3
AutoCAD 2000
 90
0
 91
0
280
0
281
0
  0
ENDSEC
  0
SECTION
  2
TABLES
  0
TABLE
  2
VPORT
  5
8
100
AcDbSymbolTable
 70
2
  0
VPORT
  5
1F4
100
AcDbSymbolTableRecord
100
AcDbViewportTableRecord
  2
*ACTIVE
 70
0
 10
0.0
 20
0.0
 11
1.0
 21
1.0
 12
33.1816526204
 22
46.9283372774
 13
0.0
 23
0.0
 14
1.0
 24
1.0
 15
0.0
 25
0.0
 16
0.0
 26
0.0
 36
1.0
 17
0.0
 27
0.0
 37
0.0
 40
93.8566745547
 41
0.7070707071
 42
50.0
 43
0.0
 44
0.0
 50
0.0
 51
0.0
 71
0
 72
100
 73
1
 74
1
 75
0
 76
0
 77
0
 78
0
  0
ENDTAB
  0
TABLE
  2
LTYPE
  5
5
100
AcDbSymbolTable
 70
6
  0
LTYPE
  5
14
100
AcDbSymbolTableRecord
100
AcDbLinetypeTableRecord
  2
BYBLOCK
 70
0
  3

 72
65
 73
0
 40
0.0
  0
LTYPE
  5
15
100
AcDbSymbolTableRecord
100
AcDbLinetypeTableRecord
  2
BYLAYER
 70
0
  3

 72
65
 73
0
 40
0.0
  0
LTYPE
  5
16
100
AcDbSymbolTableRecord
100
AcDbLinetypeTableRecord
  2
CONTINUOUS
 70
64
  3
Solid line
 72
65
 73
0
 40
0.0
  0
LTYPE
  5
1F5
100
AcDbSymbolTableRecord
100
AcDbLinetypeTableRecord
  2
CENTER
 70
64
  3
____ _ ____ _ ____ _ ____ _ ____ _ ____ _ ____
 72
65
 73
4
 40
0.6
 49
0.375
 74
0
 49
-0.075
 74
0
 49
0.075
 74
0
 49
-0.075
 74
0
  0
LTYPE
  5
1F6
100
AcDbSymbolTableRecord
100
AcDbLinetypeTableRecord
  2
HIDDEN
 70
64
  3
- - - - - - - - - - - - - - - - - - - -
 72
65
 73
2
 40
0.2
 49
0.1
 74
0
 49
-0.1
 74
0
  0
LTYPE
  5
1F7
100
AcDbSymbolTableRecord
100
AcDbLinetypeTableRecord
  2
PHANTOM
 70
64
  3
_____ _ _ _____ _ _ _____ _ _ _____
 72
65
 73
6
 40
0.8
 49
0.45
 74
0
 49
-0.05
 74
0
 49
0.1
 74
0
 49
-0.05
 74
0
 49
0.1
 74
0
 49
-0.05
 74
0
  0
LTYPE
  5
1F8
100
AcDbSymbolTableRecord
100
AcDbLinetypeTableRecord
  2
DOT
 70
64
  3
. . . . . . . . . . . . . . . . . . . .
 72
65
 73
2
 40
0.2
 49
0.1
 74
0
 49
-0.1
 74
0
  0
LTYPE
  5
1F9
100
AcDbSymbolTableRecord
100
AcDbLinetypeTableRecord
  2
DASHED
 70
64
  3
- - - - - - - - - - - - - - - - - - - -
 72
65
 73
2
 40
0.2
 49
0.1
 74
0
 49
-0.1
 74
0
  0
ENDTAB
  0
TABLE
  2
LAYER
  5
2
100
AcDbSymbolTable
 70
36
  0
LAYER
  5
10
100
AcDbSymbolTableRecord
100
AcDbLayerTableRecord
  2
0
 70
0
 62
7
  6
CONTINUOUS
370
-3
390
F
  0
LAYER
  5
1FA
100
AcDbSymbolTableRecord
100
AcDbLayerTableRecord
  2
DEFAULT_1
 70
0
 62
7
  6
CENTER
370
-3
390
F
  0
LAYER
  5
1FB
100
AcDbSymbolTableRecord
100
AcDbLayerTableRecord
  2
DEFAULT_2
 70
0
 62
8
  6
HIDDEN
370
-3
390
F
  0
LAYER
  5
1FC
100
AcDbSymbolTableRecord
100
AcDbLayerTableRecord
  2
DEFAULT_3
 70
0
 62
7
  6
PHANTOM
370
-3
390
F
  0
LAYER
  5
1FD
100
AcDbSymbolTableRecord
100
AcDbLayerTableRecord
  2
00_COMPONENTS
 70
0
 62
7
  6
CONTINUOUS
370
-3
390
F
  0
LAYER
  5
1FE
100
AcDbSymbolTableRecord
100
AcDbLayerTableRecord
  2
01_1_DEFAULT_DATUMS
 70
0
 62
7
  6
CONTINUOUS
370
-3
390
F
  0
LAYER
  5
1FF
100
AcDbSymbolTableRecord
100
AcDbLayerTableRecord
  2
01_PLANES
 70
0
 62
7
  6
CONTINUOUS
370
-3
390
F
  0
LAYER
  5
200
100
AcDbSymbolTableRecord
100
AcDbLayerTableRecord
  2
02_COORD_SYS
 70
0
 62
7
  6
CONTINUOUS
370
-3
390
F
  0
LAYER
  5
201
100
AcDbSymbolTableRecord
100
AcDbLayerTableRecord
  2
03_AXES
 70
0
 62
7
  6
CONTINUOUS
370
-3
390
F
  0
LAYER
  5
202
100
AcDbSymbolTableRecord
100
AcDbLayerTableRecord
  2
04_POINTS
 70
0
 62
7
  6
CONTINUOUS
370
-3
390
F
  0
LAYER
  5
203
100
AcDbSymbolTableRecord
100
AcDbLayerTableRecord
  2
05_CURVES
 70
0
 62
7
  6
CONTINUOUS
370
-3
390
F
  0
LAYER
  5
204
100
AcDbSymbolTableRecord
100
AcDbLayerTableRecord
  2
06_SURFS
 70
0
 62
7
  6
CONTINUOUS
370
-3
390
F
  0
LAYER
  5
205
100
AcDbSymbolTableRecord
100
AcDbLayerTableRecord
  2
07_COSMETICS
 70
0
 62
7
  6
CONTINUOUS
370
-3
390
F
  0
LAYER
  5
206
100
AcDbSymbolTableRecord
100
AcDbLayerTableRecord
  2
10_NOTES
 70
0
 62
7
  6
CONTINUOUS
370
-3
390
F
  0
LAYER
  5
207
100
AcDbSymbolTableRecord
100
AcDbLayerTableRecord
  2
11_NOTES_PUB
 70
0
 62
7
  6
CONTINUOUS
370
-3
390
F
  0
LAYER
  5
208
100
AcDbSymbolTableRecord
100
AcDbLayerTableRecord
  2
13_REF_GTOL
 70
0
 62
7
  6
CONTINUOUS
370
-3
390
F
  0
LAYER
  5
209
100
AcDbSymbolTableRecord
100
AcDbLayerTableRecord
  2
16_MISC
 70
0
 62
7
  6
CONTINUOUS
370
-3
390
F
  0
LAYER
  5
20A
100
AcDbSymbolTableRecord
100
AcDbLayerTableRecord
  2
17_NO_PRINT
 70
0
 62
7
  6
CONTINUOUS
370
-3
390
F
  0
LAYER
  5
20B
100
AcDbSymbolTableRecord
100
AcDbLayerTableRecord
  2
18_DATUM_CAMS_JOINTS
 70
0
 62
7
  6
CONTINUOUS
370
-3
390
F
  0
LAYER
  5
20C
100
AcDbSymbolTableRecord
100
AcDbLayerTableRecord
  2
19_DATUM_FUNCTIONAL
 70
0
 62
7
  6
CONTINUOUS
370
-3
390
F
  0
LAYER
  5
20D
100
AcDbSymbolTableRecord
100
AcDbLayerTableRecord
  2
20_DATUM_KINEMATIC_SCHEME
 70
0
 62
7
  6
CONTINUOUS
370
-3
390
F
  0
ENDTAB
  0
TABLE
  2
STYLE
  5
3
100
AcDbSymbolTable
 70
1
  0
STYLE
  5
11
100
AcDbSymbolTableRecord
100
AcDbTextStyleTableRecord
  2
STANDARD
 70
0
 40
0.0
 41
0.8
 50
0.0
 71
0
 42
0.2
  3
txt
  4

  0
STYLE
  5
20E
100
AcDbSymbolTableRecord
100
AcDbTextStyleTableRecord
  2
TEXTSTYLE_1
 70
0
 40
0.0
 41
0.8
 50
0.0
 71
0
 42
0.2
  3
gdt
  4

  0
ENDTAB
  0
TABLE
  2
VIEW
  5
6
100
AcDbSymbolTable
 70
0
  0
ENDTAB
  0
TABLE
  2
UCS
  5
7
100
AcDbSymbolTable
 70
0
  0
ENDTAB
  0
TABLE
  2
APPID
  5
9
100
AcDbSymbolTable
 70
1
  0
APPID
  5
20F
100
AcDbSymbolTableRecord
100
AcDbRegAppTableRecord
  2
ACAD
 70
0
  0
ENDTAB
  0
TABLE
  2
BLOCK_RECORD
  5
1
100
AcDbSymbolTable
 70
0
  0
BLOCK_RECORD
  5
210
100
AcDbSymbolTableRecord
100
AcDbBlockTableRecord
  2
*Model_Space
  0
BLOCK_RECORD
  5
211
100
AcDbSymbolTableRecord
100
AcDbBlockTableRecord
  2
*Paper_Space
  0
BLOCK_RECORD
  5
212
100
AcDbSymbolTableRecord
100
AcDbBlockTableRecord
  2
_FILLED
  0
ENDTAB
  0
TABLE
  2
DIMSTYLE
  5
A
100
AcDbSymbolTable
 70
1
100
AcDbDimStyleTable
 71
0
  0
DIMSTYLE
105
213
100
AcDbSymbolTableRecord
100
AcDbDimStyleTableRecord
  2
STANDARD
 70
0
  3

  4

 40
1.0
 41
0.7900393481
 42
1.0
 43
0.38
 44
1.0
 45
0.0
 46
0.0
 47
0.01
 48
0.01
140
1.1060550873
141
0.09
142
0.0
143
25.4
144
1.0
145
0.0
146
1.0
147
0.625
 71
1
 72
0
 73
0
 74
0
 75
0
 76
0
 77
1
 78
8
 79
2
170
0
171
1
172
0
173
0
174
0
175
0
176
0
177
0
178
0
270
2
179
2
271
2
272
2
273
2
274
2
275
0
280
0
281
0
282
0
283
1
284
8
285
0
286
0
287
3
288
0
340
11
278
46
341
212
342
212
343
212
344
212
  0
ENDTAB
  0
ENDSEC
  0
SECTION
  2
BLOCKS
  0
BLOCK
  5
20
100
AcDbEntity
  8
0
100
AcDbBlockBegin
  2
*Model_Space
 70
0
 10
0.0
 20
0.0
 30
0.0
  3
*Model_Space
  1

  0
ENDBLK
  5
21
100
AcDbEntity
  8
0
100
AcDbBlockEnd
  0
BLOCK
  5
1C
100
AcDbEntity
  8
0
100
AcDbBlockBegin
  2
*Paper_Space
 70
0
 10
0.0
 20
0.0
 30
0.0
  3
*Paper_Space
  1

  0
ENDBLK
  5
1D
100
AcDbEntity
  8
0
100
AcDbBlockEnd
  0
BLOCK
  5
214
100
AcDbEntity
  8
0
100
AcDbBlockBegin
  2
_FILLED
 70
64
 10
0.0
 20
0.0
  3
_FILLED
  1

  0
SOLID
  5
215
100
AcDbEntity
  8
0
  6
BYBLOCK
 62
0
100
AcDbTrace
 10
0.0
 20
0.0
 11
-1.0
 21
0.25
 12
-1.0
 22
-0.25
 13
-1.0
 23
-0.25
  0
ENDBLK
  5
216
100
AcDbEntity
  8
0
  6
BYBLOCK
 62
0
100
AcDbBlockEnd
  0
ENDSEC
  0
SECTION
  2
ENTITIES
  0
LINE
  5
217
100
AcDbEntity
  8
0
100
AcDbLine
 62
7
  6
CONTINUOUS
 10
9.8774100441
 20
15.0656957928
 11
23.2745091604
 21
15.0656957928
  0
LINE
  5
218
100
AcDbEntity
  8
0
100
AcDbLine
 62
7
  6
CONTINUOUS
 10
44.8774100441
 20
15.0656957928
 11
58.2745091604
 21
15.0656957928
  0
LINE
  5
219
100
AcDbEntity
  8
0
100
AcDbLine
 62
7
  6
CONTINUOUS
 10
7.8506898253
 20
15.2652325118
 11
9.8774100441
 21
15.2652325118
  0
LINE
  5
21A
100
AcDbEntity
  8
0
100
AcDbLine
 62
7
  6
CONTINUOUS
 10
23.2745091604
 20
15.2652325118
 11
44.8774100441
 21
15.2652325118
  0
LINE
  5
21B
100
AcDbEntity
  8
0
100
AcDbLine
 62
7
  6
CONTINUOUS
 10
58.2745091604
 20
15.2652325118
 11
60.3506898253
 21
15.2652325118
  0
LINE
  5
21C
100
AcDbEntity
  8
0
100
AcDbLine
 62
7
  6
CONTINUOUS
 10
60.3506898253
 20
16.2911658724
 11
58.2745091604
 21
16.2911658724
  0
LINE
  5
21D
100
AcDbEntity
  8
0
100
AcDbLine
 62
7
  6
CONTINUOUS
 10
44.8774100441
 20
16.2911658724
 11
23.2745091604
 21
16.2911658724
  0
LINE
  5
21E
100
AcDbEntity
  8
0
100
AcDbLine
 62
7
  6
CONTINUOUS
 10
9.8774100441
 20
16.2911658724
 11
7.8506898253
 21
16.2911658724
  0
LINE
  5
21F
100
AcDbEntity
  8
0
100
AcDbLine
 62
7
  6
CONTINUOUS
 10
9.8774100441
 20
17.5651545802
 11
23.2745091604
 21
17.5651545802
  0
LINE
  5
220
100
AcDbEntity
  8
0
100
AcDbLine
 62
7
  6
CONTINUOUS
 10
44.8774100441
 20
17.5651545802
 11
58.2745091604
 21
17.5651545802
  0
LINE
  5
221
100
AcDbEntity
  8
0
100
AcDbLine
 62
7
  6
CONTINUOUS
 10
7.8506898253
 20
18.0491716477
 11
60.3506898253
 21
18.0491716477
  0
LINE
  5
222
100
AcDbEntity
  8
0
100
AcDbLine
 62
7
  6
CONTINUOUS
 10
7.8506898253
 20
18.3960583999
 11
60.3506898253
 21
18.3960583999
  0
LINE
  5
223
100
AcDbEntity
  8
0
100
AcDbLine
 62
7
  6
CONTINUOUS
 10
7.8506898253
 20
15.2652325118
 11
7.8506898253
 21
79.2504973666
  0
LINE
  5
224
100
AcDbEntity
  8
0
100
AcDbLine
 62
7
  6
CONTINUOUS
 10
9.8774100441
 20
17.5651545802
 11
9.8774100441
 21
15.0656957928
  0
LINE
  5
225
100
AcDbEntity
  8
0
100
AcDbLine
 62
7
  6
CONTINUOUS
 10
11.6780406651
 20
17.5651545802
 11
11.6780406651
 21
15.0656957928
  0
LINE
  5
226
100
AcDbEntity
  8
0
100
AcDbLine
 62
7
  6
CONTINUOUS
 10
12.401599057
 20
72.9630202892
 11
12.401599057
 21
71.2522292378
  0
LINE
  5
227
100
AcDbEntity
  8
0
100
AcDbLine
 62
7
  6
CONTINUOUS
 10
12.6576244512
 20
17.5651545799
 11
12.6576244512
 21
15.0656957933
  0
LINE
  5
228
100
AcDbEntity
  8
0
100
AcDbLine
 62
7
  6
CONTINUOUS
 10
20.4942947507
 20
17.5651545801
 11
20.4942947507
 21
15.065695793
  0
LINE
  5
229
100
AcDbEntity
  8
0
100
AcDbLine
 62
7
  6
CONTINUOUS
 10
20.7997805936
 20
72.9630464952
 11
20.7997805936
 21
71.2522292378
  0
LINE
  5
22A
100
AcDbEntity
  8
0
100
AcDbLine
 62
7
  6
CONTINUOUS
 10
21.4738785369
 20
15.0656957928
 11
21.4738785369
 21
17.5651545802
  0
LINE
  5
22B
100
AcDbEntity
  8
0
100
AcDbLine
 62
7
  6
CONTINUOUS
 10
23.2745091604
 20
17.5651545802
 11
23.2745091604
 21
15.0656957928
  0
LINE
  5
22C
100
AcDbEntity
  8
0
100
AcDbLine
 62
7
  6
CONTINUOUS
 10
29.901599057
 20
72.9630202892
 11
29.901599057
 21
71.2522292378
  0
LINE
  5
22D
100
AcDbEntity
  8
0
100
AcDbLine
 62
7
  6
CONTINUOUS
 10
38.2997805936
 20
72.9630464952
 11
38.2997805936
 21
71.2522292378
  0
LINE
  5
22E
100
AcDbEntity
  8
0
100
AcDbLine
 62
7
  6
CONTINUOUS
 10
44.8774100441
 20
17.5651545802
 11
44.8774100441
 21
15.0656957928
  0
LINE
  5
22F
100
AcDbEntity
  8
0
100
AcDbLine
 62
7
  6
CONTINUOUS
 10
46.6780406651
 20
17.5651545802
 11
46.6780406651
 21
15.0656957928
  0
LINE
  5
230
100
AcDbEntity
  8
0
100
AcDbLine
 62
7
  6
CONTINUOUS
 10
47.401599057
 20
72.9630202892
 11
47.401599057
 21
71.2522292378
  0
LINE
  5
231
100
AcDbEntity
  8
0
100
AcDbLine
 62
7
  6
CONTINUOUS
 10
47.6576244512
 20
17.5651545799
 11
47.6576244512
 21
15.0656957933
  0
LINE
  5
232
100
AcDbEntity
  8
0
100
AcDbLine
 62
7
  6
CONTINUOUS
 10
7.8506898253
 20
60.2644055451
 11
60.3506898253
 21
60.2644055451
  0
LINE
  5
233
100
AcDbEntity
  8
0
100
AcDbLine
 62
7
  6
CONTINUOUS
 10
7.8506898253
 20
61.7542858349
 11
60.3506898253
 21
61.7542858349
  0
LINE
  5
234
100
AcDbEntity
  8
0
100
AcDbLine
 62
7
  6
CONTINUOUS
 10
60.3506898253
 20
62.7366207218
 11
7.8506898253
 21
62.7366207218
  0
LINE
  5
235
100
AcDbEntity
  8
0
100
AcDbLine
 62
7
  6
CONTINUOUS
 10
55.4942947507
 20
17.5651545801
 11
55.4942947507
 21
15.065695793
  0
LINE
  5
236
100
AcDbEntity
  8
0
100
AcDbLine
 62
7
  6
CONTINUOUS
 10
55.7997805936
 20
72.9630464952
 11
55.7997805936
 21
71.2522292378
  0
LINE
  5
237
100
AcDbEntity
  8
0
100
AcDbLine
 62
7
  6
CONTINUOUS
 10
56.4738785369
 20
15.0656957928
 11
56.4738785369
 21
17.5651545802
  0
LINE
  5
238
100
AcDbEntity
  8
0
100
AcDbLine
 62
7
  6
CONTINUOUS
 10
58.2745091604
 20
17.5651545802
 11
58.2745091604
 21
15.0656957928
  0
LINE
  5
239
100
AcDbEntity
  8
0
100
AcDbLine
 62
7
  6
CONTINUOUS
 10
7.8506898253
 20
69.7787269062
 11
60.3506898253
 21
69.7787269062
  0
LINE
  5
23A
100
AcDbEntity
  8
0
100
AcDbLine
 62
7
  6
CONTINUOUS
 10
60.3506898253
 20
71.2522292378
 11
7.8506898253
 21
71.2522292378
  0
LINE
  5
23B
100
AcDbEntity
  8
0
100
AcDbLine
 62
7
  6
CONTINUOUS
 10
60.3506898253
 20
79.2504973666
 11
60.3506898253
 21
15.2652325118
  0
LINE
  5
23C
100
AcDbEntity
  8
0
100
AcDbLine
 62
7
  6
CONTINUOUS
 10
12.4018999301
 20
72.9630546897
 11
20.7994797205
 21
72.9630546897
  0
LINE
  5
23D
100
AcDbEntity
  8
0
100
AcDbLine
 62
7
  6
CONTINUOUS
 10
29.9018999301
 20
72.9630546897
 11
38.2994797205
 21
72.9630546897
  0
LINE
  5
23E
100
AcDbEntity
  8
0
100
AcDbLine
 62
7
  6
CONTINUOUS
 10
47.4018999301
 20
72.9630546897
 11
55.7994797205
 21
72.9630546897
  0
LINE
  5
23F
100
AcDbEntity
  8
0
100
AcDbLine
 62
7
  6
CONTINUOUS
 10
7.8506898253
 20
76.8703116362
 11
60.3506898253
 21
76.8703116362
  0
LINE
  5
240
100
AcDbEntity
  8
0
100
AcDbLine
 62
7
  6
CONTINUOUS
 10
60.3506898253
 20
79.2504973666
 11
7.8506898253
 21
79.2504973666
  0
CIRCLE
  5
241
100
AcDbEntity
  8
0
100
AcDbCircle
 62
7
  6
CONTINUOUS
 10
16.6006898253
 20
30.8630546897
 40
2.0
  0
CIRCLE
  5
242
100
AcDbEntity
  8
0
100
AcDbCircle
 62
7
  6
CONTINUOUS
 10
34.1006898253
 20
30.8630546897
 40
2.0
  0
CIRCLE
  5
243
100
AcDbEntity
  8
0
100
AcDbCircle
 62
7
  6
CONTINUOUS
 10
51.6006898253
 20
30.8630546897
 40
2.0
  0
SPLINE
  5
244
100
AcDbEntity
  8
0
100
AcDbSpline
 62
7
  6
CONTINUOUS
 70
0
 71
3
 72
23
 73
19
 74
0
 42
0.0000001
 43
0.0000001
 44
0.0000000001
 40
0.0
 40
0.0
 40
0.0
 40
0.0
 40
0.0348624647
 40
0.0523853107
 40
0.0699465597
 40
0.1049772203
 40
0.1396940996
 40
0.1742065171
 40
0.2084592715
 40
0.2763382933
 40
0.3434355672
 40
0.4096993868
 40
0.4750412811
 40
0.5393473797
 40
0.664326339
 40
0.7835380773
 40
0.8957307798
 40
1.0
 40
1.0
 40
1.0
 40
1.0
 10
15.0048061149
 20
71.2522292378
 30
0.0
 10
15.0230986388
 20
71.2875496456
 30
0.0
 10
15.0452966178
 20
71.3438359789
 30
0.0
 10
15.0591305293
 20
71.4226985936
 30
0.0
 10
15.060668398
 20
71.5029404922
 30
0.0
 10
15.0414867013
 20
71.6021387289
 30
0.0
 10
14.9887954829
 20
71.7098291541
 30
0.0
 10
14.9196975121
 20
71.8059672486
 30
0.0
 10
14.8149193291
 20
71.9217045793
 30
0.0
 10
14.6694364004
 20
72.0494554433
 30
0.0
 10
14.483733542
 20
72.1847362564
 30
0.0
 10
14.2928896118
 20
72.3073010982
 30
0.0
 10
14.0994102608
 20
72.4193738531
 30
0.0
 10
13.8421341795
 20
72.5544492808
 30
0.0
 10
13.5216465934
 20
72.7007650589
 30
0.0
 10
13.139317899
 20
72.8407630684
 30
0.0
 10
12.7676106392
 20
72.935841352
 30
0.0
 10
12.5205646958
 20
72.9630202892
 30
0.0
 10
12.401599057
 20
72.9630202892
 30
0.0
  0
SPLINE
  5
245
100
AcDbEntity
  8
0
100
AcDbSpline
 62
7
  6
CONTINUOUS
 70
0
 71
3
 72
23
 73
19
 74
0
 42
0.0000001
 43
0.0000001
 44
0.0000000001
 40
0.0
 40
0.0
 40
0.0
 40
0.0
 40
0.0348609215
 40
0.052382774
 40
0.0699436201
 40
0.1049743972
 40
0.1396904182
 40
0.1742041661
 40
0.2084580977
 40
0.2763295372
 40
0.3434312366
 40
0.4096913112
 40
0.4750180393
 40
0.5393304188
 40
0.6643319145
 40
0.7835296329
 40
0.8957266904
 40
1.0
 40
1.0
 40
1.0
 40
1.0
 10
18.1965735908
 20
71.2522292378
 30
0.0
 10
18.1782805318
 20
71.2875506789
 30
0.0
 10
18.1560828728
 20
71.3438389611
 30
0.0
 10
18.1422511404
 20
71.4227045301
 30
0.0
 10
18.1407159521
 20
71.502950886
 30
0.0
 10
18.1598990138
 20
71.6021546509
 30
0.0
 10
18.2125942169
 20
71.7098545232
 30
0.0
 10
18.2817123993
 20
71.8059916262
 30
0.0
 10
18.3864930415
 20
71.9217315776
 30
0.0
 10
18.5319322906
 20
72.0495528255
 30
0.0
 10
18.7177063146
 20
72.184757227
 30
0.0
 10
18.9085630468
 20
72.307295767
 30
0.0
 10
19.1019987044
 20
72.4194496521
 30
0.0
 10
19.3593197796
 20
72.5545174008
 30
0.0
 10
19.6797649804
 20
72.7010317352
 30
0.0
 10
20.0621865291
 20
72.8409207202
 30
0.0
 10
20.4339299291
 20
72.9359465678
 30
0.0
 10
20.6810088294
 20
72.9630546897
 30
0.0
 10
20.7999878814
 20
72.9630546897
 30
0.0
  0
SPLINE
  5
246
100
AcDbEntity
  8
0
100
AcDbSpline
 62
7
  6
CONTINUOUS
 70
0
 71
3
 72
13
 73
9
 74
0
 42
0.0000001
 43
0.0000001
 44
0.0000000001
 40
0.0
 40
0.0
 40
0.0
 40
0.0
 40
0.1058541231
 40
0.2202319793
 40
0.3412777626
 40
0.4675214714
 40
0.7303598732
 40
1.0
 40
1.0
 40
1.0
 40
1.0
 10
13.9307810542
 20
15.0656957933
 30
0.0
 10
14.0312204354
 20
15.0656957933
 30
0.0
 10
14.2401688428
 20
15.0894234712
 30
0.0
 10
14.5546356015
 20
15.1683331647
 30
0.0
 10
14.8796640683
 20
15.2793384495
 30
0.0
 10
15.32857997
 20
15.460704112
 30
0.0
 10
15.8952713446
 20
15.7250765784
 30
0.0
 10
16.3471228539
 20
15.9510609348
 30
0.0
 10
16.575959601
 20
16.0654793083
 30
0.0
  0
SPLINE
  5
247
100
AcDbEntity
  8
0
100
AcDbSpline
 62
7
  6
CONTINUOUS
 70
0
 71
3
 72
13
 73
9
 74
0
 42
0.0000001
 43
0.0000001
 44
0.0000000001
 40
0.0
 40
0.0
 40
0.0
 40
0.0
 40
0.2696395281
 40
0.5324771434
 40
0.6587208795
 40
0.7797666923
 40
0.8941456895
 40
1.0
 40
1.0
 40
1.0
 40
1.0
 10
16.575959601
 20
16.0654793083
 30
0.0
 10
16.8047958358
 20
15.9510611909
 30
0.0
 10
17.2566461119
 20
15.7250772321
 30
0.0
 10
17.823336855
 20
15.4607067669
 30
0.0
 10
18.2722510974
 20
15.2793386878
 30
0.0
 10
18.5972813753
 20
15.1683353272
 30
0.0
 10
18.9117488119
 20
15.0894231305
 30
0.0
 10
19.1206985906
 20
15.0656957933
 30
0.0
 10
19.2211381477
 20
15.0656957933
 30
0.0
  0
SPLINE
  5
248
100
AcDbEntity
  8
0
100
AcDbSpline
 62
7
  6
CONTINUOUS
 70
0
 71
3
 72
13
 73
9
 74
0
 42
0.0000001
 43
0.0000001
 44
0.0000000001
 40
0.0
 40
0.0
 40
0.0
 40
0.0
 40
0.1058541231
 40
0.2202319792
 40
0.3412777625
 40
0.4675214713
 40
0.7303598732
 40
1.0
 40
1.0
 40
1.0
 40
1.0
 10
19.2211381499
 20
17.5651545799
 30
0.0
 10
19.1206987686
 20
17.5651545799
 30
0.0
 10
18.9117503612
 20
17.5414269021
 30
0.0
 10
18.5972836023
 20
17.4625172086
 30
0.0
 10
18.2722551352
 20
17.3515119239
 30
0.0
 10
17.8233392331
 20
17.1701462613
 30
0.0
 10
17.256647858
 20
16.9057737948
 30
0.0
 10
16.8047963483
 20
16.6797894382
 30
0.0
 10
16.575959601
 20
16.5653710646
 30
0.0
  0
SPLINE
  5
249
100
AcDbEntity
  8
0
100
AcDbSpline
 62
7
  6
CONTINUOUS
 70
0
 71
3
 72
13
 73
9
 74
0
 42
0.0000001
 43
0.0000001
 44
0.0000000001
 40
0.0
 40
0.0
 40
0.0
 40
0.0
 40
0.2696395281
 40
0.5324771435
 40
0.6587208796
 40
0.7797666924
 40
0.8941456896
 40
1.0
 40
1.0
 40
1.0
 40
1.0
 10
16.575959601
 20
16.5653710646
 30
0.0
 10
16.347123366
 20
16.679789182
 30
0.0
 10
15.8952730894
 20
16.905773141
 30
0.0
 10
15.3285823458
 20
17.1701436064
 30
0.0
 10
14.879668103
 20
17.3515116856
 30
0.0
 10
14.5546378248
 20
17.4625150462
 30
0.0
 10
14.240170388
 20
17.5414272427
 30
0.0
 10
14.0312206092
 20
17.5651545799
 30
0.0
 10
13.9307810521
 20
17.5651545799
 30
0.0
  0
SPLINE
  5
24A
100
AcDbEntity
  8
0
100
AcDbSpline
 62
7
  6
CONTINUOUS
 70
0
 71
3
 72
23
 73
19
 74
0
 42
0.0000001
 43
0.0000001
 44
0.0000000001
 40
0.0
 40
0.0
 40
0.0
 40
0.0
 40
0.0348624647
 40
0.0523853107
 40
0.0699465597
 40
0.1049772203
 40
0.1396940996
 40
0.1742065171
 40
0.2084592715
 40
0.2763382933
 40
0.3434355672
 40
0.4096993868
 40
0.4750412811
 40
0.5393473797
 40
0.664326339
 40
0.7835380773
 40
0.8957307798
 40
1.0
 40
1.0
 40
1.0
 40
1.0
 10
32.5048061149
 20
71.2522292378
 30
0.0
 10
32.5230986388
 20
71.2875496456
 30
0.0
 10
32.5452966178
 20
71.3438359789
 30
0.0
 10
32.5591305293
 20
71.4226985936
 30
0.0
 10
32.560668398
 20
71.5029404922
 30
0.0
 10
32.5414867013
 20
71.6021387289
 30
0.0
 10
32.4887954829
 20
71.7098291541
 30
0.0
 10
32.4196975121
 20
71.8059672486
 30
0.0
 10
32.3149193291
 20
71.9217045793
 30
0.0
 10
32.1694364004
 20
72.0494554433
 30
0.0
 10
31.983733542
 20
72.1847362564
 30
0.0
 10
31.7928896118
 20
72.3073010982
 30
0.0
 10
31.5994102608
 20
72.4193738531
 30
0.0
 10
31.3421341795
 20
72.5544492808
 30
0.0
 10
31.0216465934
 20
72.7007650589
 30
0.0
 10
30.639317899
 20
72.8407630684
 30
0.0
 10
30.2676106392
 20
72.935841352
 30
0.0
 10
30.0205646958
 20
72.9630202892
 30
0.0
 10
29.901599057
 20
72.9630202892
 30
0.0
  0
SPLINE
  5
24B
100
AcDbEntity
  8
0
100
AcDbSpline
 62
7
  6
CONTINUOUS
 70
0
 71
3
 72
23
 73
19
 74
0
 42
0.0000001
 43
0.0000001
 44
0.0000000001
 40
0.0
 40
0.0
 40
0.0
 40
0.0
 40
0.0348609215
 40
0.052382774
 40
0.0699436201
 40
0.1049743972
 40
0.1396904182
 40
0.1742041661
 40
0.2084580977
 40
0.2763295372
 40
0.3434312366
 40
0.4096913112
 40
0.4750180393
 40
0.5393304188
 40
0.6643319145
 40
0.7835296329
 40
0.8957266904
 40
1.0
 40
1.0
 40
1.0
 40
1.0
 10
35.6965735908
 20
71.2522292378
 30
0.0
 10
35.6782805318
 20
71.2875506789
 30
0.0
 10
35.6560828728
 20
71.3438389611
 30
0.0
 10
35.6422511404
 20
71.4227045301
 30
0.0
 10
35.6407159521
 20
71.502950886
 30
0.0
 10
35.6598990138
 20
71.6021546509
 30
0.0
 10
35.7125942169
 20
71.7098545232
 30
0.0
 10
35.7817123993
 20
71.8059916262
 30
0.0
 10
35.8864930415
 20
71.9217315776
 30
0.0
 10
36.0319322906
 20
72.0495528255
 30
0.0
 10
36.2177063146
 20
72.184757227
 30
0.0
 10
36.4085630468
 20
72.307295767
 30
0.0
 10
36.6019987044
 20
72.4194496521
 30
0.0
 10
36.8593197796
 20
72.5545174008
 30
0.0
 10
37.1797649804
 20
72.7010317352
 30
0.0
 10
37.5621865291
 20
72.8409207202
 30
0.0
 10
37.9339299291
 20
72.9359465678
 30
0.0
 10
38.1810088294
 20
72.9630546897
 30
0.0
 10
38.2999878814
 20
72.9630546897
 30
0.0
  0
SPLINE
  5
24C
100
AcDbEntity
  8
0
100
AcDbSpline
 62
7
  6
CONTINUOUS
 70
0
 71
3
 72
23
 73
19
 74
0
 42
0.0000001
 43
0.0000001
 44
0.0000000001
 40
0.0
 40
0.0
 40
0.0
 40
0.0
 40
0.0348624647
 40
0.0523853107
 40
0.0699465597
 40
0.1049772203
 40
0.1396940996
 40
0.1742065171
 40
0.2084592715
 40
0.2763382933
 40
0.3434355672
 40
0.4096993868
 40
0.4750412811
 40
0.5393473797
 40
0.664326339
 40
0.7835380773
 40
0.8957307798
 40
1.0
 40
1.0
 40
1.0
 40
1.0
 10
50.0048061149
 20
71.2522292378
 30
0.0
 10
50.0230986388
 20
71.2875496456
 30
0.0
 10
50.0452966178
 20
71.3438359789
 30
0.0
 10
50.0591305293
 20
71.4226985936
 30
0.0
 10
50.060668398
 20
71.5029404922
 30
0.0
 10
50.0414867013
 20
71.6021387289
 30
0.0
 10
49.9887954829
 20
71.7098291541
 30
0.0
 10
49.9196975121
 20
71.8059672486
 30
0.0
 10
49.8149193291
 20
71.9217045793
 30
0.0
 10
49.6694364004
 20
72.0494554433
 30
0.0
 10
49.483733542
 20
72.1847362564
 30
0.0
 10
49.2928896118
 20
72.3073010982
 30
0.0
 10
49.0994102608
 20
72.4193738531
 30
0.0
 10
48.8421341795
 20
72.5544492808
 30
0.0
 10
48.5216465934
 20
72.7007650589
 30
0.0
 10
48.139317899
 20
72.8407630684
 30
0.0
 10
47.7676106392
 20
72.935841352
 30
0.0
 10
47.5205646958
 20
72.9630202892
 30
0.0
 10
47.401599057
 20
72.9630202892
 30
0.0
  0
SPLINE
  5
24D
100
AcDbEntity
  8
0
100
AcDbSpline
 62
7
  6
CONTINUOUS
 70
0
 71
3
 72
13
 73
9
 74
0
 42
0.0000001
 43
0.0000001
 44
0.0000000001
 40
0.0
 40
0.0
 40
0.0
 40
0.0
 40
0.1058541231
 40
0.2202319793
 40
0.3412777626
 40
0.4675214714
 40
0.7303598732
 40
1.0
 40
1.0
 40
1.0
 40
1.0
 10
48.9307810542
 20
15.0656957933
 30
0.0
 10
49.0312204354
 20
15.0656957933
 30
0.0
 10
49.2401688428
 20
15.0894234712
 30
0.0
 10
49.5546356015
 20
15.1683331647
 30
0.0
 10
49.8796640683
 20
15.2793384495
 30
0.0
 10
50.32857997
 20
15.460704112
 30
0.0
 10
50.8952713446
 20
15.7250765784
 30
0.0
 10
51.3471228539
 20
15.9510609348
 30
0.0
 10
51.575959601
 20
16.0654793083
 30
0.0
  0
SPLINE
  5
24E
100
AcDbEntity
  8
0
100
AcDbSpline
 62
7
  6
CONTINUOUS
 70
0
 71
3
 72
13
 73
9
 74
0
 42
0.0000001
 43
0.0000001
 44
0.0000000001
 40
0.0
 40
0.0
 40
0.0
 40
0.0
 40
0.2696395281
 40
0.5324771434
 40
0.6587208795
 40
0.7797666923
 40
0.8941456895
 40
1.0
 40
1.0
 40
1.0
 40
1.0
 10
51.575959601
 20
16.0654793083
 30
0.0
 10
51.8047958358
 20
15.9510611909
 30
0.0
 10
52.2566461119
 20
15.7250772321
 30
0.0
 10
52.823336855
 20
15.4607067669
 30
0.0
 10
53.2722510974
 20
15.2793386878
 30
0.0
 10
53.5972813753
 20
15.1683353272
 30
0.0
 10
53.9117488119
 20
15.0894231305
 30
0.0
 10
54.1206985906
 20
15.0656957933
 30
0.0
 10
54.2211381477
 20
15.0656957933
 30
0.0
  0
SPLINE
  5
24F
100
AcDbEntity
  8
0
100
AcDbSpline
 62
7
  6
CONTINUOUS
 70
0
 71
3
 72
13
 73
9
 74
0
 42
0.0000001
 43
0.0000001
 44
0.0000000001
 40
0.0
 40
0.0
 40
0.0
 40
0.0
 40
0.1058541231
 40
0.2202319792
 40
0.3412777625
 40
0.4675214713
 40
0.7303598732
 40
1.0
 40
1.0
 40
1.0
 40
1.0
 10
54.2211381499
 20
17.5651545799
 30
0.0
 10
54.1206987686
 20
17.5651545799
 30
0.0
 10
53.9117503612
 20
17.5414269021
 30
0.0
 10
53.5972836023
 20
17.4625172086
 30
0.0
 10
53.2722551352
 20
17.3515119239
 30
0.0
 10
52.8233392331
 20
17.1701462613
 30
0.0
 10
52.256647858
 20
16.9057737948
 30
0.0
 10
51.8047963483
 20
16.6797894382
 30
0.0
 10
51.575959601
 20
16.5653710646
 30
0.0
  0
SPLINE
  5
250
100
AcDbEntity
  8
0
100
AcDbSpline
 62
7
  6
CONTINUOUS
 70
0
 71
3
 72
13
 73
9
 74
0
 42
0.0000001
 43
0.0000001
 44
0.0000000001
 40
0.0
 40
0.0
 40
0.0
 40
0.0
 40
0.2696395281
 40
0.5324771435
 40
0.6587208796
 40
0.7797666924
 40
0.8941456896
 40
1.0
 40
1.0
 40
1.0
 40
1.0
 10
51.575959601
 20
16.5653710646
 30
0.0
 10
51.347123366
 20
16.679789182
 30
0.0
 10
50.8952730894
 20
16.905773141
 30
0.0
 10
50.3285823458
 20
17.1701436064
 30
0.0
 10
49.879668103
 20
17.3515116856
 30
0.0
 10
49.5546378248
 20
17.4625150462
 30
0.0
 10
49.240170388
 20
17.5414272427
 30
0.0
 10
49.0312206092
 20
17.5651545799
 30
0.0
 10
48.9307810521
 20
17.5651545799
 30
0.0
  0
SPLINE
  5
251
100
AcDbEntity
  8
0
100
AcDbSpline
 62
7
  6
CONTINUOUS
 70
0
 71
3
 72
23
 73
19
 74
0
 42
0.0000001
 43
0.0000001
 44
0.0000000001
 40
0.0
 40
0.0
 40
0.0
 40
0.0
 40
0.0348609215
 40
0.052382774
 40
0.0699436201
 40
0.1049743972
 40
0.1396904182
 40
0.1742041661
 40
0.2084580977
 40
0.2763295372
 40
0.3434312366
 40
0.4096913112
 40
0.4750180393
 40
0.5393304188
 40
0.6643319145
 40
0.7835296329
 40
0.8957266904
 40
1.0
 40
1.0
 40
1.0
 40
1.0
 10
53.1965735908
 20
71.2522292378
 30
0.0
 10
53.1782805318
 20
71.2875506789
 30
0.0
 10
53.1560828728
 20
71.3438389611
 30
0.0
 10
53.1422511404
 20
71.4227045301
 30
0.0
 10
53.1407159521
 20
71.502950886
 30
0.0
 10
53.1598990138
 20
71.6021546509
 30
0.0
 10
53.2125942169
 20
71.7098545232
 30
0.0
 10
53.2817123993
 20
71.8059916262
 30
0.0
 10
53.3864930415
 20
71.9217315776
 30
0.0
 10
53.5319322906
 20
72.0495528255
 30
0.0
 10
53.7177063146
 20
72.184757227
 30
0.0
 10
53.9085630468
 20
72.307295767
 30
0.0
 10
54.1019987044
 20
72.4194496521
 30
0.0
 10
54.3593197796
 20
72.5545174008
 30
0.0
 10
54.6797649804
 20
72.7010317352
 30
0.0
 10
55.0621865291
 20
72.8409207202
 30
0.0
 10
55.4339299291
 20
72.9359465678
 30
0.0
 10
55.6810088294
 20
72.9630546897
 30
0.0
 10
55.7999878814
 20
72.9630546897
 30
0.0
  0
ENDSEC
  0
SECTION
  2
OBJECTS
  0
DICTIONARY
  5
C
100
AcDbDictionary
280
0
281
1
  3
ACAD_GROUP
350
D
  3
ACAD_MLINESTYLE
350
17
  3
ACAD_LAYOUT
350
1A
  3
ACAD_PLOTSETTINGS
350
19
  3
ACAD_PLOTSTYLENAME
350
E
  0
DICTIONARY
  5
D
102
{ACAD_REACTORS
330
C
102
}
100
AcDbDictionary
280
0
281
1
  0
ACDBDICTIONARYWDFLT
  5
E
102
{ACAD_REACTORS
330
C
102
}
100
AcDbDictionary
281
1
  3
Normal
350
F
100
AcDbDictionaryWithDefault
340
F
  0
DICTIONARY
  5
17
102
{ACAD_REACTORS
330
C
102
}
100
AcDbDictionary
280
0
281
1
  3
Standard
350
18
  0
DICTIONARY
  5
19
102
{ACAD_REACTORS
330
C
102
}
100
AcDbDictionary
281
1
  0
DICTIONARY
  5
1A
102
{ACAD_REACTORS
330
C
102
}
100
AcDbDictionary
281
1
  3
Model
350
252
  3
Layout1
350
253
  0
ACDBPLACEHOLDER
  5
F
102
{ACAD_REACTORS
330
E
102
}
  0
MLINESTYLE
  5
18
102
{ACAD_REACTORS
330
17
102
}
100
AcDbMlineStyle
  2
STANDARD
 70
0
  3

 62
256
 51
90.0
 52
90.0
 71
2
 49
0.5
 62
256
  6
BYLAYER
 49
-0.5
 62
256
  6
BYLAYER
  0
LAYOUT
  5
252
102
{ACAD_REACTORS
330
1A
102
}
100
AcDbPlotSettings
  1

  2
none_device
  4

  6

 40
0.0
 41
0.0
 42
0.0
 43
0.0
 44
210.0
 45
297.0
 46
0.0
 47
0.0
 48
0.0
 49
0.0
140
0.0
141
0.0
142
1.0
143
1.0
 70
1024
 72
1
 73
0
 74
0
  7

 75
0
147
1.0
148
0.0
149
0.0
100
AcDbLayout
  1
Model
 70
0
 71
0
 10
0.0
 20
0.0
 11
210.0
 21
297.0
 12
0.0
 22
0.0
 32
0.0
 14
0.0
 24
0.0
 34
0.0
 15
0.0
 25
0.0
 35
0.0
146
0.0
 13
0.0
 23
0.0
 33
0.0
 16
1.0
 26
0.0
 36
0.0
 17
0.0
 27
1.0
 37
0.0
 76
0
330
210
345
0
346
0
  0
LAYOUT
  5
253
102
{ACAD_REACTORS
330
1A
102
}
100
AcDbPlotSettings
  1

  2
none_device
  4

  6

 40
0.0
 41
0.0
 42
0.0
 43
0.0
 44
210.0
 45
297.0
 46
0.0
 47
0.0
 48
0.0
 49
0.0
140
0.0
141
0.0
142
1.0
143
1.0
 70
0
 72
1
 73
0
 74
0
  7

 75
0
147
1.0
148
0.0
149
0.0
100
AcDbLayout
  1
Layout1
 70
0
 71
1
 10
0.0
 20
0.0
 11
210.0
 21
297.0
 12
0.0
 22
0.0
 32
0.0
 14
0.0
 24
0.0
 34
0.0
 15
0.0
 25
0.0
 35
0.0
146
0.0
 13
0.0
 23
0.0
 33
0.0
 16
1.0
 26
0.0
 36
0.0
 17
0.0
 27
1.0
 37
0.0
 76
0
330
211
345
0
346
0
  0
ENDSEC
  0
EOF
