999
DXF file: C:\Users\sesa63760\Dev\_Creo\CAD\MCADPD0005316_3D-CAD\drw0001_4.dxf
999
Pro/ENGINEER 2019471 by Parametric Technology Corporation
  0
SECTION
  2
HEADER
  9
$ACADVER
  1
AC1024
  9
$DWGCODEPAGE
  3
ANSI_1252
  9
$EXTMAX
 10
362.2933359392
 20
512.3862893998
 30
0.0
  9
$EXTMIN
 10
0.0
 20
0.0
 30
0.0
  9
$LIMMIN
 10
0.0
 20
0.0
  9
$LIMMAX
 10
362.2933359392
 20
512.3862893998
  9
$VIEWCTR
 10
181.1466679696
 20
256.1931446999
  9
$VIEWSIZE
 40
512.3862893998
  9
$CLAYER
  8
0
  9
$LTSCALE
 40
33.3999951609
  9
$CELTYPE
  6
BYLAYER
  9
$DIMSCALE
 40
1.0
  9
$DIMASZ
 40
4.313015904
  9
$DIMEXO
 40
1.0
  9
$DIMDLI
 40
23.076360293
  9
$DIMEXE
 40
1.0
  9
$DIMCEN
 40
5.4654537536
  9
$DIMLFAC
 40
1.0
  9
$DIMBLK
  1
_FILLED
  9
$DIMALT
 70
0
  9
$DIMALTF
 40
0.0393700787
  9
$DIMTXT
 40
6.0382222657
  9
$DIMTOL
 70
1
  9
$DIMLIM
 70
0
  9
$DIMTFAC
 40
1.0
  9
$DIMTP
 40
0.01
  9
$DIMTM
 40
0.01
  9
$DIMGAP
 40
0.625
  9
$DIMDSEP
 70
46
  9
$AUNITS
 70
0
  9
$PDMODE
 70
3
  9
$PDSIZE
 40
0.3125
  9
$HANDSEED
  5
284
  9
$TILEMODE
 70
1
  9
$MEASUREMENT
 70
1
  9
$INSUNITS
 70
4
  0
ENDSEC
  0
SECTION
  2
CLASSES
  0
CLASS
  1
ACDBDICTIONARYWDFLT
  2
AcDbDictionaryWithDefault
  3
AutoCAD 2000
 90
0
 91
1
280
0
281
0
  0
CLASS
  1
ACDBPLACEHOLDER
  2
AcDbPlaceHolder
  3
AutoCAD 2000
 90
0
 91
1
280
0
281
0
  0
CLASS
  1
LAYOUT
  2
AcDbLayout
  3
AutoCAD 2000
 90
0
 91
0
280
0
281
0
  0
ENDSEC
  0
SECTION
  2
TABLES
  0
TABLE
  2
VPORT
  5
8
100
AcDbSymbolTable
 70
2
  0
VPORT
  5
1F4
100
AcDbSymbolTableRecord
100
AcDbViewportTableRecord
  2
*ACTIVE
 70
0
 10
0.0
 20
0.0
 11
1.0
 21
1.0
 12
181.1466679696
 22
256.1931446999
 13
0.0
 23
0.0
 14
1.0
 24
1.0
 15
0.0
 25
0.0
 16
0.0
 26
0.0
 36
1.0
 17
0.0
 27
0.0
 37
0.0
 40
512.3862893998
 41
0.7070707071
 42
50.0
 43
0.0
 44
0.0
 50
0.0
 51
0.0
 71
0
 72
100
 73
1
 74
1
 75
0
 76
0
 77
0
 78
0
  0
ENDTAB
  0
TABLE
  2
LTYPE
  5
5
100
AcDbSymbolTable
 70
6
  0
LTYPE
  5
14
100
AcDbSymbolTableRecord
100
AcDbLinetypeTableRecord
  2
BYBLOCK
 70
0
  3

 72
65
 73
0
 40
0.0
  0
LTYPE
  5
15
100
AcDbSymbolTableRecord
100
AcDbLinetypeTableRecord
  2
BYLAYER
 70
0
  3

 72
65
 73
0
 40
0.0
  0
LTYPE
  5
16
100
AcDbSymbolTableRecord
100
AcDbLinetypeTableRecord
  2
CONTINUOUS
 70
64
  3
Solid line
 72
65
 73
0
 40
0.0
  0
LTYPE
  5
1F5
100
AcDbSymbolTableRecord
100
AcDbLinetypeTableRecord
  2
CENTER
 70
64
  3
____ _ ____ _ ____ _ ____ _ ____ _ ____ _ ____
 72
65
 73
4
 40
0.6
 49
0.375
 74
0
 49
-0.075
 74
0
 49
0.075
 74
0
 49
-0.075
 74
0
  0
LTYPE
  5
1F6
100
AcDbSymbolTableRecord
100
AcDbLinetypeTableRecord
  2
HIDDEN
 70
64
  3
- - - - - - - - - - - - - - - - - - - -
 72
65
 73
2
 40
0.2
 49
0.1
 74
0
 49
-0.1
 74
0
  0
LTYPE
  5
1F7
100
AcDbSymbolTableRecord
100
AcDbLinetypeTableRecord
  2
PHANTOM
 70
64
  3
_____ _ _ _____ _ _ _____ _ _ _____
 72
65
 73
6
 40
0.8
 49
0.45
 74
0
 49
-0.05
 74
0
 49
0.1
 74
0
 49
-0.05
 74
0
 49
0.1
 74
0
 49
-0.05
 74
0
  0
LTYPE
  5
1F8
100
AcDbSymbolTableRecord
100
AcDbLinetypeTableRecord
  2
DOT
 70
64
  3
. . . . . . . . . . . . . . . . . . . .
 72
65
 73
2
 40
0.2
 49
0.1
 74
0
 49
-0.1
 74
0
  0
LTYPE
  5
1F9
100
AcDbSymbolTableRecord
100
AcDbLinetypeTableRecord
  2
DASHED
 70
64
  3
- - - - - - - - - - - - - - - - - - - -
 72
65
 73
2
 40
0.2
 49
0.1
 74
0
 49
-0.1
 74
0
  0
ENDTAB
  0
TABLE
  2
LAYER
  5
2
100
AcDbSymbolTable
 70
36
  0
LAYER
  5
10
100
AcDbSymbolTableRecord
100
AcDbLayerTableRecord
  2
0
 70
0
 62
7
  6
CONTINUOUS
370
-3
390
F
  0
LAYER
  5
1FA
100
AcDbSymbolTableRecord
100
AcDbLayerTableRecord
  2
DEFAULT_1
 70
0
 62
7
  6
CENTER
370
-3
390
F
  0
LAYER
  5
1FB
100
AcDbSymbolTableRecord
100
AcDbLayerTableRecord
  2
DEFAULT_2
 70
0
 62
7
  6
HIDDEN
370
-3
390
F
  0
LAYER
  5
1FC
100
AcDbSymbolTableRecord
100
AcDbLayerTableRecord
  2
DEFAULT_3
 70
0
 62
7
  6
PHANTOM
370
-3
390
F
  0
LAYER
  5
1FD
100
AcDbSymbolTableRecord
100
AcDbLayerTableRecord
  2
00_COMPONENTS
 70
0
 62
7
  6
CONTINUOUS
370
-3
390
F
  0
LAYER
  5
1FE
100
AcDbSymbolTableRecord
100
AcDbLayerTableRecord
  2
01_1_DEFAULT_DATUMS
 70
0
 62
7
  6
CONTINUOUS
370
-3
390
F
  0
LAYER
  5
1FF
100
AcDbSymbolTableRecord
100
AcDbLayerTableRecord
  2
01_PLANES
 70
0
 62
7
  6
CONTINUOUS
370
-3
390
F
  0
LAYER
  5
200
100
AcDbSymbolTableRecord
100
AcDbLayerTableRecord
  2
02_COORD_SYS
 70
0
 62
7
  6
CONTINUOUS
370
-3
390
F
  0
LAYER
  5
201
100
AcDbSymbolTableRecord
100
AcDbLayerTableRecord
  2
03_AXES
 70
0
 62
7
  6
CONTINUOUS
370
-3
390
F
  0
LAYER
  5
202
100
AcDbSymbolTableRecord
100
AcDbLayerTableRecord
  2
04_POINTS
 70
0
 62
7
  6
CONTINUOUS
370
-3
390
F
  0
LAYER
  5
203
100
AcDbSymbolTableRecord
100
AcDbLayerTableRecord
  2
05_CURVES
 70
0
 62
7
  6
CONTINUOUS
370
-3
390
F
  0
LAYER
  5
204
100
AcDbSymbolTableRecord
100
AcDbLayerTableRecord
  2
06_SURFS
 70
0
 62
7
  6
CONTINUOUS
370
-3
390
F
  0
LAYER
  5
205
100
AcDbSymbolTableRecord
100
AcDbLayerTableRecord
  2
07_COSMETICS
 70
0
 62
7
  6
CONTINUOUS
370
-3
390
F
  0
LAYER
  5
206
100
AcDbSymbolTableRecord
100
AcDbLayerTableRecord
  2
10_NOTES
 70
0
 62
7
  6
CONTINUOUS
370
-3
390
F
  0
LAYER
  5
207
100
AcDbSymbolTableRecord
100
AcDbLayerTableRecord
  2
11_NOTES_PUB
 70
0
 62
7
  6
CONTINUOUS
370
-3
390
F
  0
LAYER
  5
208
100
AcDbSymbolTableRecord
100
AcDbLayerTableRecord
  2
13_REF_GTOL
 70
0
 62
7
  6
CONTINUOUS
370
-3
390
F
  0
LAYER
  5
209
100
AcDbSymbolTableRecord
100
AcDbLayerTableRecord
  2
16_MISC
 70
0
 62
7
  6
CONTINUOUS
370
-3
390
F
  0
LAYER
  5
20A
100
AcDbSymbolTableRecord
100
AcDbLayerTableRecord
  2
17_NO_PRINT
 70
0
 62
7
  6
CONTINUOUS
370
-3
390
F
  0
LAYER
  5
20B
100
AcDbSymbolTableRecord
100
AcDbLayerTableRecord
  2
18_DATUM_CAMS_JOINTS
 70
0
 62
7
  6
CONTINUOUS
370
-3
390
F
  0
LAYER
  5
20C
100
AcDbSymbolTableRecord
100
AcDbLayerTableRecord
  2
19_DATUM_FUNCTIONAL
 70
0
 62
7
  6
CONTINUOUS
370
-3
390
F
  0
LAYER
  5
20D
100
AcDbSymbolTableRecord
100
AcDbLayerTableRecord
  2
20_DATUM_KINEMATIC_SCHEME
 70
0
 62
7
  6
CONTINUOUS
370
-3
390
F
  0
ENDTAB
  0
TABLE
  2
STYLE
  5
3
100
AcDbSymbolTable
 70
1
  0
STYLE
  5
11
100
AcDbSymbolTableRecord
100
AcDbTextStyleTableRecord
  2
STANDARD
 70
0
 40
0.0
 41
1.0
 50
0.0
 71
0
 42
0.2
  3
ARIAL.TTF
  4

  0
STYLE
  5
20E
100
AcDbSymbolTableRecord
100
AcDbTextStyleTableRecord
  2
TEXTSTYLE_1
 70
0
 40
0.0
 41
0.8
 50
0.0
 71
0
 42
0.2
  3
gdt
  4

  0
ENDTAB
  0
TABLE
  2
VIEW
  5
6
100
AcDbSymbolTable
 70
0
  0
ENDTAB
  0
TABLE
  2
UCS
  5
7
100
AcDbSymbolTable
 70
0
  0
ENDTAB
  0
TABLE
  2
APPID
  5
9
100
AcDbSymbolTable
 70
1
  0
APPID
  5
20F
100
AcDbSymbolTableRecord
100
AcDbRegAppTableRecord
  2
ACAD
 70
0
  0
ENDTAB
  0
TABLE
  2
BLOCK_RECORD
  5
1
100
AcDbSymbolTable
 70
0
  0
BLOCK_RECORD
  5
210
100
AcDbSymbolTableRecord
100
AcDbBlockTableRecord
  2
*Model_Space
  0
BLOCK_RECORD
  5
211
100
AcDbSymbolTableRecord
100
AcDbBlockTableRecord
  2
*Paper_Space
  0
BLOCK_RECORD
  5
212
100
AcDbSymbolTableRecord
100
AcDbBlockTableRecord
  2
_FILLED
  0
ENDTAB
  0
TABLE
  2
DIMSTYLE
  5
A
100
AcDbSymbolTable
 70
1
100
AcDbDimStyleTable
 71
0
  0
DIMSTYLE
105
213
100
AcDbSymbolTableRecord
100
AcDbDimStyleTableRecord
  2
STANDARD
 70
0
  3

  4

 40
1.0
 41
4.313015904
 42
1.0
 43
0.38
 44
1.0
 45
0.0
 46
0.0
 47
0.01
 48
0.01
140
6.0382222657
141
0.09
142
0.0
143
25.4
144
1.0
145
0.0
146
1.0
147
0.625
 71
1
 72
0
 73
0
 74
0
 75
0
 76
0
 77
1
 78
8
 79
2
170
0
171
1
172
0
173
0
174
0
175
0
176
0
177
0
178
0
270
2
179
2
271
2
272
2
273
2
274
2
275
0
280
0
281
0
282
0
283
1
284
8
285
0
286
0
287
3
288
0
340
11
278
46
341
212
342
212
343
212
344
212
  0
ENDTAB
  0
ENDSEC
  0
SECTION
  2
BLOCKS
  0
BLOCK
  5
20
100
AcDbEntity
  8
0
100
AcDbBlockBegin
  2
*Model_Space
 70
0
 10
0.0
 20
0.0
 30
0.0
  3
*Model_Space
  1

  0
ENDBLK
  5
21
100
AcDbEntity
  8
0
100
AcDbBlockEnd
  0
BLOCK
  5
1C
100
AcDbEntity
  8
0
100
AcDbBlockBegin
  2
*Paper_Space
 70
0
 10
0.0
 20
0.0
 30
0.0
  3
*Paper_Space
  1

  0
ENDBLK
  5
1D
100
AcDbEntity
  8
0
100
AcDbBlockEnd
  0
BLOCK
  5
214
100
AcDbEntity
  8
0
100
AcDbBlockBegin
  2
_FILLED
 70
64
 10
0.0
 20
0.0
  3
_FILLED
  1

  0
SOLID
  5
215
100
AcDbEntity
  8
0
  6
BYBLOCK
 62
0
100
AcDbTrace
 10
0.0
 20
0.0
 11
-1.0
 21
0.25
 12
-1.0
 22
-0.25
 13
-1.0
 23
-0.25
  0
ENDBLK
  5
216
100
AcDbEntity
  8
0
  6
BYBLOCK
 62
0
100
AcDbBlockEnd
  0
ENDSEC
  0
SECTION
  2
ENTITIES
  0
LINE
  5
217
100
AcDbEntity
  8
0
100
AcDbLine
 62
7
  6
BYLAYER
 10
40.350336577
 20
264.7752348016
 11
40.350336577
 21
281.6905958928
  0
LINE
  5
218
100
AcDbEntity
  8
0
100
AcDbLine
 62
7
  6
BYLAYER
 10
43.250336577
 20
159.9752348016
 11
43.250336577
 21
264.7752348016
  0
LINE
  5
219
100
AcDbEntity
  8
0
100
AcDbLine
 62
7
  6
BYLAYER
 10
45.850336577
 20
285.1752348016
 11
45.850336577
 21
285.2454907154
  0
LINE
  5
21A
100
AcDbEntity
  8
0
100
AcDbLine
 62
7
  6
BYLAYER
 10
53.350336577
 20
264.7752348016
 11
53.350336577
 21
159.9752348016
  0
LINE
  5
21B
100
AcDbEntity
  8
0
100
AcDbLine
 62
7
  6
BYLAYER
 10
59.1425780817
 20
286.0438219966
 11
59.1425780817
 21
285.9318886295
  0
LINE
  5
21C
100
AcDbEntity
  8
0
100
AcDbLine
 62
7
  6
BYLAYER
 10
59.8496848629
 20
286.1750953756
 11
59.8496848629
 21
286.2743902439
  0
LINE
  5
21D
100
AcDbEntity
  8
0
100
AcDbLine
 62
7
  6
BYLAYER
 10
52.870336577
 20
264.7752348016
 11
52.8736429503
 21
281.69052415
  0
LINE
  5
21E
100
AcDbEntity
  8
0
100
AcDbLine
 62
7
  6
BYLAYER
 10
61.850336577
 20
287.0665337874
 11
61.850336577
 21
287.1752348016
  0
LINE
  5
21F
100
AcDbEntity
  8
0
100
AcDbLine
 62
7
  6
BYLAYER
 10
43.250336577
 20
159.9752348016
 11
328.450336577
 21
159.9752348016
  0
LINE
  5
220
100
AcDbEntity
  8
0
100
AcDbLine
 62
7
  6
BYLAYER
 10
140.850336577
 20
287.1752348016
 11
140.850336577
 21
293.7752348016
  0
LINE
  5
221
100
AcDbEntity
  8
0
100
AcDbLine
 62
7
  6
BYLAYER
 10
144.350336577
 20
287.1752348016
 11
144.350336577
 21
294.7752348016
  0
LINE
  5
222
100
AcDbEntity
  8
0
100
AcDbLine
 62
7
  6
BYLAYER
 10
163.850336577
 20
309.2752348016
 11
163.850336577
 21
294.7752348016
  0
LINE
  5
223
100
AcDbEntity
  8
0
100
AcDbLine
 62
7
  6
BYLAYER
 10
175.6203365767
 20
318.9262796968
 11
176.8827658539
 21
347.8406638829
  0
LINE
  5
224
100
AcDbEntity
  8
0
100
AcDbLine
 62
7
  6
BYLAYER
 10
185.8503681271
 20
349.275208829
 11
185.850336577
 21
331.8852720436
  0
LINE
  5
225
100
AcDbEntity
  8
0
100
AcDbLine
 62
7
  6
BYLAYER
 10
196.0803365758
 20
318.926279729
 11
194.8179073
 21
347.8406638827
  0
LINE
  5
226
100
AcDbEntity
  8
0
100
AcDbLine
 62
7
  6
BYLAYER
 10
40.350336577
 20
264.7752348016
 11
331.350336577
 21
264.7752348016
  0
LINE
  5
227
100
AcDbEntity
  8
0
100
AcDbLine
 62
7
  6
BYLAYER
 10
207.850336577
 20
309.2752348016
 11
207.850336577
 21
294.7752348016
  0
LINE
  5
228
100
AcDbEntity
  8
0
100
AcDbLine
 62
7
  6
BYLAYER
 10
318.8270921811
 20
281.6903784599
 11
52.8736429503
 21
281.69052415
  0
LINE
  5
229
100
AcDbEntity
  8
0
100
AcDbLine
 62
7
  6
BYLAYER
 10
45.7000302775
 20
285.1752348016
 11
55.1139903057
 21
285.1752348016
  0
LINE
  5
22A
100
AcDbEntity
  8
0
100
AcDbLine
 62
7
  6
BYLAYER
 10
316.5866828481
 20
285.1752348016
 11
326.0773318078
 21
285.1752348016
  0
LINE
  5
22B
100
AcDbEntity
  8
0
100
AcDbLine
 62
7
  6
BYLAYER
 10
53.1157692484
 20
287.1752348016
 11
61.8353103635
 21
287.1752348016
  0
LINE
  5
22C
100
AcDbEntity
  8
0
100
AcDbLine
 62
7
  6
BYLAYER
 10
62.0675691305
 20
287.1752348016
 11
309.6331040234
 21
287.1752348016
  0
LINE
  5
22D
100
AcDbEntity
  8
0
100
AcDbLine
 62
7
  6
BYLAYER
 10
309.8841322839
 20
287.1752348016
 11
318.5849039056
 21
287.1752348016
  0
LINE
  5
22E
100
AcDbEntity
  8
0
100
AcDbLine
 62
7
  6
BYLAYER
 10
227.350336577
 20
287.1752348016
 11
227.350336577
 21
294.7752348016
  0
LINE
  5
22F
100
AcDbEntity
  8
0
100
AcDbLine
 62
7
  6
BYLAYER
 10
230.850336577
 20
287.1752348016
 11
230.850336577
 21
293.7752348016
  0
LINE
  5
230
100
AcDbEntity
  8
0
100
AcDbLine
 62
7
  6
BYLAYER
 10
230.850336577
 20
293.7752348016
 11
140.850336577
 21
293.7752348016
  0
LINE
  5
231
100
AcDbEntity
  8
0
100
AcDbLine
 62
7
  6
BYLAYER
 10
141.850336577
 20
294.7752348016
 11
229.850336577
 21
294.7752348016
  0
LINE
  5
232
100
AcDbEntity
  8
0
100
AcDbLine
 62
7
  6
BYLAYER
 10
207.850336577
 20
309.2752348016
 11
205.8949609261
 21
309.2752348016
  0
LINE
  5
233
100
AcDbEntity
  8
0
100
AcDbLine
 62
7
  6
BYLAYER
 10
165.8057122267
 20
309.2752348016
 11
163.8592156611
 21
309.2752348016
  0
LINE
  5
234
100
AcDbEntity
  8
0
100
AcDbLine
 62
7
  6
BYLAYER
 10
205.8502993785
 20
311.2752348016
 11
204.0727223438
 21
311.2752348016
  0
LINE
  5
235
100
AcDbEntity
  8
0
100
AcDbLine
 62
7
  6
BYLAYER
 10
167.6279508063
 20
311.2752348016
 11
165.8584084717
 21
311.2752348016
  0
LINE
  5
236
100
AcDbEntity
  8
0
100
AcDbLine
 62
7
  6
BYLAYER
 10
185.8549240883
 20
331.6752700438
 11
195.5160875051
 21
331.849708155
  0
LINE
  5
237
100
AcDbEntity
  8
0
100
AcDbLine
 62
7
  6
BYLAYER
 10
180.1807787183
 20
327.6752348016
 11
191.5198944356
 21
327.6752348016
  0
LINE
  5
238
100
AcDbEntity
  8
0
100
AcDbLine
 62
7
  6
BYLAYER
 10
176.1845866275
 20
331.8497305714
 11
185.8549255513
 21
331.6751491387
  0
LINE
  5
239
100
AcDbEntity
  8
0
100
AcDbLine
 62
7
  6
BYLAYER
 10
194.8179077757
 20
347.8406529896
 11
185.8503342411
 21
347.7799330486
  0
LINE
  5
23A
100
AcDbEntity
  8
0
100
AcDbLine
 62
7
  6
BYLAYER
 10
185.8503306416
 20
347.7799328844
 11
176.882765208
 21
347.8406526666
  0
LINE
  5
23B
100
AcDbEntity
  8
0
100
AcDbLine
 62
7
  6
BYLAYER
 10
193.3193349677
 20
349.2752348016
 11
178.3813381863
 21
349.2752348016
  0
LINE
  5
23C
100
AcDbEntity
  8
0
100
AcDbLine
 62
7
  6
BYLAYER
 10
309.850336577
 20
287.0659542666
 11
309.850336577
 21
287.1752348016
  0
LINE
  5
23D
100
AcDbEntity
  8
0
100
AcDbLine
 62
7
  6
BYLAYER
 10
318.830336577
 20
264.7752348016
 11
318.8270921811
 21
281.6903784599
  0
LINE
  5
23E
100
AcDbEntity
  8
0
100
AcDbLine
 62
7
  6
BYLAYER
 10
318.350336577
 20
159.9752348016
 11
318.350336577
 21
264.7752348016
  0
LINE
  5
23F
100
AcDbEntity
  8
0
100
AcDbLine
 62
7
  6
BYLAYER
 10
323.1425780817
 20
286.0438219966
 11
323.1425780817
 21
285.1752348016
  0
LINE
  5
240
100
AcDbEntity
  8
0
100
AcDbLine
 62
7
  6
BYLAYER
 10
323.8496848629
 20
285.1752348016
 11
323.8496848629
 21
286.0438219966
  0
LINE
  5
241
100
AcDbEntity
  8
0
100
AcDbLine
 62
7
  6
BYLAYER
 10
325.850336577
 20
285.1752348016
 11
325.850336577
 21
285.2454907154
  0
LINE
  5
242
100
AcDbEntity
  8
0
100
AcDbLine
 62
7
  6
BYLAYER
 10
328.450336577
 20
264.7752348016
 11
328.450336577
 21
159.9752348016
  0
LINE
  5
243
100
AcDbEntity
  8
0
100
AcDbLine
 62
7
  6
BYLAYER
 10
331.350336577
 20
264.7752348016
 11
331.350336577
 21
281.6905646139
  0
ARC
  5
244
100
AcDbEntity
  8
0
100
AcDbCircle
 62
7
  6
BYLAYER
 10
55.1724770953
 20
264.7898393674
 40
22.4796791773
100
AcDbArc
 50
114.7942539716
 51
131.2513697848
  0
ARC
  5
245
100
AcDbEntity
  8
0
100
AcDbCircle
 62
7
  6
BYLAYER
 10
55.1724770953
 20
264.7898393674
 40
22.4796791773
100
AcDbArc
 50
95.2494389926
 51
114.5000170324
  0
ARC
  5
246
100
AcDbEntity
  8
0
100
AcDbCircle
 62
7
  6
BYLAYER
 10
53.605963996
 20
304.2152758867
 40
19.1075582808
100
AcDbArc
 50
286.5289820065
 51
286.8807925354
  0
ARC
  5
247
100
AcDbEntity
  8
0
100
AcDbCircle
 62
7
  6
BYLAYER
 10
53.6167811224
 20
304.1795507051
 40
19.0702313696
100
AcDbArc
 50
286.8808613433
 51
287.0008555236
  0
ARC
  5
248
100
AcDbEntity
  8
0
100
AcDbCircle
 62
7
  6
BYLAYER
 10
53.8440849503
 20
302.9724814497
 40
17.7269552963
100
AcDbArc
 50
269.5531375345
 51
274.1718583378
  0
ARC
  5
249
100
AcDbEntity
  8
0
100
AcDbCircle
 62
7
  6
BYLAYER
 10
53.8543312763
 20
302.8812518567
 40
17.6352223924
100
AcDbArc
 50
274.1602194167
 51
275.4216470242
  0
ARC
  5
24A
100
AcDbEntity
  8
0
100
AcDbCircle
 62
7
  6
BYLAYER
 10
47.4974944899
 20
275.9295680256
 40
9.004329057
100
AcDbArc
 50
99.989122696
 51
101.0676113837
  0
ARC
  5
24B
100
AcDbEntity
  8
0
100
AcDbCircle
 62
7
  6
BYLAYER
 10
141.850336577
 20
293.7752348016
 40
1.0
100
AcDbArc
 50
90.0
 51
180.0
  0
ARC
  5
24C
100
AcDbEntity
  8
0
100
AcDbCircle
 62
7
  6
BYLAYER
 10
61.4257298324
 20
287.8925023904
 40
0.9641171747
100
AcDbArc
 50
306.3461869841
 51
307.2307554931
  0
ARC
  5
24D
100
AcDbEntity
  8
0
100
AcDbCircle
 62
7
  6
BYLAYER
 10
167.6279508043
 20
319.2752348016
 40
8.0
100
AcDbArc
 50
270.0000000203
 51
357.4999999794
  0
ARC
  5
24E
100
AcDbEntity
  8
0
100
AcDbCircle
 62
7
  6
BYLAYER
 10
180.1807787183
 20
331.6752348016
 40
4.0
100
AcDbArc
 50
177.4999999997
 51
270.0
  0
ARC
  5
24F
100
AcDbEntity
  8
0
100
AcDbCircle
 62
7
  6
BYLAYER
 10
165.850336577
 20
309.2752348016
 40
2.0
100
AcDbArc
 50
90.0
 51
180.0
  0
ARC
  5
250
100
AcDbEntity
  8
0
100
AcDbCircle
 62
7
  6
BYLAYER
 10
178.3813381863
 20
347.7752348016
 40
1.5
100
AcDbArc
 50
90.0
 51
177.499999996
  0
ARC
  5
251
100
AcDbEntity
  8
0
100
AcDbCircle
 62
7
  6
BYLAYER
 10
316.5281960587
 20
264.7898393674
 40
22.4796791773
100
AcDbArc
 50
65.4993078526
 51
84.7505610074
  0
ARC
  5
252
100
AcDbEntity
  8
0
100
AcDbCircle
 62
7
  6
BYLAYER
 10
316.5281960587
 20
264.7898393674
 40
22.4796791773
100
AcDbArc
 50
48.7486308934
 51
65.2033888299
  0
ARC
  5
253
100
AcDbEntity
  8
0
100
AcDbCircle
 62
7
  6
BYLAYER
 10
317.8460445917
 20
302.7729559064
 40
17.5272369328
100
AcDbArc
 50
265.7419727961
 51
270.5280357034
  0
ARC
  5
254
100
AcDbEntity
  8
0
100
AcDbCircle
 62
7
  6
BYLAYER
 10
324.2076416811
 20
275.9538606543
 40
8.9795263153
100
AcDbArc
 50
78.4438000753
 51
80.0097732412
  0
ARC
  5
255
100
AcDbEntity
  8
0
100
AcDbCircle
 62
7
  6
BYLAYER
 10
229.850336577
 20
293.7752348016
 40
1.0
100
AcDbArc
 50
0.0
 51
90.0
  0
ARC
  5
256
100
AcDbEntity
  8
0
100
AcDbCircle
 62
7
  6
BYLAYER
 10
310.2804806337
 20
287.8994374116
 40
0.9730058178
100
AcDbArc
 50
232.8070310104
 51
233.6940941085
  0
ARC
  5
257
100
AcDbEntity
  8
0
100
AcDbCircle
 62
7
  6
BYLAYER
 10
204.0727223496
 20
319.2752348016
 40
8.0
100
AcDbArc
 50
182.4999998328
 51
269.999999968
  0
ARC
  5
258
100
AcDbEntity
  8
0
100
AcDbCircle
 62
7
  6
BYLAYER
 10
191.5198944356
 20
331.6752348016
 40
4.0
100
AcDbArc
 50
270.0
 51
2.5000000016
  0
ARC
  5
259
100
AcDbEntity
  8
0
100
AcDbCircle
 62
7
  6
BYLAYER
 10
205.850336577
 20
309.2752348016
 40
2.0
100
AcDbArc
 50
0.0
 51
90.0
  0
ARC
  5
25A
100
AcDbEntity
  8
0
100
AcDbCircle
 62
7
  6
BYLAYER
 10
193.3193349677
 20
347.7752348016
 40
1.5
100
AcDbArc
 50
2.5000000018
 51
90.0
  0
SPLINE
  5
25B
100
AcDbEntity
  8
0
100
AcDbSpline
 62
7
  6
BYLAYER
 70
0
 71
3
 72
9
 73
5
 74
0
 42
0.0000001
 43
0.0000001
 44
0.0000000001
 40
0.0
 40
0.0
 40
0.0
 40
0.0
 40
0.2686952813
 40
1.0
 40
1.0
 40
1.0
 40
1.0
 10
55.1139903059
 20
285.1752348016
 30
0.0
 10
55.4711935431
 20
285.2009680824
 30
0.0
 10
56.7974666463
 20
285.3377586181
 30
0.0
 10
58.1076345115
 20
285.6200112415
 30
0.0
 10
59.0420702409
 20
285.8973193317
 30
0.0
  0
SPLINE
  5
25C
100
AcDbEntity
  8
0
100
AcDbSpline
 62
7
  6
BYLAYER
 70
0
 71
3
 72
11
 73
7
 74
0
 42
0.0000001
 43
0.0000001
 44
0.0000000001
 40
0.0
 40
0.0
 40
0.0
 40
0.0
 40
0.3521246667
 40
0.642996659
 40
0.8621576594
 40
1.0
 40
1.0
 40
1.0
 40
1.0
 10
59.1926494856
 20
285.9426810042
 30
0.0
 10
59.5347278524
 20
286.0472705131
 30
0.0
 10
60.153954078
 20
286.2560670957
 30
0.0
 10
60.9687526153
 20
286.5796279719
 30
0.0
 10
61.5641637808
 20
286.8587591337
 30
0.0
 10
61.8843548883
 20
287.0329430012
 30
0.0
 10
61.997126079
 20
287.1159534506
 30
0.0
  0
SPLINE
  5
25D
100
AcDbEntity
  8
0
100
AcDbSpline
 62
7
  6
BYLAYER
 70
0
 71
3
 72
9
 73
5
 74
0
 42
0.0000001
 43
0.0000001
 44
0.0000000001
 40
0.0
 40
0.0
 40
0.0
 40
0.0
 40
0.285412066
 40
1.0
 40
1.0
 40
1.0
 40
1.0
 10
62.0090463616
 20
287.124867221
 30
0.0
 10
62.0148969138
 20
287.1293147321
 30
0.0
 10
62.0351868173
 20
287.1451550116
 30
0.0
 10
62.0547378425
 20
287.1620470106
 30
0.0
 10
62.0675691306
 20
287.1752348016
 30
0.0
  0
SPLINE
  5
25E
100
AcDbEntity
  8
0
100
AcDbSpline
 62
7
  6
BYLAYER
 70
0
 71
3
 72
9
 73
5
 74
0
 42
0.0000001
 43
0.0000001
 44
0.0000000001
 40
0.0
 40
0.0
 40
0.0
 40
0.0
 40
0.214678945
 40
1.0
 40
1.0
 40
1.0
 40
1.0
 10
309.6331040234
 20
287.1752348016
 30
0.0
 10
309.6370018592
 20
287.1712286688
 30
0.0
 10
309.655698538
 20
287.1530929984
 30
0.0
 10
309.6760115115
 20
287.1367003019
 30
0.0
 10
309.692297289
 20
287.124336983
 30
0.0
  0
SPLINE
  5
25F
100
AcDbEntity
  8
0
100
AcDbSpline
 62
7
  6
BYLAYER
 70
0
 71
3
 72
13
 73
9
 74
0
 42
0.0000001
 43
0.0000001
 44
0.0000000001
 40
0.0
 40
0.0
 40
0.0
 40
0.0
 40
0.0499982722
 40
0.1273656624
 40
0.2293416634
 40
0.3528205371
 40
0.6521112125
 40
1.0
 40
1.0
 40
1.0
 40
1.0
 10
309.7043675392
 20
287.1153238842
 30
0.0
 10
309.8010901344
 20
287.0442313777
 30
0.0
 10
310.0689592376
 20
286.8940422784
 30
0.0
 10
310.5646146397
 20
286.6549871188
 30
0.0
 10
311.2364829466
 20
286.3756693891
 30
0.0
 10
312.4212773926
 20
285.9465236879
 30
0.0
 10
314.2099297493
 20
285.4576544102
 30
0.0
 10
315.7536072598
 20
285.2352671344
 30
0.0
 10
316.5866828481
 20
285.1752518124
 30
0.0
  0
SPLINE
  5
260
100
AcDbEntity
  8
0
100
AcDbSpline
 62
7
  6
BYLAYER
 70
0
 71
3
 72
14
 73
10
 74
0
 42
0.0000001
 43
0.0000001
 44
0.0000000001
 40
0.0
 40
0.0
 40
0.0
 40
0.0
 40
0.0157592138
 40
0.0624328238
 40
0.1418774584
 40
0.2556862046
 40
0.4040830839
 40
0.5819258828
 40
1.0
 40
1.0
 40
1.0
 40
1.0
 10
175.6203366028
 20
318.9262802938
 30
0.0
 10
175.6200664602
 20
318.9200930108
 30
0.0
 10
175.657930661
 20
318.9215225634
 30
0.0
 10
175.699934529
 20
318.9084729494
 30
0.0
 10
175.8015645833
 20
318.9029875202
 30
0.0
 10
175.9318758285
 20
318.8907031042
 30
0.0
 10
176.1057824052
 20
318.8793373824
 30
0.0
 10
176.3970661332
 20
318.8605993991
 30
0.0
 10
176.6311709756
 20
318.8476662826
 30
0.0
 10
176.7952424466
 20
318.8390416801
 30
0.0
  0
SPLINE
  5
261
100
AcDbEntity
  8
0
100
AcDbSpline
 62
7
  6
BYLAYER
 70
0
 71
3
 72
11
 73
7
 74
0
 42
0.0000001
 43
0.0000001
 44
0.0000000001
 40
0.0
 40
0.0
 40
0.0
 40
0.0
 40
0.2503878594
 40
0.515168021
 40
0.7703615717
 40
1.0
 40
1.0
 40
1.0
 40
1.0
 10
165.8057122174
 20
309.2752348016
 30
0.0
 10
165.8057122174
 20
309.5243086971
 30
0.0
 10
165.8939068348
 20
310.0410187765
 30
0.0
 10
166.2929923975
 20
310.7177100607
 30
0.0
 10
166.9119006215
 20
311.172217771
 30
0.0
 10
167.3995174443
 20
311.2752348016
 30
0.0
 10
167.6279507958
 20
311.2752348016
 30
0.0
  0
SPLINE
  5
262
100
AcDbEntity
  8
0
100
AcDbSpline
 62
7
  6
BYLAYER
 70
0
 71
3
 72
9
 73
5
 74
0
 42
0.0000001
 43
0.0000001
 44
0.0000000001
 40
0.0
 40
0.0
 40
0.0
 40
0.0
 40
0.2662748437
 40
1.0
 40
1.0
 40
1.0
 40
1.0
 10
52.8736365187
 20
281.6905303631
 30
0.0
 10
52.903715817
 20
281.860463577
 30
0.0
 10
53.0242411611
 20
282.4972854775
 30
0.0
 10
53.1582200659
 20
283.1315730347
 30
0.0
 10
53.2658833017
 20
283.5947579319
 30
0.0
  0
SPLINE
  5
263
100
AcDbEntity
  8
0
100
AcDbSpline
 62
7
  6
BYLAYER
 70
0
 71
3
 72
9
 73
5
 74
0
 42
0.0000001
 43
0.0000001
 44
0.0000000001
 40
0.0
 40
0.0
 40
0.0
 40
0.0
 40
0.2711491914
 40
1.0
 40
1.0
 40
1.0
 40
1.0
 10
53.2658833017
 20
283.5947579319
 30
0.0
 10
53.2994427808
 20
283.73637533
 30
0.0
 10
53.4285028615
 20
284.2571405105
 30
0.0
 10
53.5697459953
 20
284.776744343
 30
0.0
 10
53.7080571605
 20
285.1426897317
 30
0.0
  0
SPLINE
  5
264
100
AcDbEntity
  8
0
100
AcDbSpline
 62
7
  6
BYLAYER
 70
0
 71
3
 72
13
 73
9
 74
0
 42
0.0000001
 43
0.0000001
 44
0.0000000001
 40
0.0
 40
0.0
 40
0.0
 40
0.0
 40
0.1657961276
 40
0.3967911171
 40
0.5347977892
 40
0.6839464538
 40
0.8402961827
 40
1.0
 40
1.0
 40
1.0
 40
1.0
 10
165.8057122267
 20
309.2752348016
 30
0.0
 10
166.6910668369
 20
309.2752324773
 30
0.0
 10
168.815389712
 20
309.5049066171
 30
0.0
 10
171.5198395454
 20
310.5804366352
 30
0.0
 10
173.7513121189
 20
312.2440975471
 30
0.0
 10
175.3126060539
 20
314.0553750526
 30
0.0
 10
176.4309440898
 20
316.3040071639
 30
0.0
 10
176.7542719031
 20
317.9872040915
 30
0.0
 10
176.7952426645
 20
318.8390409283
 30
0.0
  0
SPLINE
  5
265
100
AcDbEntity
  8
0
100
AcDbSpline
 62
7
  6
BYLAYER
 70
0
 71
3
 72
13
 73
9
 74
0
 42
0.0000001
 43
0.0000001
 44
0.0000000001
 40
0.0
 40
0.0
 40
0.0
 40
0.0
 40
0.1595722497
 40
0.3157723161
 40
0.4648749769
 40
0.6028933579
 40
0.8340030345
 40
1.0
 40
1.0
 40
1.0
 40
1.0
 10
194.9054304894
 20
318.8390409296
 30
0.0
 10
194.9463139631
 20
317.9879008594
 30
0.0
 10
195.2683730087
 20
316.3059075842
 30
0.0
 10
196.3871381851
 20
314.0594754268
 30
0.0
 10
197.9455886423
 20
312.2475264497
 30
0.0
 10
200.1753986446
 20
310.5802044007
 30
0.0
 10
202.8830323227
 20
309.5079003788
 30
0.0
 10
205.0085313207
 20
309.2752403306
 30
0.0
 10
205.8949609261
 20
309.2752348016
 30
0.0
  0
SPLINE
  5
266
100
AcDbEntity
  8
0
100
AcDbSpline
 62
7
  6
BYLAYER
 70
0
 71
3
 72
8
 73
4
 74
0
 42
0.0000001
 43
0.0000001
 44
0.0000000001
 40
0.0
 40
0.0
 40
0.0
 40
0.0
 40
1.0
 40
1.0
 40
1.0
 40
1.0
 10
185.850336577
 20
331.8852720436
 30
0.0
 10
185.8527149671
 20
331.8152547575
 30
0.0
 10
185.8525471618
 20
331.7451664248
 30
0.0
 10
185.8549255513
 20
331.6751491387
 30
0.0
  0
SPLINE
  5
267
100
AcDbEntity
  8
0
100
AcDbSpline
 62
7
  6
BYLAYER
 70
0
 71
3
 72
23
 73
19
 74
0
 42
0.0000001
 43
0.0000001
 44
0.0000000001
 40
0.0
 40
0.0
 40
0.0
 40
0.0
 40
0.0011904308
 40
0.0047905684
 40
0.0107902901
 40
0.0191741644
 40
0.0299209391
 40
0.0430049087
 40
0.0760512833
 40
0.1179963358
 40
0.1684381445
 40
0.2268925681
 40
0.2927962627
 40
0.3655140212
 40
0.4443455511
 40
0.6172584596
 40
0.8048796673
 40
1.0
 40
1.0
 40
1.0
 40
1.0
 10
331.3503359606
 20
281.6905564321
 30
0.0
 10
331.3530176931
 20
281.6863722608
 30
0.0
 10
331.3143297286
 20
281.6981285433
 30
0.0
 10
331.287507184
 20
281.6902794707
 30
0.0
 10
331.2021674135
 20
281.6999418665
 30
0.0
 10
331.1019292331
 20
281.7021361526
 30
0.0
 10
330.9657892017
 20
281.7086271409
 30
0.0
 10
330.7293257838
 20
281.7167036706
 30
0.0
 10
330.361234282
 20
281.7275681731
 30
0.0
 10
329.8379156569
 20
281.7382579758
 30
0.0
 10
329.2081547895
 20
281.7468376972
 30
0.0
 10
328.4784439842
 20
281.7521991782
 30
0.0
 10
327.6556819734
 20
281.753915286
 30
0.0
 10
326.7478627925
 20
281.7517937324
 30
0.0
 10
325.3933192868
 20
281.7438267369
 30
0.0
 10
323.559142445
 20
281.7256345236
 30
0.0
 10
321.2395438825
 20
281.7002553454
 30
0.0
 10
319.6416798886
 20
281.6900561375
 30
0.0
 10
318.827092224
 20
281.6903784599
 30
0.0
  0
SPLINE
  5
268
100
AcDbEntity
  8
0
100
AcDbSpline
 62
7
  6
BYLAYER
 70
0
 71
3
 72
9
 73
5
 74
0
 42
0.0000001
 43
0.0000001
 44
0.0000000001
 40
0.0
 40
0.0
 40
0.0
 40
0.0
 40
0.2438250984
 40
1.0
 40
1.0
 40
1.0
 40
1.0
 10
328.8455996081
 20
283.594560735
 30
0.0
 10
328.6364606097
 20
283.731550228
 30
0.0
 10
327.7520703314
 20
284.2520898507
 30
0.0
 10
326.766134069
 20
284.5959970812
 30
0.0
 10
326.0065013946
 20
284.7513601045
 30
0.0
  0
SPLINE
  5
269
100
AcDbEntity
  8
0
100
AcDbSpline
 62
7
  6
BYLAYER
 70
0
 71
3
 72
9
 73
5
 74
0
 42
0.0000001
 43
0.0000001
 44
0.0000000001
 40
0.0
 40
0.0
 40
0.0
 40
0.0
 40
0.2430109982
 40
1.0
 40
1.0
 40
1.0
 40
1.0
 10
325.7654116243
 20
284.7972336335
 30
0.0
 10
325.5679274072
 20
284.8320301903
 30
0.0
 10
324.7506393625
 20
284.9483768128
 30
0.0
 10
323.9191720637
 20
284.9575663476
 30
0.0
 10
323.2961679552
 20
284.9122836501
 30
0.0
  0
SPLINE
  5
26A
100
AcDbEntity
  8
0
100
AcDbSpline
 62
7
  6
BYLAYER
 70
0
 71
3
 72
9
 73
5
 74
0
 42
0.0000001
 43
0.0000001
 44
0.0000000001
 40
0.0
 40
0.0
 40
0.0
 40
0.0
 40
0.239294862
 40
1.0
 40
1.0
 40
1.0
 40
1.0
 10
323.2961679552
 20
284.9122836501
 30
0.0
 10
322.8942170956
 20
284.8830680817
 30
0.0
 10
321.2210302558
 20
284.6716020332
 30
0.0
 10
319.5994599319
 20
284.1283775298
 30
0.0
 10
318.4348229965
 20
283.5945544087
 30
0.0
  0
SPLINE
  5
26B
100
AcDbEntity
  8
0
100
AcDbSpline
 62
7
  6
BYLAYER
 70
0
 71
3
 72
8
 73
4
 74
0
 42
0.0000001
 43
0.0000001
 44
0.0000000001
 40
0.0
 40
0.0
 40
0.0
 40
0.0
 40
1.0
 40
1.0
 40
1.0
 40
1.0
 10
194.4211946357
 20
328.9216086199
 30
0.0
 10
194.5829412726
 20
325.5607688138
 30
0.0
 10
194.7446120426
 20
322.1999252781
 30
0.0
 10
194.9054304894
 20
318.8390409296
 30
0.0
  0
SPLINE
  5
26C
100
AcDbEntity
  8
0
100
AcDbSpline
 62
7
  6
BYLAYER
 70
0
 71
3
 72
8
 73
4
 74
0
 42
0.0000001
 43
0.0000001
 44
0.0000000001
 40
0.0
 40
0.0
 40
0.0
 40
0.0
 40
1.0
 40
1.0
 40
1.0
 40
1.0
 10
176.7952426645
 20
318.8390409283
 30
0.0
 10
176.9560327426
 20
322.1999266346
 30
0.0
 10
177.1177584696
 20
325.5607675339
 30
0.0
 10
177.2794785183
 20
328.9216086199
 30
0.0
  0
SPLINE
  5
26D
100
AcDbEntity
  8
0
100
AcDbSpline
 62
7
  6
BYLAYER
 70
0
 71
3
 72
9
 73
5
 74
0
 42
0.0000001
 43
0.0000001
 44
0.0000000001
 40
0.0
 40
0.0
 40
0.0
 40
0.0
 40
0.2255150005
 40
1.0
 40
1.0
 40
1.0
 40
1.0
 10
59.1425780817
 20
286.0438219966
 30
0.0
 10
58.8767587604
 20
285.9630462083
 30
0.0
 10
57.6903103295
 20
285.6312147389
 30
0.0
 10
56.4704342394
 20
285.4151025251
 30
0.0
 10
55.5205854182
 20
285.3249234831
 30
0.0
  0
SPLINE
  5
26E
100
AcDbEntity
  8
0
100
AcDbSpline
 62
7
  6
BYLAYER
 70
0
 71
3
 72
9
 73
5
 74
0
 42
0.0000001
 43
0.0000001
 44
0.0000000001
 40
0.0
 40
0.0
 40
0.0
 40
0.0
 40
0.2753602178
 40
1.0
 40
1.0
 40
1.0
 40
1.0
 10
53.7058299041
 20
285.246065297
 30
0.0
 10
53.1917765001
 20
285.2501802235
 30
0.0
 10
51.326006855
 20
285.3484854814
 30
0.0
 10
49.4794648157
 20
285.7387361181
 30
0.0
 10
48.1934823275
 20
286.158732833
 30
0.0
  0
SPLINE
  5
26F
100
AcDbEntity
  8
0
100
AcDbSpline
 62
7
  6
BYLAYER
 70
0
 71
3
 72
9
 73
5
 74
0
 42
0.0000001
 43
0.0000001
 44
0.0000000001
 40
0.0
 40
0.0
 40
0.0
 40
0.0
 40
0.2222602245
 40
1.0
 40
1.0
 40
1.0
 40
1.0
 10
323.1425780817
 20
286.0438219966
 30
0.0
 10
322.773575854
 20
285.9316915251
 30
0.0
 10
321.0986572456
 20
285.4781641698
 30
0.0
 10
319.3570409879
 20
285.258662593
 30
0.0
 10
318.0075726475
 20
285.2464632971
 30
0.0
  0
SPLINE
  5
270
100
AcDbEntity
  8
0
100
AcDbSpline
 62
7
  6
BYLAYER
 70
0
 71
3
 72
14
 73
10
 74
0
 42
0.0000001
 43
0.0000001
 44
0.0000000001
 40
0.0
 40
0.0
 40
0.0
 40
0.0
 40
0.3613043446
 40
0.5231951473
 40
0.6674472549
 40
0.7905948333
 40
0.889175892
 40
0.9598446754
 40
1.0
 40
1.0
 40
1.0
 40
1.0
 10
316.5446787046
 20
285.2940977823
 30
0.0
 10
315.7068444508
 20
285.3566567626
 30
0.0
 10
314.4978715744
 20
285.5335955128
 30
0.0
 10
312.9911211855
 20
285.9076702621
 30
0.0
 10
312.0365230744
 20
286.202187538
 30
0.0
 10
311.2377875409
 20
286.4953828591
 30
0.0
 10
310.6095378071
 20
286.7596765461
 30
0.0
 10
310.1772380032
 20
286.9786320213
 30
0.0
 10
309.9502785143
 20
287.1093276162
 30
0.0
 10
309.8841322839
 20
287.1752348016
 30
0.0
  0
SPLINE
  5
271
100
AcDbEntity
  8
0
100
AcDbSpline
 62
7
  6
BYLAYER
 70
0
 71
3
 72
9
 73
5
 74
0
 42
0.0000001
 43
0.0000001
 44
0.0000000001
 40
0.0
 40
0.0
 40
0.0
 40
0.0
 40
0.3902027805
 40
1.0
 40
1.0
 40
1.0
 40
1.0
 10
61.8165408701
 20
287.1752348016
 30
0.0
 10
61.7815977781
 20
287.14041799
 30
0.0
 10
61.6765004362
 20
287.0680894856
 30
0.0
 10
61.5671777689
 20
287.0052157179
 30
0.0
 10
61.4993348155
 20
286.9686112054
 30
0.0
  0
SPLINE
  5
272
100
AcDbEntity
  8
0
100
AcDbSpline
 62
7
  6
BYLAYER
 70
0
 71
3
 72
9
 73
5
 74
0
 42
0.0000001
 43
0.0000001
 44
0.0000000001
 40
0.0
 40
0.0
 40
0.0
 40
0.0
 40
0.414019044
 40
1.0
 40
1.0
 40
1.0
 40
1.0
 10
61.4993348155
 20
286.9686112054
 30
0.0
 10
61.2818142892
 20
286.8512484962
 30
0.0
 10
60.7376923778
 20
286.6032959063
 30
0.0
 10
60.179968624
 20
286.3896598045
 30
0.0
 10
59.8496848629
 20
286.274390244
 30
0.0
  0
SPLINE
  5
273
100
AcDbEntity
  8
0
100
AcDbSpline
 62
7
  6
BYLAYER
 70
0
 71
3
 72
23
 73
19
 74
0
 42
0.0000001
 43
0.0000001
 44
0.0000000001
 40
0.0
 40
0.0
 40
0.0
 40
0.0
 40
0.0011934251
 40
0.00479777
 40
0.010799248
 40
0.019184195
 40
0.0299388474
 40
0.0430375362
 40
0.0761022356
 40
0.118043635
 40
0.1684696128
 40
0.2269025734
 40
0.292798261
 40
0.3655058819
 40
0.4443371575
 40
0.6172022389
 40
0.8048726777
 40
1.0
 40
1.0
 40
1.0
 40
1.0
 10
40.3503371973
 20
281.6905958928
 30
0.0
 10
40.3476745943
 20
281.6863846981
 30
0.0
 10
40.3863650342
 20
281.6981203861
 30
0.0
 10
40.4132736845
 20
281.6902465786
 30
0.0
 10
40.4986058506
 20
281.6999335548
 30
0.0
 10
40.5989037861
 20
281.7021731761
 30
0.0
 10
40.7351378934
 20
281.7086702946
 30
0.0
 10
40.971777134
 20
281.7167048117
 30
0.0
 10
41.3399902261
 20
281.7275986297
 30
0.0
 10
41.8633070042
 20
281.7383198235
 30
0.0
 10
42.4929005354
 20
281.7468258914
 30
0.0
 10
43.2224258612
 20
281.7521664411
 30
0.0
 10
44.0450264689
 20
281.7538039466
 30
0.0
 10
44.9527731322
 20
281.751721287
 30
0.0
 10
46.3070795042
 20
281.7436670835
 30
0.0
 10
48.1412698517
 20
281.7255199658
 30
0.0
 10
50.4609152393
 20
281.7001877455
 30
0.0
 10
52.0590222549
 20
281.6901648047
 30
0.0
 10
52.8736429062
 20
281.6905057852
 30
0.0
  0
SPLINE
  5
274
100
AcDbEntity
  8
0
100
AcDbSpline
 62
7
  6
BYLAYER
 70
0
 71
3
 72
14
 73
10
 74
0
 42
0.0000001
 43
0.0000001
 44
0.0000000001
 40
0.0
 40
0.0
 40
0.0
 40
0.0
 40
0.0157591575
 40
0.0624326006
 40
0.1418770291
 40
0.2556856011
 40
0.4040823999
 40
0.5819252496
 40
1.0
 40
1.0
 40
1.0
 40
1.0
 10
196.0803365758
 20
318.9262797286
 30
0.0
 10
196.0806066877
 20
318.9200924652
 30
0.0
 10
196.0427426999
 20
318.9215219802
 30
0.0
 10
196.0007388718
 20
318.9084724018
 30
0.0
 10
195.8991090768
 20
318.9029869537
 30
0.0
 10
195.7687979655
 20
318.890702533
 30
0.0
 10
195.5948914448
 20
318.8793367893
 30
0.0
 10
195.3036074246
 20
318.8605987524
 30
0.0
 10
195.0695022713
 20
318.8476655969
 30
0.0
 10
194.9054305213
 20
318.8390409664
 30
0.0
  0
SPLINE
  5
275
100
AcDbEntity
  8
0
100
AcDbSpline
 62
7
  6
BYLAYER
 70
0
 71
3
 72
9
 73
5
 74
0
 42
0.0000001
 43
0.0000001
 44
0.0000000001
 40
0.0
 40
0.0
 40
0.0
 40
0.0
 40
0.4738583758
 40
1.0
 40
1.0
 40
1.0
 40
1.0
 10
204.0727248226
 20
311.2752348016
 30
0.0
 10
204.2967510749
 20
311.2752348001
 30
0.0
 10
204.774108662
 20
311.1769053763
 30
0.0
 10
205.1710286818
 20
310.8920193461
 30
0.0
 10
205.3414500721
 20
310.7108281734
 30
0.0
  0
SPLINE
  5
276
100
AcDbEntity
  8
0
100
AcDbSpline
 62
7
  6
BYLAYER
 70
0
 71
3
 72
9
 73
5
 74
0
 42
0.0000001
 43
0.0000001
 44
0.0000000001
 40
0.0
 40
0.0
 40
0.0
 40
0.0
 40
0.5137480332
 40
1.0
 40
1.0
 40
1.0
 40
1.0
 10
205.3414500721
 20
310.7108281734
 30
0.0
 10
205.5251830665
 20
310.5154841696
 30
0.0
 10
205.803928404
 20
310.0548923288
 30
0.0
 10
205.8949637319
 20
309.5290556323
 30
0.0
 10
205.894963743
 20
309.2752348016
 30
0.0
  0
SPLINE
  5
277
100
AcDbEntity
  8
0
100
AcDbSpline
 62
7
  6
BYLAYER
 70
0
 71
3
 72
9
 73
5
 74
0
 42
0.0000001
 43
0.0000001
 44
0.0000000001
 40
0.0
 40
0.0
 40
0.0
 40
0.0
 40
0.2446803929
 40
1.0
 40
1.0
 40
1.0
 40
1.0
 10
42.8553744871
 20
283.5947578531
 30
0.0
 10
43.07039373
 20
283.7355940873
 30
0.0
 10
43.9772569083
 20
284.2676800637
 30
0.0
 10
44.9902547128
 20
284.6140915268
 30
0.0
 10
45.7689584473
 20
284.7664286059
 30
0.0
  0
SPLINE
  5
278
100
AcDbEntity
  8
0
100
AcDbSpline
 62
7
  6
BYLAYER
 70
0
 71
3
 72
9
 73
5
 74
0
 42
0.0000001
 43
0.0000001
 44
0.0000000001
 40
0.0
 40
0.0
 40
0.0
 40
0.0
 40
0.4777454291
 40
1.0
 40
1.0
 40
1.0
 40
1.0
 10
45.9355926409
 20
284.7973977703
 30
0.0
 10
47.1138241918
 20
285.0049485424
 30
0.0
 10
49.6749582464
 20
284.9433184311
 30
0.0
 10
52.076987569
 20
284.1396914031
 30
0.0
 10
53.2658832832
 20
283.594757853
 30
0.0
  0
SPLINE
  5
279
100
AcDbEntity
  8
0
100
AcDbSpline
 62
7
  6
BYLAYER
 70
0
 71
3
 72
9
 73
5
 74
0
 42
0.0000001
 43
0.0000001
 44
0.0000000001
 40
0.0
 40
0.0
 40
0.0
 40
0.0
 40
0.2276422979
 40
1.0
 40
1.0
 40
1.0
 40
1.0
 10
317.9947923009
 20
285.1752713301
 30
0.0
 10
318.034141542
 20
285.0571211322
 30
0.0
 10
318.1993438046
 20
284.5355554148
 30
0.0
 10
318.337650071
 20
284.0057479386
 30
0.0
 10
318.4348217315
 20
283.5945597615
 30
0.0
  0
SPLINE
  5
27A
100
AcDbEntity
  8
0
100
AcDbSpline
 62
7
  6
BYLAYER
 70
0
 71
3
 72
9
 73
5
 74
0
 42
0.0000001
 43
0.0000001
 44
0.0000000001
 40
0.0
 40
0.0
 40
0.0
 40
0.0
 40
0.2333247482
 40
1.0
 40
1.0
 40
1.0
 40
1.0
 10
318.4348348235
 20
283.5945606903
 30
0.0
 10
318.468652848
 20
283.4471898235
 30
0.0
 10
318.6082906134
 20
282.8143926787
 30
0.0
 10
318.7395917709
 20
282.1795937211
 30
0.0
 10
318.8270856924
 20
281.6905303631
 30
0.0
  0
ELLIPSE
  5
27B
100
AcDbEntity
  8
0
100
AcDbEllipse
 62
7
  6
BYLAYER
 10
315.8210892774
 20
264.7898393672
 30
0.0
 11
22.4796791775
 21
0.0
 31
0.0
 40
1.0
 41
1.4480380976
 42
1.4791763325
  0
ELLIPSE
  5
27C
100
AcDbEntity
  8
0
100
AcDbEllipse
 62
7
  6
BYLAYER
 10
315.8210892774
 20
264.7898393672
 30
0.0
 11
-0.0
 21
22.4796791775
 31
0.0
 40
1.0
 41
-0.3317452896
 42
-0.1227582291
  0
ELLIPSE
  5
27D
100
AcDbEntity
  8
0
100
AcDbEllipse
 62
7
  6
BYLAYER
 10
51.8210892774
 20
264.7898393672
 30
0.0
 11
-0.0
 21
22.4796791775
 31
0.0
 40
1.0
 41
-0.3317452896
 42
-0.1710331302
  0
ELLIPSE
  5
27E
100
AcDbEntity
  8
0
100
AcDbEllipse
 62
7
  6
BYLAYER
 10
51.8210892774
 20
264.7898393672
 30
0.0
 11
22.4796791775
 21
0.0
 31
0.0
 40
1.0
 41
7.6829485038
 42
7.7623616397
  0
ELLIPSE
  5
27F
100
AcDbEntity
  8
0
100
AcDbEllipse
 62
7
  6
BYLAYER
 10
53.2353028398
 20
264.7898393672
 30
0.0
 11
22.4796791775
 21
-0.0
 31
0.0
 40
1.0
 41
1.2721379129
 42
1.2998990646
  0
ELLIPSE
  5
280
100
AcDbEntity
  8
0
100
AcDbEllipse
 62
7
  6
BYLAYER
 10
53.2353028398
 20
264.7898393672
 30
0.0
 11
0.0
 21
22.4796791775
 31
0.0
 40
1.0
 41
-0.2708972622
 42
-0.230077353
  0
ELLIPSE
  5
281
100
AcDbEntity
  8
0
100
AcDbEllipse
 62
7
  6
BYLAYER
 10
53.2353028398
 20
264.7898393672
 30
0.0
 11
22.4796791775
 21
-0.0
 31
0.0
 40
1.0
 41
1.3407189738
 42
1.4791763325
  0
ENDSEC
  0
SECTION
  2
OBJECTS
  0
DICTIONARY
  5
C
100
AcDbDictionary
280
0
281
1
  3
ACAD_GROUP
350
D
  3
ACAD_MLINESTYLE
350
17
  3
ACAD_LAYOUT
350
1A
  3
ACAD_PLOTSETTINGS
350
19
  3
ACAD_PLOTSTYLENAME
350
E
  0
DICTIONARY
  5
D
102
{ACAD_REACTORS
330
C
102
}
100
AcDbDictionary
280
0
281
1
  0
ACDBDICTIONARYWDFLT
  5
E
102
{ACAD_REACTORS
330
C
102
}
100
AcDbDictionary
281
1
  3
Normal
350
F
100
AcDbDictionaryWithDefault
340
F
  0
DICTIONARY
  5
17
102
{ACAD_REACTORS
330
C
102
}
100
AcDbDictionary
280
0
281
1
  3
Standard
350
18
  0
DICTIONARY
  5
19
102
{ACAD_REACTORS
330
C
102
}
100
AcDbDictionary
281
1
  0
DICTIONARY
  5
1A
102
{ACAD_REACTORS
330
C
102
}
100
AcDbDictionary
281
1
  3
Model
350
282
  3
Layout1
350
283
  0
ACDBPLACEHOLDER
  5
F
102
{ACAD_REACTORS
330
E
102
}
  0
MLINESTYLE
  5
18
102
{ACAD_REACTORS
330
17
102
}
100
AcDbMlineStyle
  2
STANDARD
 70
0
  3

 62
256
 51
90.0
 52
90.0
 71
2
 49
0.5
 62
256
  6
BYLAYER
 49
-0.5
 62
256
  6
BYLAYER
  0
LAYOUT
  5
282
102
{ACAD_REACTORS
330
1A
102
}
100
AcDbPlotSettings
  1

  2
none_device
  4

  6

 40
0.0
 41
0.0
 42
0.0
 43
0.0
 44
210.0
 45
297.0
 46
0.0
 47
0.0
 48
0.0
 49
0.0
140
0.0
141
0.0
142
1.0
143
1.0
 70
1024
 72
1
 73
0
 74
0
  7

 75
0
147
1.0
148
0.0
149
0.0
100
AcDbLayout
  1
Model
 70
0
 71
0
 10
0.0
 20
0.0
 11
210.0
 21
297.0
 12
0.0
 22
0.0
 32
0.0
 14
0.0
 24
0.0
 34
0.0
 15
0.0
 25
0.0
 35
0.0
146
0.0
 13
0.0
 23
0.0
 33
0.0
 16
1.0
 26
0.0
 36
0.0
 17
0.0
 27
1.0
 37
0.0
 76
0
330
210
345
0
346
0
  0
LAYOUT
  5
283
102
{ACAD_REACTORS
330
1A
102
}
100
AcDbPlotSettings
  1

  2
none_device
  4

  6

 40
0.0
 41
0.0
 42
0.0
 43
0.0
 44
210.0
 45
297.0
 46
0.0
 47
0.0
 48
0.0
 49
0.0
140
0.0
141
0.0
142
1.0
143
1.0
 70
0
 72
1
 73
0
 74
0
  7

 75
0
147
1.0
148
0.0
149
0.0
100
AcDbLayout
  1
Layout1
 70
0
 71
1
 10
0.0
 20
0.0
 11
210.0
 21
297.0
 12
0.0
 22
0.0
 32
0.0
 14
0.0
 24
0.0
 34
0.0
 15
0.0
 25
0.0
 35
0.0
146
0.0
 13
0.0
 23
0.0
 33
0.0
 16
1.0
 26
0.0
 36
0.0
 17
0.0
 27
1.0
 37
0.0
 76
0
330
211
345
0
346
0
  0
ENDSEC
  0
EOF
