999
DXF file: C:\Users\sesa63760\Dev\_Creo\CAD\MCADID0004044_3D-CAD\drw0001_5.dxf
999
Pro/ENGINEER 2019471 by Parametric Technology Corporation
  0
SECTION
  2
HEADER
  9
$ACADVER
  1
AC1024
  9
$DWGCODEPAGE
  3
ANSI_1252
  9
$EXTMAX
 10
95.7760392597
 20
135.4546840959
 30
0.0
  9
$EXTMIN
 10
0.0
 20
0.0
 30
0.0
  9
$LIMMIN
 10
0.0
 20
0.0
  9
$LIMMAX
 10
95.7760392597
 20
135.4546840959
  9
$VIEWCTR
 10
47.8880196298
 20
67.7273420479
  9
$VIEWSIZE
 40
135.4546840959
  9
$CLAYER
  8
0
  9
$LTSCALE
 40
8.829638667
  9
$CELTYPE
  6
BYLAYER
  9
$DIMSCALE
 40
1.0
  9
$DIMASZ
 40
1.1401909436
  9
$DIMEXO
 40
1.0
  9
$DIMDLI
 40
6.1004776245
  9
$DIMEXE
 40
1.0
  9
$DIMCEN
 40
1.4448499637
  9
$DIMLFAC
 40
1.0
  9
$DIMBLK
  1
_FILLED
  9
$DIMALT
 70
0
  9
$DIMALTF
 40
0.0393700787
  9
$DIMTXT
 40
1.596267321
  9
$DIMTOL
 70
1
  9
$DIMLIM
 70
0
  9
$DIMTFAC
 40
1.0
  9
$DIMTP
 40
0.01
  9
$DIMTM
 40
0.01
  9
$DIMGAP
 40
0.625
  9
$DIMDSEP
 70
46
  9
$AUNITS
 70
0
  9
$PDMODE
 70
3
  9
$PDSIZE
 40
0.3125
  9
$HANDSEED
  5
3B0
  9
$TILEMODE
 70
1
  9
$MEASUREMENT
 70
1
  9
$INSUNITS
 70
4
  0
ENDSEC
  0
SECTION
  2
CLASSES
  0
CLASS
  1
ACDBDICTIONARYWDFLT
  2
AcDbDictionaryWithDefault
  3
AutoCAD 2000
 90
0
 91
1
280
0
281
0
  0
CLASS
  1
ACDBPLACEHOLDER
  2
AcDbPlaceHolder
  3
AutoCAD 2000
 90
0
 91
1
280
0
281
0
  0
CLASS
  1
LAYOUT
  2
AcDbLayout
  3
AutoCAD 2000
 90
0
 91
0
280
0
281
0
  0
ENDSEC
  0
SECTION
  2
TABLES
  0
TABLE
  2
VPORT
  5
8
100
AcDbSymbolTable
 70
2
  0
VPORT
  5
1F4
100
AcDbSymbolTableRecord
100
AcDbViewportTableRecord
  2
*ACTIVE
 70
0
 10
0.0
 20
0.0
 11
1.0
 21
1.0
 12
47.8880196298
 22
67.7273420479
 13
0.0
 23
0.0
 14
1.0
 24
1.0
 15
0.0
 25
0.0
 16
0.0
 26
0.0
 36
1.0
 17
0.0
 27
0.0
 37
0.0
 40
135.4546840959
 41
0.7070707071
 42
50.0
 43
0.0
 44
0.0
 50
0.0
 51
0.0
 71
0
 72
100
 73
1
 74
1
 75
0
 76
0
 77
0
 78
0
  0
ENDTAB
  0
TABLE
  2
LTYPE
  5
5
100
AcDbSymbolTable
 70
6
  0
LTYPE
  5
14
100
AcDbSymbolTableRecord
100
AcDbLinetypeTableRecord
  2
BYBLOCK
 70
0
  3

 72
65
 73
0
 40
0.0
  0
LTYPE
  5
15
100
AcDbSymbolTableRecord
100
AcDbLinetypeTableRecord
  2
BYLAYER
 70
0
  3

 72
65
 73
0
 40
0.0
  0
LTYPE
  5
16
100
AcDbSymbolTableRecord
100
AcDbLinetypeTableRecord
  2
CONTINUOUS
 70
64
  3
Solid line
 72
65
 73
0
 40
0.0
  0
LTYPE
  5
1F5
100
AcDbSymbolTableRecord
100
AcDbLinetypeTableRecord
  2
CENTER
 70
64
  3
____ _ ____ _ ____ _ ____ _ ____ _ ____ _ ____
 72
65
 73
4
 40
0.6
 49
0.375
 74
0
 49
-0.075
 74
0
 49
0.075
 74
0
 49
-0.075
 74
0
  0
LTYPE
  5
1F6
100
AcDbSymbolTableRecord
100
AcDbLinetypeTableRecord
  2
HIDDEN
 70
64
  3
- - - - - - - - - - - - - - - - - - - -
 72
65
 73
2
 40
0.2
 49
0.1
 74
0
 49
-0.1
 74
0
  0
LTYPE
  5
1F7
100
AcDbSymbolTableRecord
100
AcDbLinetypeTableRecord
  2
PHANTOM
 70
64
  3
_____ _ _ _____ _ _ _____ _ _ _____
 72
65
 73
6
 40
0.8
 49
0.45
 74
0
 49
-0.05
 74
0
 49
0.1
 74
0
 49
-0.05
 74
0
 49
0.1
 74
0
 49
-0.05
 74
0
  0
LTYPE
  5
1F8
100
AcDbSymbolTableRecord
100
AcDbLinetypeTableRecord
  2
DOT
 70
64
  3
. . . . . . . . . . . . . . . . . . . .
 72
65
 73
2
 40
0.2
 49
0.1
 74
0
 49
-0.1
 74
0
  0
LTYPE
  5
1F9
100
AcDbSymbolTableRecord
100
AcDbLinetypeTableRecord
  2
DASHED
 70
64
  3
- - - - - - - - - - - - - - - - - - - -
 72
65
 73
2
 40
0.2
 49
0.1
 74
0
 49
-0.1
 74
0
  0
ENDTAB
  0
TABLE
  2
LAYER
  5
2
100
AcDbSymbolTable
 70
36
  0
LAYER
  5
10
100
AcDbSymbolTableRecord
100
AcDbLayerTableRecord
  2
0
 70
0
 62
7
  6
CONTINUOUS
370
-3
390
F
  0
LAYER
  5
1FA
100
AcDbSymbolTableRecord
100
AcDbLayerTableRecord
  2
DEFAULT_1
 70
0
 62
7
  6
CENTER
370
-3
390
F
  0
LAYER
  5
1FB
100
AcDbSymbolTableRecord
100
AcDbLayerTableRecord
  2
DEFAULT_2
 70
0
 62
7
  6
HIDDEN
370
-3
390
F
  0
LAYER
  5
1FC
100
AcDbSymbolTableRecord
100
AcDbLayerTableRecord
  2
DEFAULT_3
 70
0
 62
7
  6
PHANTOM
370
-3
390
F
  0
LAYER
  5
1FD
100
AcDbSymbolTableRecord
100
AcDbLayerTableRecord
  2
00_COMPONENTS
 70
0
 62
7
  6
CONTINUOUS
370
-3
390
F
  0
LAYER
  5
1FE
100
AcDbSymbolTableRecord
100
AcDbLayerTableRecord
  2
01_1_DEFAULT_DATUMS
 70
0
 62
7
  6
CONTINUOUS
370
-3
390
F
  0
LAYER
  5
1FF
100
AcDbSymbolTableRecord
100
AcDbLayerTableRecord
  2
01_PLANES
 70
0
 62
7
  6
CONTINUOUS
370
-3
390
F
  0
LAYER
  5
200
100
AcDbSymbolTableRecord
100
AcDbLayerTableRecord
  2
02_COORD_SYS
 70
0
 62
7
  6
CONTINUOUS
370
-3
390
F
  0
LAYER
  5
201
100
AcDbSymbolTableRecord
100
AcDbLayerTableRecord
  2
03_AXES
 70
0
 62
7
  6
CONTINUOUS
370
-3
390
F
  0
LAYER
  5
202
100
AcDbSymbolTableRecord
100
AcDbLayerTableRecord
  2
04_POINTS
 70
0
 62
7
  6
CONTINUOUS
370
-3
390
F
  0
LAYER
  5
203
100
AcDbSymbolTableRecord
100
AcDbLayerTableRecord
  2
05_CURVES
 70
0
 62
7
  6
CONTINUOUS
370
-3
390
F
  0
LAYER
  5
204
100
AcDbSymbolTableRecord
100
AcDbLayerTableRecord
  2
06_SURFS
 70
0
 62
7
  6
CONTINUOUS
370
-3
390
F
  0
LAYER
  5
205
100
AcDbSymbolTableRecord
100
AcDbLayerTableRecord
  2
07_COSMETICS
 70
0
 62
7
  6
CONTINUOUS
370
-3
390
F
  0
LAYER
  5
206
100
AcDbSymbolTableRecord
100
AcDbLayerTableRecord
  2
10_NOTES
 70
0
 62
7
  6
CONTINUOUS
370
-3
390
F
  0
LAYER
  5
207
100
AcDbSymbolTableRecord
100
AcDbLayerTableRecord
  2
11_NOTES_PUB
 70
0
 62
7
  6
CONTINUOUS
370
-3
390
F
  0
LAYER
  5
208
100
AcDbSymbolTableRecord
100
AcDbLayerTableRecord
  2
13_REF_GTOL
 70
0
 62
7
  6
CONTINUOUS
370
-3
390
F
  0
LAYER
  5
209
100
AcDbSymbolTableRecord
100
AcDbLayerTableRecord
  2
16_MISC
 70
0
 62
7
  6
CONTINUOUS
370
-3
390
F
  0
LAYER
  5
20A
100
AcDbSymbolTableRecord
100
AcDbLayerTableRecord
  2
17_NO_PRINT
 70
0
 62
7
  6
CONTINUOUS
370
-3
390
F
  0
LAYER
  5
20B
100
AcDbSymbolTableRecord
100
AcDbLayerTableRecord
  2
18_DATUM_CAMS_JOINTS
 70
0
 62
7
  6
CONTINUOUS
370
-3
390
F
  0
LAYER
  5
20C
100
AcDbSymbolTableRecord
100
AcDbLayerTableRecord
  2
19_DATUM_FUNCTIONAL
 70
0
 62
7
  6
CONTINUOUS
370
-3
390
F
  0
LAYER
  5
20D
100
AcDbSymbolTableRecord
100
AcDbLayerTableRecord
  2
20_DATUM_KINEMATIC_SCHEME
 70
0
 62
7
  6
CONTINUOUS
370
-3
390
F
  0
ENDTAB
  0
TABLE
  2
STYLE
  5
3
100
AcDbSymbolTable
 70
1
  0
STYLE
  5
11
100
AcDbSymbolTableRecord
100
AcDbTextStyleTableRecord
  2
STANDARD
 70
0
 40
0.0
 41
1.0
 50
0.0
 71
0
 42
0.2
  3
ARIAL.TTF
  4

  0
STYLE
  5
20E
100
AcDbSymbolTableRecord
100
AcDbTextStyleTableRecord
  2
TEXTSTYLE_1
 70
0
 40
0.0
 41
0.8
 50
0.0
 71
0
 42
0.2
  3
gdt
  4

  0
ENDTAB
  0
TABLE
  2
VIEW
  5
6
100
AcDbSymbolTable
 70
0
  0
ENDTAB
  0
TABLE
  2
UCS
  5
7
100
AcDbSymbolTable
 70
0
  0
ENDTAB
  0
TABLE
  2
APPID
  5
9
100
AcDbSymbolTable
 70
1
  0
APPID
  5
20F
100
AcDbSymbolTableRecord
100
AcDbRegAppTableRecord
  2
ACAD
 70
0
  0
ENDTAB
  0
TABLE
  2
BLOCK_RECORD
  5
1
100
AcDbSymbolTable
 70
0
  0
BLOCK_RECORD
  5
210
100
AcDbSymbolTableRecord
100
AcDbBlockTableRecord
  2
*Model_Space
  0
BLOCK_RECORD
  5
211
100
AcDbSymbolTableRecord
100
AcDbBlockTableRecord
  2
*Paper_Space
  0
BLOCK_RECORD
  5
212
100
AcDbSymbolTableRecord
100
AcDbBlockTableRecord
  2
_FILLED
  0
ENDTAB
  0
TABLE
  2
DIMSTYLE
  5
A
100
AcDbSymbolTable
 70
1
100
AcDbDimStyleTable
 71
0
  0
DIMSTYLE
105
213
100
AcDbSymbolTableRecord
100
AcDbDimStyleTableRecord
  2
STANDARD
 70
0
  3

  4

 40
1.0
 41
1.1401909436
 42
1.0
 43
0.38
 44
1.0
 45
0.0
 46
0.0
 47
0.01
 48
0.01
140
1.596267321
141
0.09
142
0.0
143
25.4
144
1.0
145
0.0
146
1.0
147
0.625
 71
1
 72
0
 73
0
 74
0
 75
0
 76
0
 77
1
 78
8
 79
2
170
0
171
1
172
0
173
0
174
0
175
0
176
0
177
0
178
0
270
2
179
2
271
2
272
2
273
2
274
2
275
0
280
0
281
0
282
0
283
1
284
8
285
0
286
0
287
3
288
0
340
11
278
46
341
212
342
212
343
212
344
212
  0
ENDTAB
  0
ENDSEC
  0
SECTION
  2
BLOCKS
  0
BLOCK
  5
20
100
AcDbEntity
  8
0
100
AcDbBlockBegin
  2
*Model_Space
 70
0
 10
0.0
 20
0.0
 30
0.0
  3
*Model_Space
  1

  0
ENDBLK
  5
21
100
AcDbEntity
  8
0
100
AcDbBlockEnd
  0
BLOCK
  5
1C
100
AcDbEntity
  8
0
100
AcDbBlockBegin
  2
*Paper_Space
 70
0
 10
0.0
 20
0.0
 30
0.0
  3
*Paper_Space
  1

  0
ENDBLK
  5
1D
100
AcDbEntity
  8
0
100
AcDbBlockEnd
  0
BLOCK
  5
214
100
AcDbEntity
  8
0
100
AcDbBlockBegin
  2
_FILLED
 70
64
 10
0.0
 20
0.0
  3
_FILLED
  1

  0
SOLID
  5
215
100
AcDbEntity
  8
0
  6
BYBLOCK
 62
0
100
AcDbTrace
 10
0.0
 20
0.0
 11
-1.0
 21
0.25
 12
-1.0
 22
-0.25
 13
-1.0
 23
-0.25
  0
ENDBLK
  5
216
100
AcDbEntity
  8
0
  6
BYBLOCK
 62
0
100
AcDbBlockEnd
  0
ENDSEC
  0
SECTION
  2
ENTITIES
  0
LINE
  5
217
100
AcDbEntity
  8
0
100
AcDbLine
 62
7
  6
BYLAYER
 10
11.2320937201
 20
82.0931372549
 11
11.1643812856
 21
81.9431372549
  0
LINE
  5
218
100
AcDbEntity
  8
0
100
AcDbLine
 62
7
  6
BYLAYER
 10
11.2320937201
 20
53.6931372549
 11
11.1643812856
 21
53.8431372549
  0
LINE
  5
219
100
AcDbEntity
  8
0
100
AcDbLine
 62
7
  6
BYLAYER
 10
11.1643812856
 20
53.8431408743
 11
11.1643812856
 21
81.9431560028
  0
LINE
  5
21A
100
AcDbEntity
  8
0
100
AcDbLine
 62
7
  6
BYLAYER
 10
11.3643812856
 20
53.6931372549
 11
11.3643812856
 21
82.0931372549
  0
LINE
  5
21B
100
AcDbEntity
  8
0
100
AcDbLine
 62
7
  6
BYLAYER
 10
17.6643812856
 20
53.6431406801
 11
17.6643812856
 21
53.6931372549
  0
LINE
  5
21C
100
AcDbEntity
  8
0
100
AcDbLine
 62
7
  6
BYLAYER
 10
17.6643812856
 20
82.0931372549
 11
17.6643812856
 21
82.1431338297
  0
LINE
  5
21D
100
AcDbEntity
  8
0
100
AcDbLine
 62
7
  6
BYLAYER
 10
24.1643812856
 20
82.3931372549
 11
24.6643812856
 21
82.8931372549
  0
LINE
  5
21E
100
AcDbEntity
  8
0
100
AcDbLine
 62
7
  6
BYLAYER
 10
24.1643812856
 20
53.3931372549
 11
24.6643812856
 21
52.8931372549
  0
LINE
  5
21F
100
AcDbEntity
  8
0
100
AcDbLine
 62
7
  6
BYLAYER
 10
24.1643812856
 20
53.3929521582
 11
24.1643812856
 21
82.3929910487
  0
LINE
  5
220
100
AcDbEntity
  8
0
100
AcDbLine
 62
7
  6
BYLAYER
 10
24.6643812856
 20
52.8931372549
 11
24.6643812856
 21
82.8931372549
  0
LINE
  5
221
100
AcDbEntity
  8
0
100
AcDbLine
 62
7
  6
BYLAYER
 10
28.1643812856
 20
85.8931372549
 11
28.8323633557
 21
88.386080279
  0
LINE
  5
222
100
AcDbEntity
  8
0
100
AcDbLine
 62
7
  6
BYLAYER
 10
28.1643812856
 20
49.8931372549
 11
28.8323633557
 21
47.4001942308
  0
LINE
  5
223
100
AcDbEntity
  8
0
100
AcDbLine
 62
7
  6
BYLAYER
 10
28.1643812856
 20
49.8931433274
 11
28.1643812856
 21
85.8931311824
  0
LINE
  5
224
100
AcDbEntity
  8
0
100
AcDbLine
 62
7
  6
BYLAYER
 10
31.4840114991
 20
47.3585275641
 11
28.844751048
 21
47.3585275641
  0
LINE
  5
225
100
AcDbEntity
  8
0
100
AcDbLine
 62
7
  6
BYLAYER
 10
38.8447510432
 20
47.3585275641
 11
41.484011528
 21
47.3585275641
  0
LINE
  5
226
100
AcDbEntity
  8
0
100
AcDbLine
 62
7
  6
BYLAYER
 10
31.5096207035
 20
47.4585275641
 11
28.8191418677
 21
47.4585275641
  0
LINE
  5
227
100
AcDbEntity
  8
0
100
AcDbLine
 62
7
  6
BYLAYER
 10
38.819141876
 20
47.4585275641
 11
41.5096207047
 21
47.4585275641
  0
LINE
  5
228
100
AcDbEntity
  8
0
100
AcDbLine
 62
7
  6
BYLAYER
 10
32.1643812856
 20
85.8931311824
 11
32.1643812856
 21
49.8931433274
  0
LINE
  5
229
100
AcDbEntity
  8
0
100
AcDbLine
 62
7
  6
BYLAYER
 10
37.9643812856
 20
51.6417270934
 11
38.1643812856
 21
51.5881372549
  0
LINE
  5
22A
100
AcDbEntity
  8
0
100
AcDbLine
 62
7
  6
BYLAYER
 10
32.8643812856
 20
84.0028153771
 11
32.8643812856
 21
83.6797075902
  0
LINE
  5
22B
100
AcDbEntity
  8
0
100
AcDbLine
 62
7
  6
BYLAYER
 10
32.8643812856
 20
83.6712490794
 11
32.8643812856
 21
83.4212784784
  0
LINE
  5
22C
100
AcDbEntity
  8
0
100
AcDbLine
 62
7
  6
BYLAYER
 10
32.8643812856
 20
83.3244818838
 11
32.8643812856
 21
83.0446708357
  0
LINE
  5
22D
100
AcDbEntity
  8
0
100
AcDbLine
 62
7
  6
BYLAYER
 10
32.8643812856
 20
82.8602728379
 11
32.8643812856
 21
82.5527508738
  0
LINE
  5
22E
100
AcDbEntity
  8
0
100
AcDbLine
 62
7
  6
BYLAYER
 10
32.8643812856
 20
82.2821548528
 11
32.8643812856
 21
81.9492624005
  0
LINE
  5
22F
100
AcDbEntity
  8
0
100
AcDbLine
 62
7
  6
BYLAYER
 10
32.8643812856
 20
81.5945277555
 11
32.8643812856
 21
81.2387983275
  0
LINE
  5
230
100
AcDbEntity
  8
0
100
AcDbLine
 62
7
  6
BYLAYER
 10
32.8643812856
 20
80.8026248034
 11
32.8643812856
 21
80.4267657154
  0
LINE
  5
231
100
AcDbEntity
  8
0
100
AcDbLine
 62
7
  6
BYLAYER
 10
32.8643812856
 20
79.912472856
 11
32.8643812856
 21
79.5193446227
  0
LINE
  5
232
100
AcDbEntity
  8
0
100
AcDbLine
 62
7
  6
BYLAYER
 10
32.8643812856
 20
78.9308465073
 11
32.8643812856
 21
78.5234410719
  0
LINE
  5
233
100
AcDbEntity
  8
0
100
AcDbLine
 62
7
  6
BYLAYER
 10
32.8643812856
 20
77.8652165264
 11
32.8643812856
 21
77.4466344902
  0
LINE
  5
234
100
AcDbEntity
  8
0
100
AcDbLine
 62
7
  6
BYLAYER
 10
32.8643812856
 20
76.7236930009
 11
32.8643812856
 21
76.2971200261
  0
LINE
  5
235
100
AcDbEntity
  8
0
100
AcDbLine
 62
7
  6
BYLAYER
 10
32.8643812856
 20
75.5149636141
 11
32.8643812856
 21
75.0836461785
  0
LINE
  5
236
100
AcDbEntity
  8
0
100
AcDbLine
 62
7
  6
BYLAYER
 10
32.8643812856
 20
74.2482275266
 11
32.8643812856
 21
73.8154482163
  0
LINE
  5
237
100
AcDbEntity
  8
0
100
AcDbLine
 62
7
  6
BYLAYER
 10
32.8643812856
 20
72.9331253648
 11
32.8643812856
 21
72.5021778918
  0
LINE
  5
238
100
AcDbEntity
  8
0
100
AcDbLine
 62
7
  6
BYLAYER
 10
32.8643812856
 20
71.5796658502
 11
32.8643812856
 21
71.1538299849
  0
LINE
  5
239
100
AcDbEntity
  8
0
100
AcDbLine
 62
7
  6
BYLAYER
 10
32.8643812856
 20
70.1981496271
 11
32.8643812856
 21
69.7806662376
  0
LINE
  5
23A
100
AcDbEntity
  8
0
100
AcDbLine
 62
7
  6
BYLAYER
 10
32.8643812856
 20
68.799090868
 11
32.8643812856
 21
68.3931372549
  0
LINE
  5
23B
100
AcDbEntity
  8
0
100
AcDbLine
 62
7
  6
BYLAYER
 10
32.8643812856
 20
67.3931372549
 11
32.8643812856
 21
66.9871836418
  0
LINE
  5
23C
100
AcDbEntity
  8
0
100
AcDbLine
 62
7
  6
BYLAYER
 10
32.8643812856
 20
66.0056082722
 11
32.8643812856
 21
65.5881248827
  0
LINE
  5
23D
100
AcDbEntity
  8
0
100
AcDbLine
 62
7
  6
BYLAYER
 10
32.8643812856
 20
64.6324445249
 11
32.8643812856
 21
64.2066086596
  0
LINE
  5
23E
100
AcDbEntity
  8
0
100
AcDbLine
 62
7
  6
BYLAYER
 10
32.8643812856
 20
63.284096618
 11
32.8643812856
 21
62.853149145
  0
LINE
  5
23F
100
AcDbEntity
  8
0
100
AcDbLine
 62
7
  6
BYLAYER
 10
32.8643812856
 20
61.9708262934
 11
32.8643812856
 21
61.5380469832
  0
LINE
  5
240
100
AcDbEntity
  8
0
100
AcDbLine
 62
7
  6
BYLAYER
 10
32.8643812856
 20
60.7026283312
 11
32.8643812856
 21
60.2713108957
  0
LINE
  5
241
100
AcDbEntity
  8
0
100
AcDbLine
 62
7
  6
BYLAYER
 10
32.8643812856
 20
59.4891544837
 11
32.8643812856
 21
59.0625815089
  0
LINE
  5
242
100
AcDbEntity
  8
0
100
AcDbLine
 62
7
  6
BYLAYER
 10
32.8643812856
 20
58.3396400196
 11
32.8643812856
 21
57.9210579834
  0
LINE
  5
243
100
AcDbEntity
  8
0
100
AcDbLine
 62
7
  6
BYLAYER
 10
32.8643812856
 20
57.2628334379
 11
32.8643812856
 21
56.8554280025
  0
LINE
  5
244
100
AcDbEntity
  8
0
100
AcDbLine
 62
7
  6
BYLAYER
 10
32.8643812856
 20
56.2669298871
 11
32.8643812856
 21
55.8738016538
  0
LINE
  5
245
100
AcDbEntity
  8
0
100
AcDbLine
 62
7
  6
BYLAYER
 10
32.8643812856
 20
55.3595087944
 11
32.8643812856
 21
54.9836497064
  0
LINE
  5
246
100
AcDbEntity
  8
0
100
AcDbLine
 62
7
  6
BYLAYER
 10
32.8643812856
 20
54.5474761823
 11
32.8643812856
 21
54.1917467543
  0
LINE
  5
247
100
AcDbEntity
  8
0
100
AcDbLine
 62
7
  6
BYLAYER
 10
32.8643812856
 20
53.8370121093
 11
32.8643812856
 21
53.5041196569
  0
LINE
  5
248
100
AcDbEntity
  8
0
100
AcDbLine
 62
7
  6
BYLAYER
 10
32.8643812856
 20
53.233523636
 11
32.8643812856
 21
52.9260016719
  0
LINE
  5
249
100
AcDbEntity
  8
0
100
AcDbLine
 62
7
  6
BYLAYER
 10
32.8643812856
 20
52.741603674
 11
32.8643812856
 21
52.461792626
  0
LINE
  5
24A
100
AcDbEntity
  8
0
100
AcDbLine
 62
7
  6
BYLAYER
 10
32.8643812856
 20
52.3649960314
 11
32.8643812856
 21
52.1150254304
  0
LINE
  5
24B
100
AcDbEntity
  8
0
100
AcDbLine
 62
7
  6
BYLAYER
 10
32.8643812856
 20
52.1065669196
 11
32.8643812856
 21
51.7834591327
  0
LINE
  5
24C
100
AcDbEntity
  8
0
100
AcDbLine
 62
7
  6
BYLAYER
 10
38.1643812856
 20
85.8931372549
 11
38.8323633557
 21
88.386080279
  0
LINE
  5
24D
100
AcDbEntity
  8
0
100
AcDbLine
 62
7
  6
BYLAYER
 10
24.6643812856
 20
52.8931372549
 11
28.1643812856
 21
52.8931372549
  0
LINE
  5
24E
100
AcDbEntity
  8
0
100
AcDbLine
 62
7
  6
BYLAYER
 10
32.8112167869
 20
52.8931372549
 11
37.5175441429
 21
52.8931372549
  0
LINE
  5
24F
100
AcDbEntity
  8
0
100
AcDbLine
 62
7
  6
BYLAYER
 10
42.1643812856
 20
52.8931372549
 11
64.5143812856
 21
52.8931372549
  0
LINE
  5
250
100
AcDbEntity
  8
0
100
AcDbLine
 62
7
  6
BYLAYER
 10
17.6643812856
 20
53.6431372549
 11
24.1643812856
 21
53.6431372549
  0
LINE
  5
251
100
AcDbEntity
  8
0
100
AcDbLine
 62
7
  6
BYLAYER
 10
65.2643812856
 20
53.6431372549
 11
68.9643812856
 21
53.6431372549
  0
LINE
  5
252
100
AcDbEntity
  8
0
100
AcDbLine
 62
7
  6
BYLAYER
 10
69.0643812856
 20
53.6431372549
 11
71.8643812856
 21
53.6431372549
  0
LINE
  5
253
100
AcDbEntity
  8
0
100
AcDbLine
 62
7
  6
BYLAYER
 10
11.2320925441
 20
53.6931372549
 11
17.6643812856
 21
53.6931372549
  0
LINE
  5
254
100
AcDbEntity
  8
0
100
AcDbLine
 62
7
  6
BYLAYER
 10
68.9643812856
 20
53.6931372549
 11
69.0643812856
 21
53.6931372549
  0
LINE
  5
255
100
AcDbEntity
  8
0
100
AcDbLine
 62
7
  6
BYLAYER
 10
38.1643812856
 20
49.8931372549
 11
38.8323633557
 21
47.4001942308
  0
LINE
  5
256
100
AcDbEntity
  8
0
100
AcDbLine
 62
7
  6
BYLAYER
 10
37.4643812856
 20
51.7834591327
 11
37.4643812856
 21
52.1065669196
  0
LINE
  5
257
100
AcDbEntity
  8
0
100
AcDbLine
 62
7
  6
BYLAYER
 10
37.4643812856
 20
52.1150254304
 11
37.4643812856
 21
52.3649960314
  0
LINE
  5
258
100
AcDbEntity
  8
0
100
AcDbLine
 62
7
  6
BYLAYER
 10
37.4643812856
 20
52.461792626
 11
37.4643812856
 21
52.741603674
  0
LINE
  5
259
100
AcDbEntity
  8
0
100
AcDbLine
 62
7
  6
BYLAYER
 10
37.4643812856
 20
52.9260016719
 11
37.4643812856
 21
53.233523636
  0
LINE
  5
25A
100
AcDbEntity
  8
0
100
AcDbLine
 62
7
  6
BYLAYER
 10
37.4643812856
 20
53.5041196569
 11
37.4643812856
 21
53.8370121093
  0
LINE
  5
25B
100
AcDbEntity
  8
0
100
AcDbLine
 62
7
  6
BYLAYER
 10
37.4643812856
 20
54.1917467543
 11
37.4643812856
 21
54.5474761823
  0
LINE
  5
25C
100
AcDbEntity
  8
0
100
AcDbLine
 62
7
  6
BYLAYER
 10
37.4643812856
 20
54.9836497064
 11
37.4643812856
 21
55.3595087944
  0
LINE
  5
25D
100
AcDbEntity
  8
0
100
AcDbLine
 62
7
  6
BYLAYER
 10
37.4643812856
 20
55.8738016538
 11
37.4643812856
 21
56.2669298871
  0
LINE
  5
25E
100
AcDbEntity
  8
0
100
AcDbLine
 62
7
  6
BYLAYER
 10
37.4643812856
 20
56.8554280025
 11
37.4643812856
 21
57.2628334379
  0
LINE
  5
25F
100
AcDbEntity
  8
0
100
AcDbLine
 62
7
  6
BYLAYER
 10
37.4643812856
 20
57.9210579834
 11
37.4643812856
 21
58.3396400196
  0
LINE
  5
260
100
AcDbEntity
  8
0
100
AcDbLine
 62
7
  6
BYLAYER
 10
37.4643812856
 20
59.0625815089
 11
37.4643812856
 21
59.4891544837
  0
LINE
  5
261
100
AcDbEntity
  8
0
100
AcDbLine
 62
7
  6
BYLAYER
 10
37.4643812856
 20
60.2713108957
 11
37.4643812856
 21
60.7026283312
  0
LINE
  5
262
100
AcDbEntity
  8
0
100
AcDbLine
 62
7
  6
BYLAYER
 10
37.4643812856
 20
61.5380469832
 11
37.4643812856
 21
61.9708262934
  0
LINE
  5
263
100
AcDbEntity
  8
0
100
AcDbLine
 62
7
  6
BYLAYER
 10
37.4643812856
 20
62.853149145
 11
37.4643812856
 21
63.284096618
  0
LINE
  5
264
100
AcDbEntity
  8
0
100
AcDbLine
 62
7
  6
BYLAYER
 10
37.4643812856
 20
64.2066086596
 11
37.4643812856
 21
64.6324445249
  0
LINE
  5
265
100
AcDbEntity
  8
0
100
AcDbLine
 62
7
  6
BYLAYER
 10
37.4643812856
 20
65.5881248827
 11
37.4643812856
 21
66.0056082722
  0
LINE
  5
266
100
AcDbEntity
  8
0
100
AcDbLine
 62
7
  6
BYLAYER
 10
37.4643812856
 20
66.9871836418
 11
37.4643812856
 21
67.3931372549
  0
LINE
  5
267
100
AcDbEntity
  8
0
100
AcDbLine
 62
7
  6
BYLAYER
 10
37.4643812856
 20
68.3931372549
 11
37.4643812856
 21
68.799090868
  0
LINE
  5
268
100
AcDbEntity
  8
0
100
AcDbLine
 62
7
  6
BYLAYER
 10
37.4643812856
 20
69.7806662376
 11
37.4643812856
 21
70.1981496271
  0
LINE
  5
269
100
AcDbEntity
  8
0
100
AcDbLine
 62
7
  6
BYLAYER
 10
37.4643812856
 20
71.1538299849
 11
37.4643812856
 21
71.5796658502
  0
LINE
  5
26A
100
AcDbEntity
  8
0
100
AcDbLine
 62
7
  6
BYLAYER
 10
37.4643812856
 20
72.5021778918
 11
37.4643812856
 21
72.9331253648
  0
LINE
  5
26B
100
AcDbEntity
  8
0
100
AcDbLine
 62
7
  6
BYLAYER
 10
37.4643812856
 20
73.8154482163
 11
37.4643812856
 21
74.2482275266
  0
LINE
  5
26C
100
AcDbEntity
  8
0
100
AcDbLine
 62
7
  6
BYLAYER
 10
37.4643812856
 20
75.0836461785
 11
37.4643812856
 21
75.5149636141
  0
LINE
  5
26D
100
AcDbEntity
  8
0
100
AcDbLine
 62
7
  6
BYLAYER
 10
37.4643812856
 20
76.2971200261
 11
37.4643812856
 21
76.7236930009
  0
LINE
  5
26E
100
AcDbEntity
  8
0
100
AcDbLine
 62
7
  6
BYLAYER
 10
37.4643812856
 20
77.4466344902
 11
37.4643812856
 21
77.8652165264
  0
LINE
  5
26F
100
AcDbEntity
  8
0
100
AcDbLine
 62
7
  6
BYLAYER
 10
37.4643812856
 20
78.5234410719
 11
37.4643812856
 21
78.9308465073
  0
LINE
  5
270
100
AcDbEntity
  8
0
100
AcDbLine
 62
7
  6
BYLAYER
 10
37.4643812856
 20
79.5193446227
 11
37.4643812856
 21
79.912472856
  0
LINE
  5
271
100
AcDbEntity
  8
0
100
AcDbLine
 62
7
  6
BYLAYER
 10
37.4643812856
 20
80.4267657154
 11
37.4643812856
 21
80.8026248034
  0
LINE
  5
272
100
AcDbEntity
  8
0
100
AcDbLine
 62
7
  6
BYLAYER
 10
37.4643812856
 20
81.2387983275
 11
37.4643812856
 21
81.5945277555
  0
LINE
  5
273
100
AcDbEntity
  8
0
100
AcDbLine
 62
7
  6
BYLAYER
 10
37.4643812856
 20
81.9492624005
 11
37.4643812856
 21
82.2821548528
  0
LINE
  5
274
100
AcDbEntity
  8
0
100
AcDbLine
 62
7
  6
BYLAYER
 10
37.4643812856
 20
82.5527508738
 11
37.4643812856
 21
82.8602728379
  0
LINE
  5
275
100
AcDbEntity
  8
0
100
AcDbLine
 62
7
  6
BYLAYER
 10
37.4643812856
 20
83.0446708357
 11
37.4643812856
 21
83.3244818838
  0
LINE
  5
276
100
AcDbEntity
  8
0
100
AcDbLine
 62
7
  6
BYLAYER
 10
37.4643812856
 20
83.4212784784
 11
37.4643812856
 21
83.6712490794
  0
LINE
  5
277
100
AcDbEntity
  8
0
100
AcDbLine
 62
7
  6
BYLAYER
 10
37.4643812856
 20
83.6797075902
 11
37.4643812856
 21
84.0028153771
  0
LINE
  5
278
100
AcDbEntity
  8
0
100
AcDbLine
 62
7
  6
BYLAYER
 10
32.1643812856
 20
49.8931372549
 11
31.4963992155
 21
47.4001942308
  0
LINE
  5
279
100
AcDbEntity
  8
0
100
AcDbLine
 62
7
  6
BYLAYER
 10
32.8643812856
 20
68.3931372549
 11
32.3643812856
 21
67.8931372549
  0
LINE
  5
27A
100
AcDbEntity
  8
0
100
AcDbLine
 62
7
  6
BYLAYER
 10
32.3643812856
 20
51.6417270934
 11
32.1643812856
 21
51.5881372549
  0
LINE
  5
27B
100
AcDbEntity
  8
0
100
AcDbLine
 62
7
  6
BYLAYER
 10
32.8643812856
 20
67.3931372549
 11
32.3643812856
 21
67.8931372549
  0
LINE
  5
27C
100
AcDbEntity
  8
0
100
AcDbLine
 62
7
  6
BYLAYER
 10
32.1643812856
 20
85.8931372549
 11
31.4963992155
 21
88.386080279
  0
LINE
  5
27D
100
AcDbEntity
  8
0
100
AcDbLine
 62
7
  6
BYLAYER
 10
38.1643812856
 20
49.8931433274
 11
38.1643812856
 21
85.8931311824
  0
LINE
  5
27E
100
AcDbEntity
  8
0
100
AcDbLine
 62
7
  6
BYLAYER
 10
75.2643812856
 20
61.7073835932
 11
72.2296516501
 21
61.1722788793
  0
LINE
  5
27F
100
AcDbEntity
  8
0
100
AcDbLine
 62
7
  6
BYLAYER
 10
31.5096207138
 20
57.1508324095
 11
28.8191418003
 21
57.1508324095
  0
LINE
  5
280
100
AcDbEntity
  8
0
100
AcDbLine
 62
7
  6
BYLAYER
 10
38.8191418079
 20
57.1508324095
 11
41.5096207634
 21
57.1508324095
  0
LINE
  5
281
100
AcDbEntity
  8
0
100
AcDbLine
 62
7
  6
BYLAYER
 10
31.4840115082
 20
58.0008324095
 11
28.844751063
 21
58.0008324095
  0
LINE
  5
282
100
AcDbEntity
  8
0
100
AcDbLine
 62
7
  6
BYLAYER
 10
38.8447510761
 20
58.0008324095
 11
41.4840115061
 21
58.0008324095
  0
LINE
  5
283
100
AcDbEntity
  8
0
100
AcDbLine
 62
7
  6
BYLAYER
 10
42.1643812856
 20
85.8931311824
 11
42.1643812856
 21
49.8931433274
  0
LINE
  5
284
100
AcDbEntity
  8
0
100
AcDbLine
 62
7
  6
BYLAYER
 10
37.4643812856
 20
67.3931372549
 11
37.9643812856
 21
67.8931372549
  0
LINE
  5
285
100
AcDbEntity
  8
0
100
AcDbLine
 62
7
  6
BYLAYER
 10
77.0748484768
 20
62.850713124
 11
75.2643812856
 21
62.755830559
  0
LINE
  5
286
100
AcDbEntity
  8
0
100
AcDbLine
 62
7
  6
BYLAYER
 10
37.4643812856
 20
68.3931372549
 11
37.9643812856
 21
67.8931372549
  0
LINE
  5
287
100
AcDbEntity
  8
0
100
AcDbLine
 62
7
  6
BYLAYER
 10
87.2643812856
 20
63.25583052
 11
77.2643812856
 21
63.25583052
  0
LINE
  5
288
100
AcDbEntity
  8
0
100
AcDbLine
 62
7
  6
BYLAYER
 10
87.2643812856
 20
65.25583052
 11
77.2643812856
 21
65.25583052
  0
LINE
  5
289
100
AcDbEntity
  8
0
100
AcDbLine
 62
7
  6
BYLAYER
 10
42.1643812856
 20
49.8931372549
 11
41.4963992155
 21
47.4001942308
  0
LINE
  5
28A
100
AcDbEntity
  8
0
100
AcDbLine
 62
7
  6
BYLAYER
 10
77.0748484768
 20
65.660947994
 11
75.2643812856
 21
65.755830559
  0
LINE
  5
28B
100
AcDbEntity
  8
0
100
AcDbLine
 62
7
  6
BYLAYER
 10
42.1643812856
 20
85.8931372549
 11
41.4963992155
 21
88.386080279
  0
LINE
  5
28C
100
AcDbEntity
  8
0
100
AcDbLine
 62
7
  6
BYLAYER
 10
31.4840114951
 20
77.7854421003
 11
28.8447510651
 21
77.7854421003
  0
LINE
  5
28D
100
AcDbEntity
  8
0
100
AcDbLine
 62
7
  6
BYLAYER
 10
38.844751063
 20
77.7854421003
 11
41.4840115082
 21
77.7854421003
  0
LINE
  5
28E
100
AcDbEntity
  8
0
100
AcDbLine
 62
7
  6
BYLAYER
 10
31.5096207035
 20
78.6354421003
 11
28.8191418677
 21
78.6354421003
  0
LINE
  5
28F
100
AcDbEntity
  8
0
100
AcDbLine
 62
7
  6
BYLAYER
 10
38.819141876
 20
78.6354421003
 11
41.5096207047
 21
78.6354421003
  0
LINE
  5
290
100
AcDbEntity
  8
0
100
AcDbLine
 62
7
  6
BYLAYER
 10
75.2643812856
 20
74.0788909166
 11
72.2296516501
 21
74.6139956305
  0
LINE
  5
291
100
AcDbEntity
  8
0
100
AcDbLine
 62
7
  6
BYLAYER
 10
32.3643812856
 20
84.1445474164
 11
32.1643812856
 21
84.1981372549
  0
LINE
  5
292
100
AcDbEntity
  8
0
100
AcDbLine
 62
7
  6
BYLAYER
 10
11.2320925441
 20
82.0931372549
 11
17.6643812856
 21
82.0931372549
  0
LINE
  5
293
100
AcDbEntity
  8
0
100
AcDbLine
 62
7
  6
BYLAYER
 10
68.9643812856
 20
82.0931372549
 11
69.0643812856
 21
82.0931372549
  0
LINE
  5
294
100
AcDbEntity
  8
0
100
AcDbLine
 62
7
  6
BYLAYER
 10
17.6643812856
 20
82.1431372549
 11
24.1643812856
 21
82.1431372549
  0
LINE
  5
295
100
AcDbEntity
  8
0
100
AcDbLine
 62
7
  6
BYLAYER
 10
65.2643812856
 20
82.1431372549
 11
68.9643812856
 21
82.1431372549
  0
LINE
  5
296
100
AcDbEntity
  8
0
100
AcDbLine
 62
7
  6
BYLAYER
 10
69.0643812856
 20
82.1431372549
 11
71.8643812856
 21
82.1431372549
  0
LINE
  5
297
100
AcDbEntity
  8
0
100
AcDbLine
 62
7
  6
BYLAYER
 10
64.5143812856
 20
82.8931372549
 11
64.5143812856
 21
52.8931372549
  0
LINE
  5
298
100
AcDbEntity
  8
0
100
AcDbLine
 62
7
  6
BYLAYER
 10
65.2643812856
 20
53.6431372549
 11
65.2643812856
 21
82.1431372549
  0
LINE
  5
299
100
AcDbEntity
  8
0
100
AcDbLine
 62
7
  6
BYLAYER
 10
24.6643812856
 20
82.8931372549
 11
28.1643812856
 21
82.8931372549
  0
LINE
  5
29A
100
AcDbEntity
  8
0
100
AcDbLine
 62
7
  6
BYLAYER
 10
32.8112184283
 20
82.8931372549
 11
37.5175457844
 21
82.8931372549
  0
LINE
  5
29B
100
AcDbEntity
  8
0
100
AcDbLine
 62
7
  6
BYLAYER
 10
42.1643812856
 20
82.8931372549
 11
64.5143812856
 21
82.8931372549
  0
LINE
  5
29C
100
AcDbEntity
  8
0
100
AcDbLine
 62
7
  6
BYLAYER
 10
68.9643812856
 20
82.1432700738
 11
68.9643812856
 21
53.643004436
  0
LINE
  5
29D
100
AcDbEntity
  8
0
100
AcDbLine
 62
7
  6
BYLAYER
 10
69.0643812856
 20
53.6429570716
 11
69.0643812856
 21
82.143105037
  0
LINE
  5
29E
100
AcDbEntity
  8
0
100
AcDbLine
 62
7
  6
BYLAYER
 10
37.9643812856
 20
84.1445474164
 11
38.1643812856
 21
84.1981372549
  0
LINE
  5
29F
100
AcDbEntity
  8
0
100
AcDbLine
 62
7
  6
BYLAYER
 10
31.5096207138
 20
88.3277469457
 11
28.8191418003
 21
88.3277469457
  0
LINE
  5
2A0
100
AcDbEntity
  8
0
100
AcDbLine
 62
7
  6
BYLAYER
 10
38.8191418079
 20
88.3277469457
 11
41.5096207634
 21
88.3277469457
  0
LINE
  5
2A1
100
AcDbEntity
  8
0
100
AcDbLine
 62
7
  6
BYLAYER
 10
31.4840114973
 20
88.4277469457
 11
28.8447510739
 21
88.4277469457
  0
LINE
  5
2A2
100
AcDbEntity
  8
0
100
AcDbLine
 62
7
  6
BYLAYER
 10
38.8447510791
 20
88.4277469457
 11
41.4840114965
 21
88.4277469457
  0
LINE
  5
2A3
100
AcDbEntity
  8
0
100
AcDbLine
 62
7
  6
BYLAYER
 10
71.8643812856
 20
82.1431372549
 11
71.8643812856
 21
53.6431372549
  0
LINE
  5
2A4
100
AcDbEntity
  8
0
100
AcDbLine
 62
7
  6
BYLAYER
 10
72.0643812856
 20
81.9432673456
 11
72.0643812856
 21
53.8430071642
  0
LINE
  5
2A5
100
AcDbEntity
  8
0
100
AcDbLine
 62
7
  6
BYLAYER
 10
72.2296516501
 20
61.1722788793
 11
72.2296516501
 21
74.6139956305
  0
LINE
  5
2A6
100
AcDbEntity
  8
0
100
AcDbLine
 62
7
  6
BYLAYER
 10
65.2643812856
 20
53.6431372549
 11
64.5143812856
 21
52.8931372549
  0
LINE
  5
2A7
100
AcDbEntity
  8
0
100
AcDbLine
 62
7
  6
BYLAYER
 10
65.2643812856
 20
82.1431372549
 11
64.5143812856
 21
82.8931372549
  0
LINE
  5
2A8
100
AcDbEntity
  8
0
100
AcDbLine
 62
7
  6
BYLAYER
 10
75.2643812856
 20
74.0787353598
 11
75.2643812856
 21
61.7076942222
  0
LINE
  5
2A9
100
AcDbEntity
  8
0
100
AcDbLine
 62
7
  6
BYLAYER
 10
77.0748484768
 20
65.660947994
 11
77.0748484768
 21
62.850713124
  0
LINE
  5
2AA
100
AcDbEntity
  8
0
100
AcDbLine
 62
7
  6
BYLAYER
 10
77.2643812856
 20
65.4610691749
 11
77.2643812856
 21
63.0505879575
  0
LINE
  5
2AB
100
AcDbEntity
  8
0
100
AcDbLine
 62
7
  6
BYLAYER
 10
87.2643812856
 20
65.2556968936
 11
87.2643812856
 21
63.2559641464
  0
ARC
  5
2AC
100
AcDbEntity
  8
0
100
AcDbCircle
 62
7
  6
BYLAYER
 10
-19.6694472158
 20
79.7520030771
 40
51.1912463367
100
AcDbArc
 50
357.7983857631
 51
358.7501905156
  0
ARC
  5
2AD
100
AcDbEntity
  8
0
100
AcDbCircle
 62
7
  6
BYLAYER
 10
89.9982097871
 20
79.7520030771
 40
51.1912463367
100
AcDbArc
 50
181.2498094844
 51
182.2016142369
  0
ARC
  5
2AE
100
AcDbEntity
  8
0
100
AcDbCircle
 62
7
  6
BYLAYER
 10
79.998204928
 20
79.7520029307
 40
51.1912414756
100
AcDbArc
 50
181.2498094392
 51
182.2016142821
  0
ARC
  5
2AF
100
AcDbEntity
  8
0
100
AcDbCircle
 62
7
  6
BYLAYER
 10
-9.6694423566
 20
79.7520029307
 40
51.1912414755
100
AcDbArc
 50
357.7983857179
 51
358.7501905608
  0
ARC
  5
2B0
100
AcDbEntity
  8
0
100
AcDbCircle
 62
7
  6
BYLAYER
 10
89.9981924126
 20
56.034268353
 40
51.1912290934
100
AcDbArc
 50
177.7983815717
 51
178.7501866468
  0
ARC
  5
2B1
100
AcDbEntity
  8
0
100
AcDbCircle
 62
7
  6
BYLAYER
 10
-19.6694298411
 20
56.034268353
 40
51.1912290931
100
AcDbArc
 50
1.2498133532
 51
2.2016184283
  0
ARC
  5
2B2
100
AcDbEntity
  8
0
100
AcDbCircle
 62
7
  6
BYLAYER
 10
79.9981779834
 20
56.0342687878
 40
51.1912146582
100
AcDbArc
 50
177.7983814375
 51
178.750186781
  0
ARC
  5
2B3
100
AcDbEntity
  8
0
100
AcDbCircle
 62
7
  6
BYLAYER
 10
-9.6694154116
 20
56.0342687878
 40
51.1912146576
100
AcDbArc
 50
1.2498132189
 51
2.2016185625
  0
ARC
  5
2B4
100
AcDbEntity
  8
0
100
AcDbCircle
 62
7
  6
BYLAYER
 10
30.7169292239
 20
88.1770132844
 40
0.8070208071
100
AcDbArc
 50
15.0143067487
 51
18.1008453952
  0
ARC
  5
2B5
100
AcDbEntity
  8
0
100
AcDbCircle
 62
7
  6
BYLAYER
 10
29.6118332698
 20
88.177013308
 40
0.807020726
100
AcDbArc
 50
161.8991544861
 51
164.985693442
  0
ARC
  5
2B6
100
AcDbEntity
  8
0
100
AcDbCircle
 62
7
  6
BYLAYER
 10
30.716941245
 20
47.6092569471
 40
0.8070080808
100
AcDbArc
 50
341.899178833
 51
344.9857653943
  0
ARC
  5
2B7
100
AcDbEntity
  8
0
100
AcDbCircle
 62
7
  6
BYLAYER
 10
29.6118211906
 20
47.6092569064
 40
0.8070079392
100
AcDbArc
 50
195.0142343121
 51
198.1008214148
  0
ARC
  5
2B8
100
AcDbEntity
  8
0
100
AcDbCircle
 62
7
  6
BYLAYER
 10
39.6107258659
 20
88.1773324431
 40
0.8058689751
100
AcDbArc
 50
161.8962594869
 51
164.9872216701
  0
ARC
  5
2B9
100
AcDbEntity
  8
0
100
AcDbCircle
 62
7
  6
BYLAYER
 10
40.7180367827
 20
88.1773324666
 40
0.8058688943
100
AcDbArc
 50
15.0127781391
 51
18.1037406318
  0
ARC
  5
2BA
100
AcDbEntity
  8
0
100
AcDbCircle
 62
7
  6
BYLAYER
 10
39.6107138817
 20
47.6089377993
 40
0.8058562873
100
AcDbArc
 50
195.0127061283
 51
198.1037162164
  0
ARC
  5
2BB
100
AcDbEntity
  8
0
100
AcDbCircle
 62
7
  6
BYLAYER
 10
40.7180488248
 20
47.6089377587
 40
0.8058561461
100
AcDbArc
 50
341.8962835358
 51
344.9872941652
  0
ARC
  5
2BC
100
AcDbEntity
  8
0
100
AcDbCircle
 62
7
  6
BYLAYER
 10
39.5731159702
 20
88.1875276243
 40
0.7669018813
100
AcDbArc
 50
164.9950618847
 51
169.4648517367
  0
ARC
  5
2BD
100
AcDbEntity
  8
0
100
AcDbCircle
 62
7
  6
BYLAYER
 10
40.7556484717
 20
47.5987457838
 40
0.766899782
100
AcDbArc
 50
344.9951050524
 51
349.4649062808
  0
ARC
  5
2BE
100
AcDbEntity
  8
0
100
AcDbCircle
 62
7
  6
BYLAYER
 10
30.7576855312
 20
88.187982888
 40
0.7648140853
100
AcDbArc
 50
10.529545098
 51
15.0115516974
  0
ARC
  5
2BF
100
AcDbEntity
  8
0
100
AcDbCircle
 62
7
  6
BYLAYER
 10
29.571075181
 20
47.5982905239
 40
0.7648119981
100
AcDbArc
 50
190.5294905106
 51
195.0115084789
  0
ARC
  5
2C0
100
AcDbEntity
  8
0
100
AcDbCircle
 62
7
  6
BYLAYER
 10
39.5647830053
 20
47.5968575931
 40
0.7583639647
100
AcDbArc
 50
190.5099256443
 51
195.0300629886
  0
ARC
  5
2C1
100
AcDbEntity
  8
0
100
AcDbCircle
 62
7
  6
BYLAYER
 10
40.7639877945
 20
88.1894181109
 40
0.7583557152
100
AcDbArc
 50
10.5099495073
 51
15.0301369243
  0
ARC
  5
2C2
100
AcDbEntity
  8
0
100
AcDbCircle
 62
7
  6
BYLAYER
 10
30.7652407883
 20
47.5965785232
 40
0.7570729988
100
AcDbArc
 50
344.9655714858
 51
349.4934295585
  0
ARC
  5
2C3
100
AcDbEntity
  8
0
100
AcDbCircle
 62
7
  6
BYLAYER
 10
29.5635135659
 20
88.1896971788
 40
0.757064761
100
AcDbArc
 50
164.9654974527
 51
169.4934056986
  0
ARC
  5
2C4
100
AcDbEntity
  8
0
100
AcDbCircle
 62
7
  6
BYLAYER
 10
77.0643812856
 20
65.4612220871
 40
0.2
100
AcDbArc
 50
0.0
 51
87.0
  0
ARC
  5
2C5
100
AcDbEntity
  8
0
100
AcDbCircle
 62
7
  6
BYLAYER
 10
77.0643812856
 20
63.0504390309
 40
0.2
100
AcDbArc
 50
273.0
 51
359.9999999984
  0
ARC
  5
2C6
100
AcDbEntity
  8
0
100
AcDbCircle
 62
7
  6
BYLAYER
 10
72.2643812856
 20
60.9753173287
 40
0.2
100
AcDbArc
 50
100.0
 51
180.0
  0
ARC
  5
2C7
100
AcDbEntity
  8
0
100
AcDbCircle
 62
7
  6
BYLAYER
 10
72.2643812856
 20
74.8109571811
 40
0.2
100
AcDbArc
 50
180.0
 51
260.0
  0
ARC
  5
2C8
100
AcDbEntity
  8
0
100
AcDbCircle
 62
7
  6
BYLAYER
 10
71.8643812856
 20
53.8431372549
 40
0.2
100
AcDbArc
 50
270.0
 51
360.0
  0
ARC
  5
2C9
100
AcDbEntity
  8
0
100
AcDbCircle
 62
7
  6
BYLAYER
 10
71.8643812856
 20
81.9431372549
 40
0.2
100
AcDbArc
 50
0.0
 51
90.0
  0
SPLINE
  5
2CA
100
AcDbEntity
  8
0
100
AcDbSpline
 62
7
  6
BYLAYER
 70
0
 71
3
 72
10
 73
6
 74
0
 42
0.0000001
 43
0.0000001
 44
0.0000000001
 40
0.0
 40
0.0
 40
0.0
 40
0.0
 40
0.5030297696
 40
0.7519753487
 40
1.0
 40
1.0
 40
1.0
 40
1.0
 10
28.8191418665
 20
47.4585275641
 30
0.0
 10
28.6167656518
 20
48.2550670896
 30
0.0
 10
28.3682546719
 20
49.4617071159
 30
0.0
 10
28.1939828848
 20
51.0871880673
 30
0.0
 10
28.1643813714
 20
51.8994567251
 30
0.0
 10
28.1643813141
 20
52.3046775598
 30
0.0
  0
SPLINE
  5
2CB
100
AcDbEntity
  8
0
100
AcDbSpline
 62
7
  6
BYLAYER
 70
0
 71
3
 72
10
 73
6
 74
0
 42
0.0000001
 43
0.0000001
 44
0.0000000001
 40
0.0
 40
0.0
 40
0.0
 40
0.0
 40
0.2500126454
 40
0.5000255705
 40
1.0
 40
1.0
 40
1.0
 40
1.0
 10
28.1643812856
 20
67.8931372549
 30
0.0
 10
28.1643812856
 20
68.7199865831
 30
0.0
 10
28.1950814668
 20
70.3738603573
 30
0.0
 10
28.3754061684
 20
73.6766969783
 30
0.0
 10
28.6331136565
 20
76.1455114476
 30
0.0
 10
28.8447510651
 20
77.7854421003
 30
0.0
  0
SPLINE
  5
2CC
100
AcDbEntity
  8
0
100
AcDbSpline
 62
7
  6
BYLAYER
 70
0
 71
3
 72
10
 73
6
 74
0
 42
0.0000001
 43
0.0000001
 44
0.0000000001
 40
0.0
 40
0.0
 40
0.0
 40
0.0
 40
0.2480247415
 40
0.4969703333
 40
1.0
 40
1.0
 40
1.0
 40
1.0
 10
28.1643813141
 20
52.3046775598
 30
0.0
 10
28.1643812543
 20
52.7098988774
 30
0.0
 10
28.1939910568
 20
53.5221680776
 30
0.0
 10
28.368256811
 20
55.147650641
 30
0.0
 10
28.6167654688
 20
56.3542923848
 30
0.0
 10
28.8191418003
 20
57.1508324095
 30
0.0
  0
SPLINE
  5
2CD
100
AcDbEntity
  8
0
100
AcDbSpline
 62
7
  6
BYLAYER
 70
0
 71
3
 72
10
 73
6
 74
0
 42
0.0000001
 43
0.0000001
 44
0.0000000001
 40
0.0
 40
0.0
 40
0.0
 40
0.0
 40
0.4999744321
 40
0.7499873565
 40
1.0
 40
1.0
 40
1.0
 40
1.0
 10
28.8447510651
 20
58.0008324095
 30
0.0
 10
28.6331136554
 20
59.6407630707
 30
0.0
 10
28.3754061659
 20
62.109577546
 30
0.0
 10
28.1950814709
 20
65.4124141672
 30
0.0
 10
28.1643812856
 20
67.0662879327
 30
0.0
 10
28.1643812856
 20
67.8931372549
 30
0.0
  0
SPLINE
  5
2CE
100
AcDbEntity
  8
0
100
AcDbSpline
 62
7
  6
BYLAYER
 70
0
 71
3
 72
10
 73
6
 74
0
 42
0.0000001
 43
0.0000001
 44
0.0000000001
 40
0.0
 40
0.0
 40
0.0
 40
0.0
 40
0.5030296258
 40
0.7519752992
 40
1.0
 40
1.0
 40
1.0
 40
1.0
 10
31.5096207138
 20
57.1508324095
 30
0.0
 10
31.7119970464
 20
56.3542923988
 30
0.0
 10
31.960498756
 20
55.1476497598
 30
0.0
 10
32.1347803497
 20
53.5221685532
 30
0.0
 10
32.1643813373
 20
52.7098987675
 30
0.0
 10
32.1643812596
 20
52.3046774901
 30
0.0
  0
SPLINE
  5
2CF
100
AcDbEntity
  8
0
100
AcDbSpline
 62
7
  6
BYLAYER
 70
0
 71
3
 72
10
 73
6
 74
0
 42
0.0000001
 43
0.0000001
 44
0.0000000001
 40
0.0
 40
0.0
 40
0.0
 40
0.0
 40
0.2500126433
 40
0.5000255624
 40
1.0
 40
1.0
 40
1.0
 40
1.0
 10
32.1643812856
 20
67.8931372549
 30
0.0
 10
32.1643812856
 20
67.0662879469
 30
0.0
 10
32.1336748993
 20
65.4124143746
 30
0.0
 10
31.9533588381
 20
62.1095774417
 30
0.0
 10
31.6956489044
 20
59.6407630621
 30
0.0
 10
31.4840114951
 20
58.0008324095
 30
0.0
  0
SPLINE
  5
2D0
100
AcDbEntity
  8
0
100
AcDbSpline
 62
7
  6
BYLAYER
 70
0
 71
3
 72
10
 73
6
 74
0
 42
0.0000001
 43
0.0000001
 44
0.0000000001
 40
0.0
 40
0.0
 40
0.0
 40
0.0
 40
0.4999744402
 40
0.7499873586
 40
1.0
 40
1.0
 40
1.0
 40
1.0
 10
31.4840114951
 20
77.7854421003
 30
0.0
 10
31.6956489056
 20
76.145511439
 30
0.0
 10
31.9533588415
 20
73.6766970534
 30
0.0
 10
32.1336748947
 20
70.3738601202
 30
0.0
 10
32.1643812856
 20
68.7199865568
 30
0.0
 10
32.1643812856
 20
67.8931372549
 30
0.0
  0
SPLINE
  5
2D1
100
AcDbEntity
  8
0
100
AcDbSpline
 62
7
  6
BYLAYER
 70
0
 71
3
 72
10
 73
6
 74
0
 42
0.0000001
 43
0.0000001
 44
0.0000000001
 40
0.0
 40
0.0
 40
0.0
 40
0.0
 40
0.2480246942
 40
0.4969703782
 40
1.0
 40
1.0
 40
1.0
 40
1.0
 10
32.1643812596
 20
83.4815920263
 30
0.0
 10
32.1643812168
 20
83.0763711643
 30
0.0
 10
32.1347817612
 20
82.2641021132
 30
0.0
 10
31.9604976914
 20
80.6386227583
 30
0.0
 10
31.7119968302
 20
79.4319813074
 30
0.0
 10
31.5096206953
 20
78.6354421003
 30
0.0
  0
SPLINE
  5
2D2
100
AcDbEntity
  8
0
100
AcDbSpline
 62
7
  6
BYLAYER
 70
0
 71
3
 72
10
 73
6
 74
0
 42
0.0000001
 43
0.0000001
 44
0.0000000001
 40
0.0
 40
0.0
 40
0.0
 40
0.0
 40
0.5030296258
 40
0.7519752992
 40
1.0
 40
1.0
 40
1.0
 40
1.0
 10
31.5096207138
 20
88.3277469457
 30
0.0
 10
31.7119970464
 20
87.531206935
 30
0.0
 10
31.960498756
 20
86.324564296
 30
0.0
 10
32.1347803497
 20
84.6990830893
 30
0.0
 10
32.1643813373
 20
83.8868133037
 30
0.0
 10
32.1643812596
 20
83.4815920263
 30
0.0
  0
SPLINE
  5
2D3
100
AcDbEntity
  8
0
100
AcDbSpline
 62
7
  6
BYLAYER
 70
0
 71
3
 72
10
 73
6
 74
0
 42
0.0000001
 43
0.0000001
 44
0.0000000001
 40
0.0
 40
0.0
 40
0.0
 40
0.0
 40
0.5030297696
 40
0.7519753487
 40
1.0
 40
1.0
 40
1.0
 40
1.0
 10
28.8191418665
 20
78.6354421003
 30
0.0
 10
28.6167656518
 20
79.4319816258
 30
0.0
 10
28.3682546719
 20
80.6386216521
 30
0.0
 10
28.1939828848
 20
82.2641026035
 30
0.0
 10
28.1643813714
 20
83.0763712613
 30
0.0
 10
28.1643813141
 20
83.481592096
 30
0.0
  0
SPLINE
  5
2D4
100
AcDbEntity
  8
0
100
AcDbSpline
 62
7
  6
BYLAYER
 70
0
 71
3
 72
10
 73
6
 74
0
 42
0.0000001
 43
0.0000001
 44
0.0000000001
 40
0.0
 40
0.0
 40
0.0
 40
0.0
 40
0.2480247415
 40
0.4969703333
 40
1.0
 40
1.0
 40
1.0
 40
1.0
 10
28.1643813141
 20
83.481592096
 30
0.0
 10
28.1643812543
 20
83.8868134136
 30
0.0
 10
28.1939910568
 20
84.6990826138
 30
0.0
 10
28.368256811
 20
86.3245651772
 30
0.0
 10
28.6167654688
 20
87.531206921
 30
0.0
 10
28.8191418003
 20
88.3277469457
 30
0.0
  0
SPLINE
  5
2D5
100
AcDbEntity
  8
0
100
AcDbSpline
 62
7
  6
BYLAYER
 70
0
 71
3
 72
10
 73
6
 74
0
 42
0.0000001
 43
0.0000001
 44
0.0000000001
 40
0.0
 40
0.0
 40
0.0
 40
0.0
 40
0.2480246942
 40
0.4969703782
 40
1.0
 40
1.0
 40
1.0
 40
1.0
 10
32.1643812596
 20
52.3046774901
 30
0.0
 10
32.1643812168
 20
51.8994566281
 30
0.0
 10
32.1347817612
 20
51.087187577
 30
0.0
 10
31.9604976915
 20
49.4617082221
 30
0.0
 10
31.7119968302
 20
48.2550667712
 30
0.0
 10
31.5096206953
 20
47.4585275641
 30
0.0
  0
SPLINE
  5
2D6
100
AcDbEntity
  8
0
100
AcDbSpline
 62
7
  6
BYLAYER
 70
0
 71
3
 72
10
 73
6
 74
0
 42
0.0000001
 43
0.0000001
 44
0.0000000001
 40
0.0
 40
0.0
 40
0.0
 40
0.0
 40
0.503029669
 40
0.75197526
 40
1.0
 40
1.0
 40
1.0
 40
1.0
 10
41.5096207709
 20
88.3277469457
 30
0.0
 10
41.7119971034
 20
87.5312069174
 30
0.0
 10
41.9605057618
 20
86.3245651709
 30
0.0
 10
42.134771511
 20
84.6990826072
 30
0.0
 10
42.164381317
 20
83.886813411
 30
0.0
 10
42.1643812571
 20
83.481592096
 30
0.0
  0
SPLINE
  5
2D7
100
AcDbEntity
  8
0
100
AcDbSpline
 62
7
  6
BYLAYER
 70
0
 71
3
 72
10
 73
6
 74
0
 42
0.0000001
 43
0.0000001
 44
0.0000000001
 40
0.0
 40
0.0
 40
0.0
 40
0.0
 40
0.4999744321
 40
0.7499873565
 40
1.0
 40
1.0
 40
1.0
 40
1.0
 10
41.4840115061
 20
77.7854421003
 30
0.0
 10
41.6956489158
 20
76.1455114391
 30
0.0
 10
41.9533564054
 20
73.6766969637
 30
0.0
 10
42.1336811004
 20
70.3738603426
 30
0.0
 10
42.1643812856
 20
68.7199865771
 30
0.0
 10
42.1643812856
 20
67.8931372549
 30
0.0
  0
SPLINE
  5
2D8
100
AcDbEntity
  8
0
100
AcDbSpline
 62
7
  6
BYLAYER
 70
0
 71
3
 72
10
 73
6
 74
0
 42
0.0000001
 43
0.0000001
 44
0.0000000001
 40
0.0
 40
0.0
 40
0.0
 40
0.0
 40
0.2480246533
 40
0.4969702332
 40
1.0
 40
1.0
 40
1.0
 40
1.0
 10
42.1643812571
 20
83.481592096
 30
0.0
 10
42.1643811998
 20
83.0763712582
 30
0.0
 10
42.1347796847
 20
82.2641025958
 30
0.0
 10
41.9605078986
 20
80.6386216443
 30
0.0
 10
41.7119969183
 20
79.4319816213
 30
0.0
 10
41.5096207047
 20
78.6354421003
 30
0.0
  0
SPLINE
  5
2D9
100
AcDbEntity
  8
0
100
AcDbSpline
 62
7
  6
BYLAYER
 70
0
 71
3
 72
10
 73
6
 74
0
 42
0.0000001
 43
0.0000001
 44
0.0000000001
 40
0.0
 40
0.0
 40
0.0
 40
0.0
 40
0.5030296241
 40
0.7519753073
 40
1.0
 40
1.0
 40
1.0
 40
1.0
 10
38.819141876
 20
47.4585275641
 30
0.0
 10
38.6167657401
 20
48.2550667748
 30
0.0
 10
38.3682648776
 20
49.4617082283
 30
0.0
 10
38.1939808136
 20
51.0871875835
 30
0.0
 10
38.1643813544
 20
51.8994566307
 30
0.0
 10
38.1643813116
 20
52.3046774901
 30
0.0
  0
SPLINE
  5
2DA
100
AcDbEntity
  8
0
100
AcDbSpline
 62
7
  6
BYLAYER
 70
0
 71
3
 72
10
 73
6
 74
0
 42
0.0000001
 43
0.0000001
 44
0.0000000001
 40
0.0
 40
0.0
 40
0.0
 40
0.0
 40
0.2480246533
 40
0.4969702332
 40
1.0
 40
1.0
 40
1.0
 40
1.0
 10
42.1643812571
 20
52.3046775598
 30
0.0
 10
42.1643811998
 20
51.899456722
 30
0.0
 10
42.1347796847
 20
51.0871880596
 30
0.0
 10
41.9605078986
 20
49.4617071081
 30
0.0
 10
41.7119969183
 20
48.2550670851
 30
0.0
 10
41.5096207047
 20
47.4585275641
 30
0.0
  0
SPLINE
  5
2DB
100
AcDbEntity
  8
0
100
AcDbSpline
 62
7
  6
BYLAYER
 70
0
 71
3
 72
10
 73
6
 74
0
 42
0.0000001
 43
0.0000001
 44
0.0000000001
 40
0.0
 40
0.0
 40
0.0
 40
0.0
 40
0.503029669
 40
0.75197526
 40
1.0
 40
1.0
 40
1.0
 40
1.0
 10
41.5096207709
 20
57.1508324095
 30
0.0
 10
41.7119971034
 20
56.3542923812
 30
0.0
 10
41.9605057617
 20
55.1476506347
 30
0.0
 10
42.134771511
 20
53.522168071
 30
0.0
 10
42.164381317
 20
52.7098988748
 30
0.0
 10
42.1643812571
 20
52.3046775598
 30
0.0
  0
SPLINE
  5
2DC
100
AcDbEntity
  8
0
100
AcDbSpline
 62
7
  6
BYLAYER
 70
0
 71
3
 72
10
 73
6
 74
0
 42
0.0000001
 43
0.0000001
 44
0.0000000001
 40
0.0
 40
0.0
 40
0.0
 40
0.0
 40
0.2500126454
 40
0.5000255705
 40
1.0
 40
1.0
 40
1.0
 40
1.0
 10
42.1643812856
 20
67.8931372549
 30
0.0
 10
42.1643812856
 20
67.0662879267
 30
0.0
 10
42.1336811044
 20
65.4124141525
 30
0.0
 10
41.9533564029
 20
62.1095775315
 30
0.0
 10
41.6956489147
 20
59.6407630622
 30
0.0
 10
41.4840115061
 20
58.0008324095
 30
0.0
  0
SPLINE
  5
2DD
100
AcDbEntity
  8
0
100
AcDbSpline
 62
7
  6
BYLAYER
 70
0
 71
3
 72
10
 73
6
 74
0
 42
0.0000001
 43
0.0000001
 44
0.0000000001
 40
0.0
 40
0.0
 40
0.0
 40
0.0
 40
0.2480247023
 40
0.4969703765
 40
1.0
 40
1.0
 40
1.0
 40
1.0
 10
38.1643813116
 20
52.3046774901
 30
0.0
 10
38.1643812339
 20
52.7098987701
 30
0.0
 10
38.1939822177
 20
53.5221685598
 30
0.0
 10
38.3682638179
 20
55.147649766
 30
0.0
 10
38.6167655258
 20
56.3542924024
 30
0.0
 10
38.8191418575
 20
57.1508324095
 30
0.0
  0
SPLINE
  5
2DE
100
AcDbEntity
  8
0
100
AcDbSpline
 62
7
  6
BYLAYER
 70
0
 71
3
 72
10
 73
6
 74
0
 42
0.0000001
 43
0.0000001
 44
0.0000000001
 40
0.0
 40
0.0
 40
0.0
 40
0.0
 40
0.4999744402
 40
0.7499873586
 40
1.0
 40
1.0
 40
1.0
 40
1.0
 10
38.8447510761
 20
58.0008324095
 30
0.0
 10
38.6331136657
 20
59.6407630708
 30
0.0
 10
38.3754037298
 20
62.1095774564
 30
0.0
 10
38.1950876766
 20
65.4124143896
 30
0.0
 10
38.1643812856
 20
67.066287953
 30
0.0
 10
38.1643812856
 20
67.8931372549
 30
0.0
  0
SPLINE
  5
2DF
100
AcDbEntity
  8
0
100
AcDbSpline
 62
7
  6
BYLAYER
 70
0
 71
3
 72
10
 73
6
 74
0
 42
0.0000001
 43
0.0000001
 44
0.0000000001
 40
0.0
 40
0.0
 40
0.0
 40
0.0
 40
0.2500126433
 40
0.5000255624
 40
1.0
 40
1.0
 40
1.0
 40
1.0
 10
38.1643812856
 20
67.8931372549
 30
0.0
 10
38.1643812856
 20
68.7199865629
 30
0.0
 10
38.195087672
 20
70.3738601352
 30
0.0
 10
38.3754037331
 20
73.6766970681
 30
0.0
 10
38.6331136668
 20
76.1455114477
 30
0.0
 10
38.8447510761
 20
77.7854421003
 30
0.0
  0
SPLINE
  5
2E0
100
AcDbEntity
  8
0
100
AcDbSpline
 62
7
  6
BYLAYER
 70
0
 71
3
 72
10
 73
6
 74
0
 42
0.0000001
 43
0.0000001
 44
0.0000000001
 40
0.0
 40
0.0
 40
0.0
 40
0.0
 40
0.5030296241
 40
0.7519753073
 40
1.0
 40
1.0
 40
1.0
 40
1.0
 10
38.819141876
 20
78.6354421003
 30
0.0
 10
38.6167657401
 20
79.431981311
 30
0.0
 10
38.3682648776
 20
80.6386227645
 30
0.0
 10
38.1939808136
 20
82.2641021197
 30
0.0
 10
38.1643813544
 20
83.0763711669
 30
0.0
 10
38.1643813116
 20
83.4815920263
 30
0.0
  0
SPLINE
  5
2E1
100
AcDbEntity
  8
0
100
AcDbSpline
 62
7
  6
BYLAYER
 70
0
 71
3
 72
10
 73
6
 74
0
 42
0.0000001
 43
0.0000001
 44
0.0000000001
 40
0.0
 40
0.0
 40
0.0
 40
0.0
 40
0.2480247023
 40
0.4969703765
 40
1.0
 40
1.0
 40
1.0
 40
1.0
 10
38.1643813116
 20
83.4815920263
 30
0.0
 10
38.1643812339
 20
83.8868133063
 30
0.0
 10
38.1939822177
 20
84.699083096
 30
0.0
 10
38.3682638179
 20
86.3245643022
 30
0.0
 10
38.6167655257
 20
87.5312069386
 30
0.0
 10
38.8191418575
 20
88.3277469457
 30
0.0
  0
ELLIPSE
  5
2E2
100
AcDbEntity
  8
0
100
AcDbEllipse
 62
7
  6
BYLAYER
 10
38.9797563702
 20
66.7443894269
 30
0.0
 11
15.791979517
 21
-10.9958379272
 31
0.0
 40
0.818317629
 41
-1.3965536952
 42
-1.3960435217
  0
ELLIPSE
  5
2E3
100
AcDbEntity
  8
0
100
AcDbEllipse
 62
7
  6
BYLAYER
 10
38.9797563702
 20
66.1809521925
 30
0.0
 11
15.6563003942
 21
-12.3580633753
 31
0.0
 40
0.7470541823
 41
4.8970060586
 42
4.9020265797
  0
ELLIPSE
  5
2E4
100
AcDbEntity
  8
0
100
AcDbEllipse
 62
7
  6
BYLAYER
 10
38.9797563702
 20
65.6305457203
 30
0.0
 11
15.7703479229
 21
-13.3023954138
 31
0.0
 40
0.6792721423
 41
4.881095312
 42
4.8895407588
  0
ELLIPSE
  5
2E5
100
AcDbEntity
  8
0
100
AcDbEllipse
 62
7
  6
BYLAYER
 10
38.9797563702
 20
65.0973589359
 30
0.0
 11
15.9844133441
 21
-14.0585338956
 31
0.0
 40
0.6154007239
 41
-1.4290229293
 42
-1.4178485365
  0
ELLIPSE
  5
2E6
100
AcDbEntity
  8
0
100
AcDbEllipse
 62
7
  6
BYLAYER
 10
38.9797563702
 20
64.5854497126
 30
0.0
 11
16.2385436118
 21
-14.7051040421
 31
0.0
 40
0.5552272381
 41
-1.4615012695
 42
-1.4480705033
  0
ELLIPSE
  5
2E7
100
AcDbEntity
  8
0
100
AcDbEllipse
 62
7
  6
BYLAYER
 10
38.9797563702
 20
64.0987139887
 30
0.0
 11
16.5043969512
 21
-15.274965845
 31
0.0
 40
0.4983942514
 41
-1.4971206964
 42
-1.4817673503
  0
ELLIPSE
  5
2E8
100
AcDbEntity
  8
0
100
AcDbEllipse
 62
7
  6
BYLAYER
 10
38.9797563702
 20
63.6408561171
 30
0.0
 11
16.766803626
 21
-15.7835371161
 31
0.0
 40
0.4445239339
 41
-1.5346729672
 42
-1.5176380826
  0
ELLIPSE
  5
2E9
100
AcDbEntity
  8
0
100
AcDbEllipse
 62
7
  6
BYLAYER
 10
38.9797563702
 20
63.2153606725
 30
0.0
 11
17.0168501026
 21
-16.2384907108
 31
0.0
 40
0.3932536107
 41
-1.5734880867
 42
-1.5549485398
  0
ELLIPSE
  5
2EA
100
AcDbEntity
  8
0
100
AcDbEllipse
 62
7
  6
BYLAYER
 10
38.9797563702
 20
62.8254659322
 30
0.0
 11
17.2489119491
 21
-16.6436838349
 31
0.0
 40
0.3442450777
 41
-1.6131670271
 42
-1.5932525833
  0
ELLIPSE
  5
2EB
100
AcDbEntity
  8
0
100
AcDbEllipse
 62
7
  6
BYLAYER
 10
38.9797563702
 20
62.4741392306
 30
0.0
 11
17.4592414022
 21
-17.0009614673
 31
0.0
 40
0.2971852239
 41
-1.6534575031
 42
-1.6322627734
  0
ELLIPSE
  5
2EC
100
AcDbEntity
  8
0
100
AcDbEllipse
 62
7
  6
BYLAYER
 10
38.9797563702
 20
62.1640543761
 30
0.0
 11
17.6452378715
 21
-17.311068251
 31
0.0
 40
0.2517837063
 41
-1.6940323896
 42
-1.6717847557
  0
ELLIPSE
  5
2ED
100
AcDbEntity
  8
0
100
AcDbEllipse
 62
7
  6
BYLAYER
 10
38.9797563702
 20
61.8975713016
 30
0.0
 11
17.8050458869
 21
-17.5741469284
 31
0.0
 40
0.2077697388
 41
-1.735034466
 42
-1.7116814851
  0
ELLIPSE
  5
2EE
100
AcDbEntity
  8
0
100
AcDbEllipse
 62
7
  6
BYLAYER
 10
38.9797563702
 20
61.6767181042
 30
0.0
 11
17.9373217495
 21
-17.7900285404
 31
0.0
 40
0.1648887629
 41
-1.7763537932
 42
-1.7518524984
  0
ELLIPSE
  5
2EF
100
AcDbEntity
  8
0
100
AcDbEllipse
 62
7
  6
BYLAYER
 10
38.9797563702
 20
61.5031756101
 30
0.0
 11
18.0410926156
 21
-17.9584099181
 31
0.0
 40
0.1228992729
 41
-1.8179059513
 42
-1.7922212391
  0
ELLIPSE
  5
2F0
100
AcDbEntity
  8
0
100
AcDbEllipse
 62
7
  6
BYLAYER
 10
38.9797563702
 20
61.3782645825
 30
0.0
 11
18.1156691418
 21
-18.0789658936
 31
0.0
 40
0.0815698667
 41
-1.8596229162
 42
-1.8327268879
  0
ELLIPSE
  5
2F1
100
AcDbEntity
  8
0
100
AcDbEllipse
 62
7
  6
BYLAYER
 10
38.9797563702
 20
61.3029356697
 30
0.0
 11
18.1605909673
 21
-18.1514209571
 31
0.0
 40
0.0406765142
 41
-1.9014465147
 42
-1.8733187897
  0
ELLIPSE
  5
2F2
100
AcDbEntity
  8
0
100
AcDbEllipse
 62
7
  6
BYLAYER
 10
27.6730032699
 20
67.4842567194
 30
0.0
 11
14.9543464083
 21
10.0427045149
 31
0.0
 40
0.9066977799
 41
-1.8464703263
 42
-1.8167011824
  0
ELLIPSE
  5
2F3
100
AcDbEntity
  8
0
100
AcDbEllipse
 62
7
  6
BYLAYER
 10
27.6730032699
 20
67.8931372549
 30
0.0
 11
17.5084611122
 21
-0.0
 31
0.0
 40
0.963433044
 41
-1.2995325731
 42
-1.2697634292
  0
ELLIPSE
  5
2F4
100
AcDbEntity
  8
0
100
AcDbEllipse
 62
7
  6
BYLAYER
 10
27.6730032699
 20
72.5666631609
 30
0.0
 11
17.4929960222
 21
-17.4882083164
 31
0.0
 40
0.0420701413
 41
1.3117972829
 42
1.3415664268
  0
ELLIPSE
  5
2F5
100
AcDbEntity
  8
0
100
AcDbEllipse
 62
7
  6
BYLAYER
 10
27.6730032699
 20
72.5132426971
 30
0.0
 11
17.4466624083
 21
-17.4274961419
 31
0.0
 40
0.0843354388
 41
1.3538077783
 42
1.3835769222
  0
ELLIPSE
  5
2F6
100
AcDbEntity
  8
0
100
AcDbEllipse
 62
7
  6
BYLAYER
 10
27.6730032699
 20
72.4246604412
 30
0.0
 11
17.3696482286
 21
-17.326459176
 31
0.0
 40
0.1269935126
 41
1.3957700171
 42
1.425539161
  0
ELLIPSE
  5
2F7
100
AcDbEntity
  8
0
100
AcDbEllipse
 62
7
  6
BYLAYER
 10
27.6730032699
 20
72.3015905576
 30
0.0
 11
17.2622772411
 21
-17.185307668
 31
0.0
 40
0.1702469903
 41
1.4376558164
 42
1.4674249603
  0
ELLIPSE
  5
2F8
100
AcDbEntity
  8
0
100
AcDbEllipse
 62
7
  6
BYLAYER
 10
27.6730032699
 20
72.1449696825
 30
0.0
 11
17.1250267564
 21
-17.0043043001
 31
0.0
 40
0.2143062114
 41
1.4794315045
 42
1.5092006484
  0
ELLIPSE
  5
2F9
100
AcDbEntity
  8
0
100
AcDbEllipse
 62
7
  6
BYLAYER
 10
27.6730032699
 20
71.9559897953
 30
0.0
 11
16.9585571531
 21
-16.7837266909
 31
0.0
 40
0.2593921815
 41
1.5210548867
 42
1.5508240306
  0
ELLIPSE
  5
2FA
100
AcDbEntity
  8
0
100
AcDbEllipse
 62
7
  6
BYLAYER
 10
27.6730032699
 20
71.736089147
 30
0.0
 11
16.7637596114
 21
-16.523808647
 31
0.0
 40
0.3057398728
 41
1.5624707743
 42
1.5922399181
  0
ELLIPSE
  5
2FB
100
AcDbEntity
  8
0
100
AcDbEllipse
 62
7
  6
BYLAYER
 10
27.6730032699
 20
71.4869413144
 30
0.0
 11
16.5418339295
 21
-16.2246471729
 31
0.0
 40
0.3536019736
 41
1.6036040158
 42
1.6333731597
  0
ELLIPSE
  5
2FC
100
AcDbEntity
  8
0
100
AcDbEllipse
 62
7
  6
BYLAYER
 10
27.6730032699
 20
71.2104424629
 30
0.0
 11
16.2944188981
 21
-15.8860502942
 31
0.0
 40
0.4032531911
 41
1.6443480471
 42
1.674117191
  0
ELLIPSE
  5
2FD
100
AcDbEntity
  8
0
100
AcDbEllipse
 62
7
  6
BYLAYER
 10
27.6730032699
 20
70.9086969158
 30
0.0
 11
16.023819938
 21
-15.507275323
 31
0.0
 40
0.4549951859
 41
1.6845450189
 42
1.7143141628
  0
ELLIPSE
  5
2FE
100
AcDbEntity
  8
0
100
AcDbEllipse
 62
7
  6
BYLAYER
 10
27.6730032699
 20
70.5840011387
 30
0.0
 11
15.7334287619
 21
-15.0865489373
 31
0.0
 40
0.5091621171
 41
1.7239491005
 42
1.7537182443
  0
ELLIPSE
  5
2FF
100
AcDbEntity
  8
0
100
AcDbEllipse
 62
7
  6
BYLAYER
 10
27.6730032699
 20
70.2388262628
 30
0.0
 11
15.4285527016
 21
-14.6201143459
 31
0.0
 40
0.5661264515
 41
1.7621534647
 42
1.7919226086
  0
ELLIPSE
  5
300
100
AcDbEntity
  8
0
100
AcDbEllipse
 62
7
  6
BYLAYER
 10
27.6730032699
 20
69.8757992771
 30
0.0
 11
15.1182070608
 21
-14.1001405585
 31
0.0
 40
0.6263036642
 41
1.7984306655
 42
1.8281998094
  0
ELLIPSE
  5
301
100
AcDbEntity
  8
0
100
AcDbEllipse
 62
7
  6
BYLAYER
 10
27.6730032699
 20
69.4976830362
 30
0.0
 11
14.8194770471
 21
-13.5094930283
 31
0.0
 40
0.6901509118
 41
1.8313373379
 42
1.8611064818
  0
ELLIPSE
  5
302
100
AcDbEntity
  8
0
100
AcDbEllipse
 62
7
  6
BYLAYER
 10
27.6730032699
 20
69.1073552331
 30
0.0
 11
14.5700382847
 21
-12.8060309747
 31
0.0
 40
0.7581403628
 41
1.8575479087
 42
1.8873170525
  0
ELLIPSE
  5
303
100
AcDbEntity
  8
0
100
AcDbEllipse
 62
7
  6
BYLAYER
 10
27.6730032699
 20
68.7077864981
 30
0.0
 11
14.4741311195
 21
-11.8601695234
 31
0.0
 40
0.8306103506
 41
1.8673543145
 42
1.8971234584
  0
ELLIPSE
  5
304
100
AcDbEntity
  8
0
100
AcDbEllipse
 62
7
  6
BYLAYER
 10
27.6730032699
 20
68.3020177904
 30
0.0
 11
14.9543464083
 21
-10.0427045149
 31
0.0
 40
0.9066977799
 41
1.8167011824
 42
1.8464703263
  0
ELLIPSE
  5
305
100
AcDbEntity
  8
0
100
AcDbEllipse
 62
7
  6
BYLAYER
 10
27.6730032699
 20
67.0784880117
 30
0.0
 11
14.4741311195
 21
11.8601695234
 31
0.0
 40
0.8306103506
 41
-1.8971234584
 42
-1.8673543145
  0
ELLIPSE
  5
306
100
AcDbEntity
  8
0
100
AcDbEllipse
 62
7
  6
BYLAYER
 10
27.6730032699
 20
66.6789192767
 30
0.0
 11
14.5700382847
 21
12.8060309747
 31
0.0
 40
0.7581403628
 41
-1.8873170525
 42
-1.8575479087
  0
ELLIPSE
  5
307
100
AcDbEntity
  8
0
100
AcDbEllipse
 62
7
  6
BYLAYER
 10
27.6730032699
 20
66.2885914736
 30
0.0
 11
14.8194770471
 21
13.5094930283
 31
0.0
 40
0.6901509118
 41
-1.8611064818
 42
-1.8313373379
  0
ELLIPSE
  5
308
100
AcDbEntity
  8
0
100
AcDbEllipse
 62
7
  6
BYLAYER
 10
27.6730032699
 20
65.9104752327
 30
0.0
 11
15.1182070608
 21
14.1001405585
 31
0.0
 40
0.6263036642
 41
-1.8281998094
 42
-1.7984306655
  0
ELLIPSE
  5
309
100
AcDbEntity
  8
0
100
AcDbEllipse
 62
7
  6
BYLAYER
 10
27.6730032699
 20
65.547448247
 30
0.0
 11
15.4285527016
 21
14.6201143459
 31
0.0
 40
0.5661264515
 41
-1.7919226086
 42
-1.7621534647
  0
ELLIPSE
  5
30A
100
AcDbEntity
  8
0
100
AcDbEllipse
 62
7
  6
BYLAYER
 10
27.6730032699
 20
65.2022733711
 30
0.0
 11
15.7334287619
 21
15.0865489373
 31
0.0
 40
0.5091621171
 41
-1.7537182443
 42
-1.7239491005
  0
ELLIPSE
  5
30B
100
AcDbEntity
  8
0
100
AcDbEllipse
 62
7
  6
BYLAYER
 10
27.6730032699
 20
64.877577594
 30
0.0
 11
16.023819938
 21
15.507275323
 31
0.0
 40
0.4549951859
 41
-1.7143141628
 42
-1.6845450189
  0
ELLIPSE
  5
30C
100
AcDbEntity
  8
0
100
AcDbEllipse
 62
7
  6
BYLAYER
 10
27.6730032699
 20
64.5758320469
 30
0.0
 11
16.2944188981
 21
15.8860502942
 31
0.0
 40
0.4032531911
 41
-1.674117191
 42
-1.6443480471
  0
ELLIPSE
  5
30D
100
AcDbEntity
  8
0
100
AcDbEllipse
 62
7
  6
BYLAYER
 10
27.6730032699
 20
64.2993331954
 30
0.0
 11
16.5418339295
 21
16.2246471729
 31
0.0
 40
0.3536019736
 41
-1.6333731597
 42
-1.6036040158
  0
ELLIPSE
  5
30E
100
AcDbEntity
  8
0
100
AcDbEllipse
 62
7
  6
BYLAYER
 10
27.6730032699
 20
64.0501853628
 30
0.0
 11
16.7637596114
 21
16.523808647
 31
0.0
 40
0.3057398728
 41
-1.5922399181
 42
-1.5624707743
  0
ELLIPSE
  5
30F
100
AcDbEntity
  8
0
100
AcDbEllipse
 62
7
  6
BYLAYER
 10
27.6730032699
 20
63.8302847145
 30
0.0
 11
16.9585571531
 21
16.7837266909
 31
0.0
 40
0.2593921815
 41
-1.5508240306
 42
-1.5210548867
  0
ELLIPSE
  5
310
100
AcDbEntity
  8
0
100
AcDbEllipse
 62
7
  6
BYLAYER
 10
27.6730032699
 20
63.6413048273
 30
0.0
 11
17.1250267564
 21
17.0043043001
 31
0.0
 40
0.2143062114
 41
-1.5092006484
 42
-1.4794315045
  0
ELLIPSE
  5
311
100
AcDbEntity
  8
0
100
AcDbEllipse
 62
7
  6
BYLAYER
 10
27.6730032699
 20
63.4846839522
 30
0.0
 11
17.2622772411
 21
17.185307668
 31
0.0
 40
0.1702469903
 41
-1.4674249603
 42
-1.4376558164
  0
ELLIPSE
  5
312
100
AcDbEntity
  8
0
100
AcDbEllipse
 62
7
  6
BYLAYER
 10
27.6730032699
 20
63.3616140686
 30
0.0
 11
17.3696482286
 21
17.326459176
 31
0.0
 40
0.1269935126
 41
-1.425539161
 42
-1.3957700171
  0
ELLIPSE
  5
313
100
AcDbEntity
  8
0
100
AcDbEllipse
 62
7
  6
BYLAYER
 10
27.6730032699
 20
63.2730318127
 30
0.0
 11
17.4466624083
 21
17.4274961419
 31
0.0
 40
0.0843354388
 41
-1.3835769222
 42
-1.3538077783
  0
ELLIPSE
  5
314
100
AcDbEntity
  8
0
100
AcDbEllipse
 62
7
  6
BYLAYER
 10
27.6730032699
 20
63.2196113489
 30
0.0
 11
17.4929960222
 21
17.4882083164
 31
0.0
 40
0.0420701413
 41
-1.3415664268
 42
-1.3117972829
  0
ELLIPSE
  5
315
100
AcDbEntity
  8
0
100
AcDbEllipse
 62
7
  6
BYLAYER
 10
38.9797563702
 20
74.4833388401
 30
0.0
 11
18.1605909673
 21
18.1514209571
 31
0.0
 40
0.0406765142
 41
1.8733187897
 42
1.9014465202
  0
ELLIPSE
  5
316
100
AcDbEntity
  8
0
100
AcDbEllipse
 62
7
  6
BYLAYER
 10
38.9797563702
 20
74.4080099273
 30
0.0
 11
18.1156691418
 21
18.0789658936
 31
0.0
 40
0.0815698667
 41
1.8327268879
 42
1.8596229267
  0
ELLIPSE
  5
317
100
AcDbEntity
  8
0
100
AcDbEllipse
 62
7
  6
BYLAYER
 10
38.9797563702
 20
74.2830988997
 30
0.0
 11
18.0410926156
 21
17.9584099181
 31
0.0
 40
0.1228992729
 41
1.7922212391
 42
1.8179059663
  0
ELLIPSE
  5
318
100
AcDbEntity
  8
0
100
AcDbEllipse
 62
7
  6
BYLAYER
 10
38.9797563702
 20
74.1095564056
 30
0.0
 11
17.9373217495
 21
17.7900285404
 31
0.0
 40
0.1648887629
 41
1.7518524984
 42
1.7763538123
  0
ELLIPSE
  5
319
100
AcDbEntity
  8
0
100
AcDbEllipse
 62
7
  6
BYLAYER
 10
38.9797563702
 20
73.8887032082
 30
0.0
 11
17.8050458869
 21
17.5741469284
 31
0.0
 40
0.2077697388
 41
1.7116814851
 42
1.735034489
  0
ELLIPSE
  5
31A
100
AcDbEntity
  8
0
100
AcDbEllipse
 62
7
  6
BYLAYER
 10
27.6730032699
 20
67.8931372549
 30
0.0
 11
17.5084611122
 21
0.0
 31
0.0
 40
0.963433044
 41
7.5529487364
 42
7.5827178802
  0
ELLIPSE
  5
31B
100
AcDbEntity
  8
0
100
AcDbEllipse
 62
7
  6
BYLAYER
 10
38.9797563702
 20
73.6222201337
 30
0.0
 11
17.6452378715
 21
17.311068251
 31
0.0
 40
0.2517837063
 41
1.6717847557
 42
1.694032417
  0
ELLIPSE
  5
31C
100
AcDbEntity
  8
0
100
AcDbEllipse
 62
7
  6
BYLAYER
 10
38.9797563702
 20
69.0418850829
 30
0.0
 11
15.791979517
 21
10.9958379272
 31
0.0
 40
0.818317629
 41
1.3960435217
 42
1.3965536961
  0
ELLIPSE
  5
31D
100
AcDbEntity
  8
0
100
AcDbEllipse
 62
7
  6
BYLAYER
 10
38.9797563702
 20
73.3121352792
 30
0.0
 11
17.4592414022
 21
17.0009614673
 31
0.0
 40
0.2971852239
 41
1.6322627734
 42
1.653457536
  0
ELLIPSE
  5
31E
100
AcDbEntity
  8
0
100
AcDbEllipse
 62
7
  6
BYLAYER
 10
38.9797563702
 20
69.6053223173
 30
0.0
 11
15.6563003942
 21
12.3580633753
 31
0.0
 40
0.7470541823
 41
1.3811587275
 42
1.3861792519
  0
ELLIPSE
  5
31F
100
AcDbEntity
  8
0
100
AcDbEllipse
 62
7
  6
BYLAYER
 10
38.9797563702
 20
70.1557287895
 30
0.0
 11
15.7703479229
 21
13.3023954138
 31
0.0
 40
0.6792721423
 41
1.3936445484
 42
1.4020899947
  0
ELLIPSE
  5
320
100
AcDbEntity
  8
0
100
AcDbEllipse
 62
7
  6
BYLAYER
 10
38.9797563702
 20
72.9608085776
 30
0.0
 11
17.2489119491
 21
16.6436838349
 31
0.0
 40
0.3442450777
 41
1.5932525833
 42
1.6131670491
  0
ELLIPSE
  5
321
100
AcDbEntity
  8
0
100
AcDbEllipse
 62
7
  6
BYLAYER
 10
38.9797563702
 20
70.6889155739
 30
0.0
 11
15.9844133441
 21
14.0585338956
 31
0.0
 40
0.6154007239
 41
1.4178485365
 42
1.4290229277
  0
ELLIPSE
  5
322
100
AcDbEntity
  8
0
100
AcDbEllipse
 62
7
  6
BYLAYER
 10
38.9797563702
 20
72.5709138373
 30
0.0
 11
17.0168501026
 21
16.2384907108
 31
0.0
 40
0.3932536107
 41
1.5549485398
 42
1.5734880833
  0
ELLIPSE
  5
323
100
AcDbEntity
  8
0
100
AcDbEllipse
 62
7
  6
BYLAYER
 10
38.9797563702
 20
71.2008247972
 30
0.0
 11
16.2385436118
 21
14.7051040421
 31
0.0
 40
0.5552272381
 41
1.4480705033
 42
1.4615012691
  0
ELLIPSE
  5
324
100
AcDbEntity
  8
0
100
AcDbEllipse
 62
7
  6
BYLAYER
 10
38.9797563702
 20
72.1454183927
 30
0.0
 11
16.766803626
 21
15.7835371161
 31
0.0
 40
0.4445239339
 41
1.5176380826
 42
1.5346729655
  0
ELLIPSE
  5
325
100
AcDbEntity
  8
0
100
AcDbEllipse
 62
7
  6
BYLAYER
 10
38.9797563702
 20
71.687560521
 30
0.0
 11
16.5043969512
 21
15.274965845
 31
0.0
 40
0.4983942514
 41
1.4817673503
 42
1.4971206958
  0
ELLIPSE
  5
326
100
AcDbEntity
  8
0
100
AcDbEllipse
 62
7
  6
BYLAYER
 10
27.6730032699
 20
63.2196113489
 30
0.0
 11
17.4929960222
 21
17.4882083164
 31
0.0
 40
0.0420701413
 41
1.2277295755
 42
1.2574987193
  0
ELLIPSE
  5
327
100
AcDbEntity
  8
0
100
AcDbEllipse
 62
7
  6
BYLAYER
 10
27.6730032699
 20
63.2730318127
 30
0.0
 11
17.4466624083
 21
17.4274961419
 31
0.0
 40
0.0843354388
 41
1.18571908
 42
1.2154882239
  0
ELLIPSE
  5
328
100
AcDbEntity
  8
0
100
AcDbEllipse
 62
7
  6
BYLAYER
 10
27.6730032699
 20
63.3616140686
 30
0.0
 11
17.3696482286
 21
17.326459176
 31
0.0
 40
0.1269935126
 41
1.1437568412
 42
1.1735259851
  0
ELLIPSE
  5
329
100
AcDbEntity
  8
0
100
AcDbEllipse
 62
7
  6
BYLAYER
 10
27.6730032699
 20
63.4846839522
 30
0.0
 11
17.2622772411
 21
17.185307668
 31
0.0
 40
0.1702469903
 41
1.101871042
 42
1.1316401859
  0
ELLIPSE
  5
32A
100
AcDbEntity
  8
0
100
AcDbEllipse
 62
7
  6
BYLAYER
 10
27.6730032699
 20
63.6413048273
 30
0.0
 11
17.1250267564
 21
17.0043043001
 31
0.0
 40
0.2143062114
 41
1.0600953539
 42
1.0898644977
  0
ELLIPSE
  5
32B
100
AcDbEntity
  8
0
100
AcDbEllipse
 62
7
  6
BYLAYER
 10
27.6730032699
 20
72.5666631609
 30
0.0
 11
17.4929960222
 21
-17.4882083164
 31
0.0
 40
0.0420701413
 41
-1.2574987193
 42
-1.2277295755
  0
ELLIPSE
  5
32C
100
AcDbEntity
  8
0
100
AcDbEllipse
 62
7
  6
BYLAYER
 10
27.6730032699
 20
72.5132426971
 30
0.0
 11
17.4466624083
 21
-17.4274961419
 31
0.0
 40
0.0843354388
 41
-1.2154882239
 42
-1.18571908
  0
ELLIPSE
  5
32D
100
AcDbEntity
  8
0
100
AcDbEllipse
 62
7
  6
BYLAYER
 10
27.6730032699
 20
72.4246604412
 30
0.0
 11
17.3696482286
 21
-17.326459176
 31
0.0
 40
0.1269935126
 41
-1.1735259851
 42
-1.1437568412
  0
ELLIPSE
  5
32E
100
AcDbEntity
  8
0
100
AcDbEllipse
 62
7
  6
BYLAYER
 10
27.6730032699
 20
63.8302847145
 30
0.0
 11
16.9585571531
 21
16.7837266909
 31
0.0
 40
0.2593921815
 41
1.0184719717
 42
1.0482411156
  0
ELLIPSE
  5
32F
100
AcDbEntity
  8
0
100
AcDbEllipse
 62
7
  6
BYLAYER
 10
27.6730032699
 20
67.4842567194
 30
0.0
 11
14.9543464083
 21
10.0427045149
 31
0.0
 40
0.9066977799
 41
0.722825676
 42
0.7525948199
  0
ELLIPSE
  5
330
100
AcDbEntity
  8
0
100
AcDbEllipse
 62
7
  6
BYLAYER
 10
27.6730032699
 20
72.3015905576
 30
0.0
 11
17.2622772411
 21
-17.185307668
 31
0.0
 40
0.1702469903
 41
-1.1316401859
 42
-1.101871042
  0
ELLIPSE
  5
331
100
AcDbEntity
  8
0
100
AcDbEllipse
 62
7
  6
BYLAYER
 10
27.6730032699
 20
72.1449696825
 30
0.0
 11
17.1250267564
 21
-17.0043043001
 31
0.0
 40
0.2143062114
 41
-1.0898644977
 42
-1.0600953539
  0
ELLIPSE
  5
332
100
AcDbEntity
  8
0
100
AcDbEllipse
 62
7
  6
BYLAYER
 10
27.6730032699
 20
71.9559897953
 30
0.0
 11
16.9585571531
 21
-16.7837266909
 31
0.0
 40
0.2593921815
 41
-1.0482411156
 42
-1.0184719717
  0
ELLIPSE
  5
333
100
AcDbEntity
  8
0
100
AcDbEllipse
 62
7
  6
BYLAYER
 10
27.6730032699
 20
71.736089147
 30
0.0
 11
16.7637596114
 21
-16.523808647
 31
0.0
 40
0.3057398728
 41
-1.006825228
 42
-0.9770560841
  0
ELLIPSE
  5
334
100
AcDbEntity
  8
0
100
AcDbEllipse
 62
7
  6
BYLAYER
 10
27.6730032699
 20
71.4869413144
 30
0.0
 11
16.5418339295
 21
-16.2246471729
 31
0.0
 40
0.3536019736
 41
-0.9656919865
 42
-0.9359228426
  0
ELLIPSE
  5
335
100
AcDbEntity
  8
0
100
AcDbEllipse
 62
7
  6
BYLAYER
 10
27.6730032699
 20
67.0784880117
 30
0.0
 11
14.4741311195
 21
11.8601695234
 31
0.0
 40
0.8306103506
 41
0.6721725439
 42
0.7019416878
  0
ELLIPSE
  5
336
100
AcDbEntity
  8
0
100
AcDbEllipse
 62
7
  6
BYLAYER
 10
27.6730032699
 20
71.2104424629
 30
0.0
 11
16.2944188981
 21
-15.8860502942
 31
0.0
 40
0.4032531911
 41
-0.9249479552
 42
-0.8951788113
  0
ELLIPSE
  5
337
100
AcDbEntity
  8
0
100
AcDbEllipse
 62
7
  6
BYLAYER
 10
27.6730032699
 20
70.9086969158
 30
0.0
 11
16.023819938
 21
-15.507275323
 31
0.0
 40
0.4549951859
 41
-0.8847509834
 42
-0.8549818395
  0
ELLIPSE
  5
338
100
AcDbEntity
  8
0
100
AcDbEllipse
 62
7
  6
BYLAYER
 10
27.6730032699
 20
64.0501853628
 30
0.0
 11
16.7637596114
 21
16.523808647
 31
0.0
 40
0.3057398728
 41
0.9770560841
 42
1.006825228
  0
ELLIPSE
  5
339
100
AcDbEntity
  8
0
100
AcDbEllipse
 62
7
  6
BYLAYER
 10
27.6730032699
 20
70.5840011387
 30
0.0
 11
15.7334287619
 21
-15.0865489373
 31
0.0
 40
0.5091621171
 41
-0.8453469018
 42
-0.8155777579
  0
ELLIPSE
  5
33A
100
AcDbEntity
  8
0
100
AcDbEllipse
 62
7
  6
BYLAYER
 10
27.6730032699
 20
70.2388262628
 30
0.0
 11
15.4285527016
 21
-14.6201143459
 31
0.0
 40
0.5661264515
 41
-0.8071425375
 42
-0.7773733936
  0
ELLIPSE
  5
33B
100
AcDbEntity
  8
0
100
AcDbEllipse
 62
7
  6
BYLAYER
 10
27.6730032699
 20
66.6789192767
 30
0.0
 11
14.5700382847
 21
12.8060309747
 31
0.0
 40
0.7581403628
 41
0.6819789497
 42
0.7117480936
  0
ELLIPSE
  5
33C
100
AcDbEntity
  8
0
100
AcDbEllipse
 62
7
  6
BYLAYER
 10
27.6730032699
 20
69.8757992771
 30
0.0
 11
15.1182070608
 21
-14.1001405585
 31
0.0
 40
0.6263036642
 41
-0.7708653368
 42
-0.7410961929
  0
ELLIPSE
  5
33D
100
AcDbEntity
  8
0
100
AcDbEllipse
 62
7
  6
BYLAYER
 10
27.6730032699
 20
69.4976830362
 30
0.0
 11
14.8194770471
 21
-13.5094930283
 31
0.0
 40
0.6901509118
 41
-0.7379586644
 42
-0.7081895205
  0
ELLIPSE
  5
33E
100
AcDbEntity
  8
0
100
AcDbEllipse
 62
7
  6
BYLAYER
 10
27.6730032699
 20
69.1073552331
 30
0.0
 11
14.5700382847
 21
-12.8060309747
 31
0.0
 40
0.7581403628
 41
-0.7117480936
 42
-0.6819789497
  0
ELLIPSE
  5
33F
100
AcDbEntity
  8
0
100
AcDbEllipse
 62
7
  6
BYLAYER
 10
27.6730032699
 20
64.2993331954
 30
0.0
 11
16.5418339295
 21
16.2246471729
 31
0.0
 40
0.3536019736
 41
0.9359228426
 42
0.9656919865
  0
ELLIPSE
  5
340
100
AcDbEntity
  8
0
100
AcDbEllipse
 62
7
  6
BYLAYER
 10
27.6730032699
 20
68.7077864981
 30
0.0
 11
14.4741311195
 21
-11.8601695234
 31
0.0
 40
0.8306103506
 41
-0.7019416878
 42
-0.6721725439
  0
ELLIPSE
  5
341
100
AcDbEntity
  8
0
100
AcDbEllipse
 62
7
  6
BYLAYER
 10
27.6730032699
 20
68.3020177904
 30
0.0
 11
14.9543464083
 21
-10.0427045149
 31
0.0
 40
0.9066977799
 41
-0.7525948199
 42
-0.722825676
  0
ELLIPSE
  5
342
100
AcDbEntity
  8
0
100
AcDbEllipse
 62
7
  6
BYLAYER
 10
27.6730032699
 20
66.2885914736
 30
0.0
 11
14.8194770471
 21
13.5094930283
 31
0.0
 40
0.6901509118
 41
0.7081895205
 42
0.7379586644
  0
ELLIPSE
  5
343
100
AcDbEntity
  8
0
100
AcDbEllipse
 62
7
  6
BYLAYER
 10
27.6730032699
 20
64.5758320469
 30
0.0
 11
16.2944188981
 21
15.8860502942
 31
0.0
 40
0.4032531911
 41
0.8951788113
 42
0.9249479552
  0
ELLIPSE
  5
344
100
AcDbEntity
  8
0
100
AcDbEllipse
 62
7
  6
BYLAYER
 10
27.6730032699
 20
65.9104752327
 30
0.0
 11
15.1182070608
 21
14.1001405585
 31
0.0
 40
0.6263036642
 41
0.7410961929
 42
0.7708653368
  0
ELLIPSE
  5
345
100
AcDbEntity
  8
0
100
AcDbEllipse
 62
7
  6
BYLAYER
 10
27.6730032699
 20
65.547448247
 30
0.0
 11
15.4285527016
 21
14.6201143459
 31
0.0
 40
0.5661264515
 41
0.7773733936
 42
0.8071425375
  0
ELLIPSE
  5
346
100
AcDbEntity
  8
0
100
AcDbEllipse
 62
7
  6
BYLAYER
 10
27.6730032699
 20
64.877577594
 30
0.0
 11
16.023819938
 21
15.507275323
 31
0.0
 40
0.4549951859
 41
0.8549818395
 42
0.8847509834
  0
ELLIPSE
  5
347
100
AcDbEntity
  8
0
100
AcDbEllipse
 62
7
  6
BYLAYER
 10
27.6730032699
 20
65.2022733711
 30
0.0
 11
15.7334287619
 21
15.0865489373
 31
0.0
 40
0.5091621171
 41
0.8155777579
 42
0.8453469018
  0
ELLIPSE
  5
348
100
AcDbEntity
  8
0
100
AcDbEllipse
 62
7
  6
BYLAYER
 10
31.349006201
 20
66.7443894269
 30
0.0
 11
15.791979517
 21
10.9958379272
 31
0.0
 40
0.818317629
 41
-1.7455491319
 42
-1.7450389575
  0
ELLIPSE
  5
349
100
AcDbEntity
  8
0
100
AcDbEllipse
 62
7
  6
BYLAYER
 10
31.349006201
 20
66.1809521925
 30
0.0
 11
15.6563003942
 21
12.3580633753
 31
0.0
 40
0.7470541823
 41
-1.7604339261
 42
-1.7554134017
  0
ELLIPSE
  5
34A
100
AcDbEntity
  8
0
100
AcDbEllipse
 62
7
  6
BYLAYER
 10
31.349006201
 20
65.6305457203
 30
0.0
 11
15.7703479229
 21
13.3023954138
 31
0.0
 40
0.6792721423
 41
-1.7479481052
 42
-1.7395026589
  0
ELLIPSE
  5
34B
100
AcDbEntity
  8
0
100
AcDbEllipse
 62
7
  6
BYLAYER
 10
31.349006201
 20
65.0973589359
 30
0.0
 11
15.9844133441
 21
14.0585338956
 31
0.0
 40
0.6154007239
 41
-1.7237441171
 42
-1.7125697259
  0
ELLIPSE
  5
34C
100
AcDbEntity
  8
0
100
AcDbEllipse
 62
7
  6
BYLAYER
 10
31.349006201
 20
64.5854497126
 30
0.0
 11
16.2385436118
 21
14.7051040421
 31
0.0
 40
0.5552272381
 41
-1.6935221503
 42
-1.6800913845
  0
ELLIPSE
  5
34D
100
AcDbEntity
  8
0
100
AcDbEllipse
 62
7
  6
BYLAYER
 10
31.349006201
 20
64.0987139887
 30
0.0
 11
16.5043969512
 21
15.274965845
 31
0.0
 40
0.4983942514
 41
-1.6598253033
 42
-1.6444719578
  0
ELLIPSE
  5
34E
100
AcDbEntity
  8
0
100
AcDbEllipse
 62
7
  6
BYLAYER
 10
31.349006201
 20
63.6408561171
 30
0.0
 11
16.766803626
 21
15.7835371161
 31
0.0
 40
0.4445239339
 41
-1.623954571
 42
-1.6069196881
  0
ELLIPSE
  5
34F
100
AcDbEntity
  8
0
100
AcDbEllipse
 62
7
  6
BYLAYER
 10
31.349006201
 20
63.2153606725
 30
0.0
 11
17.0168501026
 21
16.2384907108
 31
0.0
 40
0.3932536107
 41
-1.5866441138
 42
-1.5681045703
  0
ELLIPSE
  5
350
100
AcDbEntity
  8
0
100
AcDbEllipse
 62
7
  6
BYLAYER
 10
31.349006201
 20
62.8254659322
 30
0.0
 11
17.2489119491
 21
16.6436838349
 31
0.0
 40
0.3442450777
 41
-1.5483400703
 42
-1.5284256044
  0
ELLIPSE
  5
351
100
AcDbEntity
  8
0
100
AcDbEllipse
 62
7
  6
BYLAYER
 10
31.349006201
 20
62.4741392306
 30
0.0
 11
17.4592414022
 21
17.0009614673
 31
0.0
 40
0.2971852239
 41
-1.5093298802
 42
-1.4881351175
  0
ELLIPSE
  5
352
100
AcDbEntity
  8
0
100
AcDbEllipse
 62
7
  6
BYLAYER
 10
31.349006201
 20
62.1640543761
 30
0.0
 11
17.6452378715
 21
17.311068251
 31
0.0
 40
0.2517837063
 41
-1.4698078979
 42
-1.4475602366
  0
ELLIPSE
  5
353
100
AcDbEntity
  8
0
100
AcDbEllipse
 62
7
  6
BYLAYER
 10
31.349006201
 20
61.8975713016
 30
0.0
 11
17.8050458869
 21
17.5741469284
 31
0.0
 40
0.2077697388
 41
-1.4299111685
 42
-1.4065581646
  0
ELLIPSE
  5
354
100
AcDbEntity
  8
0
100
AcDbEllipse
 62
7
  6
BYLAYER
 10
31.349006201
 20
61.6767181042
 30
0.0
 11
17.9373217495
 21
17.7900285404
 31
0.0
 40
0.1648887629
 41
-1.3897401552
 42
-1.3652388413
  0
ELLIPSE
  5
355
100
AcDbEntity
  8
0
100
AcDbEllipse
 62
7
  6
BYLAYER
 10
31.349006201
 20
61.5031756101
 30
0.0
 11
18.0410926156
 21
17.9584099181
 31
0.0
 40
0.1228992729
 41
-1.3493714145
 42
-1.3236866873
  0
ELLIPSE
  5
356
100
AcDbEntity
  8
0
100
AcDbEllipse
 62
7
  6
BYLAYER
 10
31.349006201
 20
61.3782645825
 30
0.0
 11
18.1156691418
 21
18.0789658936
 31
0.0
 40
0.0815698667
 41
-1.3088657657
 42
-1.2819697269
  0
ELLIPSE
  5
357
100
AcDbEntity
  8
0
100
AcDbEllipse
 62
7
  6
BYLAYER
 10
31.349006201
 20
61.3029356697
 30
0.0
 11
18.1605909673
 21
18.1514209571
 31
0.0
 40
0.0406765142
 41
-1.2682738639
 42
-1.2401461334
  0
ELLIPSE
  5
358
100
AcDbEntity
  8
0
100
AcDbEllipse
 62
7
  6
BYLAYER
 10
42.6557593013
 20
68.3020177904
 30
0.0
 11
14.9543464083
 21
10.0427045149
 31
0.0
 40
0.9066977799
 41
1.2951223273
 42
1.3248914712
  0
ELLIPSE
  5
359
100
AcDbEntity
  8
0
100
AcDbEllipse
 62
7
  6
BYLAYER
 10
42.6557593013
 20
68.7077864981
 30
0.0
 11
14.4741311195
 21
11.8601695234
 31
0.0
 40
0.8306103506
 41
1.2444691952
 42
1.2742383391
  0
ELLIPSE
  5
35A
100
AcDbEntity
  8
0
100
AcDbEllipse
 62
7
  6
BYLAYER
 10
42.6557593013
 20
69.1073552331
 30
0.0
 11
14.5700382847
 21
12.8060309747
 31
0.0
 40
0.7581403628
 41
1.2542756011
 42
1.2840447449
  0
ELLIPSE
  5
35B
100
AcDbEntity
  8
0
100
AcDbEllipse
 62
7
  6
BYLAYER
 10
31.349006201
 20
69.0418850829
 30
0.0
 11
15.791979517
 21
-10.9958379272
 31
0.0
 40
0.818317629
 41
1.7450389583
 42
1.7455491319
  0
ELLIPSE
  5
35C
100
AcDbEntity
  8
0
100
AcDbEllipse
 62
7
  6
BYLAYER
 10
31.349006201
 20
69.6053223173
 30
0.0
 11
15.6563003942
 21
-12.3580633753
 31
0.0
 40
0.7470541823
 41
8.0385987122
 42
8.0436192332
  0
ELLIPSE
  5
35D
100
AcDbEntity
  8
0
100
AcDbEllipse
 62
7
  6
BYLAYER
 10
31.349006201
 20
70.1557287895
 30
0.0
 11
15.7703479229
 21
-13.3023954138
 31
0.0
 40
0.6792721423
 41
8.0226879656
 42
8.0311334124
  0
ELLIPSE
  5
35E
100
AcDbEntity
  8
0
100
AcDbEllipse
 62
7
  6
BYLAYER
 10
31.349006201
 20
70.6889155739
 30
0.0
 11
15.9844133441
 21
-14.0585338956
 31
0.0
 40
0.6154007239
 41
1.7125697243
 42
1.7237441171
  0
ELLIPSE
  5
35F
100
AcDbEntity
  8
0
100
AcDbEllipse
 62
7
  6
BYLAYER
 10
31.349006201
 20
71.2008247972
 30
0.0
 11
16.2385436118
 21
-14.7051040421
 31
0.0
 40
0.5552272381
 41
1.6800913841
 42
1.6935221503
  0
ELLIPSE
  5
360
100
AcDbEntity
  8
0
100
AcDbEllipse
 62
7
  6
BYLAYER
 10
31.349006201
 20
71.687560521
 30
0.0
 11
16.5043969512
 21
-15.274965845
 31
0.0
 40
0.4983942514
 41
1.6444719572
 42
1.6598253033
  0
ELLIPSE
  5
361
100
AcDbEntity
  8
0
100
AcDbEllipse
 62
7
  6
BYLAYER
 10
31.349006201
 20
72.1454183927
 30
0.0
 11
16.766803626
 21
-15.7835371161
 31
0.0
 40
0.4445239339
 41
1.6069196864
 42
1.623954571
  0
ELLIPSE
  5
362
100
AcDbEntity
  8
0
100
AcDbEllipse
 62
7
  6
BYLAYER
 10
31.349006201
 20
72.5709138373
 30
0.0
 11
17.0168501026
 21
-16.2384907108
 31
0.0
 40
0.3932536107
 41
1.5681045669
 42
1.5866441138
  0
ELLIPSE
  5
363
100
AcDbEntity
  8
0
100
AcDbEllipse
 62
7
  6
BYLAYER
 10
31.349006201
 20
72.9608085776
 30
0.0
 11
17.2489119491
 21
-16.6436838349
 31
0.0
 40
0.3442450777
 41
1.5284256265
 42
1.5483400703
  0
ELLIPSE
  5
364
100
AcDbEntity
  8
0
100
AcDbEllipse
 62
7
  6
BYLAYER
 10
31.349006201
 20
73.3121352792
 30
0.0
 11
17.4592414022
 21
-17.0009614673
 31
0.0
 40
0.2971852239
 41
1.4881351505
 42
1.5093298802
  0
ELLIPSE
  5
365
100
AcDbEntity
  8
0
100
AcDbEllipse
 62
7
  6
BYLAYER
 10
31.349006201
 20
73.6222201337
 30
0.0
 11
17.6452378715
 21
-17.311068251
 31
0.0
 40
0.2517837063
 41
1.447560264
 42
1.4698078979
  0
ELLIPSE
  5
366
100
AcDbEntity
  8
0
100
AcDbEllipse
 62
7
  6
BYLAYER
 10
31.349006201
 20
73.8887032082
 30
0.0
 11
17.8050458869
 21
-17.5741469284
 31
0.0
 40
0.2077697388
 41
1.4065581876
 42
1.4299111685
  0
ELLIPSE
  5
367
100
AcDbEntity
  8
0
100
AcDbEllipse
 62
7
  6
BYLAYER
 10
31.349006201
 20
74.1095564056
 30
0.0
 11
17.9373217495
 21
-17.7900285404
 31
0.0
 40
0.1648887629
 41
1.3652388603
 42
1.3897401552
  0
ELLIPSE
  5
368
100
AcDbEntity
  8
0
100
AcDbEllipse
 62
7
  6
BYLAYER
 10
31.349006201
 20
74.2830988997
 30
0.0
 11
18.0410926156
 21
-17.9584099181
 31
0.0
 40
0.1228992729
 41
1.3236867023
 42
1.3493714145
  0
ELLIPSE
  5
369
100
AcDbEntity
  8
0
100
AcDbEllipse
 62
7
  6
BYLAYER
 10
31.349006201
 20
74.4080099273
 30
0.0
 11
18.1156691418
 21
-18.0789658936
 31
0.0
 40
0.0815698667
 41
1.2819697374
 42
1.3088657657
  0
ELLIPSE
  5
36A
100
AcDbEntity
  8
0
100
AcDbEllipse
 62
7
  6
BYLAYER
 10
31.349006201
 20
74.4833388401
 30
0.0
 11
18.1605909673
 21
-18.1514209571
 31
0.0
 40
0.0406765142
 41
1.2401461389
 42
1.2682738639
  0
ELLIPSE
  5
36B
100
AcDbEntity
  8
0
100
AcDbEllipse
 62
7
  6
BYLAYER
 10
42.6557593013
 20
69.4976830362
 30
0.0
 11
14.8194770471
 21
13.5094930283
 31
0.0
 40
0.6901509118
 41
1.2804861718
 42
1.3102553157
  0
ELLIPSE
  5
36C
100
AcDbEntity
  8
0
100
AcDbEllipse
 62
7
  6
BYLAYER
 10
42.6557593014
 20
67.8931372549
 30
0.0
 11
17.5084611122
 21
0.0
 31
0.0
 40
0.963433044
 41
1.8420600805
 42
1.8718292244
  0
ELLIPSE
  5
36D
100
AcDbEntity
  8
0
100
AcDbEllipse
 62
7
  6
BYLAYER
 10
42.6557593013
 20
67.4842567194
 30
0.0
 11
14.9543464083
 21
-10.0427045149
 31
0.0
 40
0.9066977799
 41
-1.3248914712
 42
-1.2951223273
  0
ELLIPSE
  5
36E
100
AcDbEntity
  8
0
100
AcDbEllipse
 62
7
  6
BYLAYER
 10
42.6557593013
 20
67.0784880117
 30
0.0
 11
14.4741311195
 21
-11.8601695234
 31
0.0
 40
0.8306103506
 41
-1.2742383391
 42
-1.2444691952
  0
ELLIPSE
  5
36F
100
AcDbEntity
  8
0
100
AcDbEllipse
 62
7
  6
BYLAYER
 10
42.6557593013
 20
66.6789192767
 30
0.0
 11
14.5700382847
 21
-12.8060309747
 31
0.0
 40
0.7581403628
 41
-1.2840447449
 42
-1.2542756011
  0
ELLIPSE
  5
370
100
AcDbEntity
  8
0
100
AcDbEllipse
 62
7
  6
BYLAYER
 10
42.6557593013
 20
66.2885914736
 30
0.0
 11
14.8194770471
 21
-13.5094930283
 31
0.0
 40
0.6901509118
 41
-1.3102553157
 42
-1.2804861718
  0
ELLIPSE
  5
371
100
AcDbEntity
  8
0
100
AcDbEllipse
 62
7
  6
BYLAYER
 10
42.6557593013
 20
65.9104752327
 30
0.0
 11
15.1182070608
 21
-14.1001405585
 31
0.0
 40
0.6263036642
 41
-1.3431619881
 42
-1.3133928442
  0
ELLIPSE
  5
372
100
AcDbEntity
  8
0
100
AcDbEllipse
 62
7
  6
BYLAYER
 10
42.6557593013
 20
65.547448247
 30
0.0
 11
15.4285527016
 21
-14.6201143459
 31
0.0
 40
0.5661264515
 41
-1.3794391888
 42
-1.349670045
  0
ELLIPSE
  5
373
100
AcDbEntity
  8
0
100
AcDbEllipse
 62
7
  6
BYLAYER
 10
42.6557593014
 20
65.2022733711
 30
0.0
 11
15.7334287619
 21
-15.0865489373
 31
0.0
 40
0.5091621171
 41
-1.4176435531
 42
-1.3878744092
  0
ELLIPSE
  5
374
100
AcDbEntity
  8
0
100
AcDbEllipse
 62
7
  6
BYLAYER
 10
42.6557593013
 20
64.877577594
 30
0.0
 11
16.023819938
 21
-15.507275323
 31
0.0
 40
0.4549951859
 41
-1.4570476347
 42
-1.4272784908
  0
ELLIPSE
  5
375
100
AcDbEntity
  8
0
100
AcDbEllipse
 62
7
  6
BYLAYER
 10
42.6557593013
 20
64.5758320469
 30
0.0
 11
16.2944188981
 21
-15.8860502942
 31
0.0
 40
0.4032531911
 41
-1.4972446065
 42
-1.4674754626
  0
ELLIPSE
  5
376
100
AcDbEntity
  8
0
100
AcDbEllipse
 62
7
  6
BYLAYER
 10
42.6557593013
 20
64.2993331954
 30
0.0
 11
16.5418339295
 21
-16.2246471729
 31
0.0
 40
0.3536019736
 41
-1.5379886378
 42
-1.5082194939
  0
ELLIPSE
  5
377
100
AcDbEntity
  8
0
100
AcDbEllipse
 62
7
  6
BYLAYER
 10
42.6557593014
 20
64.0501853628
 30
0.0
 11
16.7637596114
 21
-16.523808647
 31
0.0
 40
0.3057398728
 41
-1.5791218793
 42
-1.5493527354
  0
ELLIPSE
  5
378
100
AcDbEntity
  8
0
100
AcDbEllipse
 62
7
  6
BYLAYER
 10
42.6557593013
 20
63.8302847145
 30
0.0
 11
16.9585571531
 21
-16.7837266909
 31
0.0
 40
0.2593921815
 41
-1.6205377669
 42
-1.590768623
  0
ELLIPSE
  5
379
100
AcDbEntity
  8
0
100
AcDbEllipse
 62
7
  6
BYLAYER
 10
42.6557593013
 20
63.6413048273
 30
0.0
 11
17.1250267564
 21
-17.0043043001
 31
0.0
 40
0.2143062114
 41
-1.6621611491
 42
-1.6323920052
  0
ELLIPSE
  5
37A
100
AcDbEntity
  8
0
100
AcDbEllipse
 62
7
  6
BYLAYER
 10
42.6557593013
 20
63.4846839522
 30
0.0
 11
17.2622772411
 21
-17.185307668
 31
0.0
 40
0.1702469903
 41
-1.7039368372
 42
-1.6741676933
  0
ELLIPSE
  5
37B
100
AcDbEntity
  8
0
100
AcDbEllipse
 62
7
  6
BYLAYER
 10
42.6557593013
 20
63.3616140686
 30
0.0
 11
17.3696482286
 21
-17.326459176
 31
0.0
 40
0.1269935126
 41
-1.7458226364
 42
-1.7160534926
  0
ELLIPSE
  5
37C
100
AcDbEntity
  8
0
100
AcDbEllipse
 62
7
  6
BYLAYER
 10
42.6557593013
 20
63.2730318127
 30
0.0
 11
17.4466624083
 21
-17.4274961419
 31
0.0
 40
0.0843354388
 41
-1.7877848753
 42
-1.7580157314
  0
ELLIPSE
  5
37D
100
AcDbEntity
  8
0
100
AcDbEllipse
 62
7
  6
BYLAYER
 10
42.6557593013
 20
63.2196113489
 30
0.0
 11
17.4929960222
 21
-17.4882083164
 31
0.0
 40
0.0420701413
 41
-1.8297953707
 42
-1.8000262268
  0
ELLIPSE
  5
37E
100
AcDbEntity
  8
0
100
AcDbEllipse
 62
7
  6
BYLAYER
 10
42.6557593013
 20
69.8757992771
 30
0.0
 11
15.1182070608
 21
14.1001405585
 31
0.0
 40
0.6263036642
 41
1.3133928442
 42
1.3431619881
  0
ELLIPSE
  5
37F
100
AcDbEntity
  8
0
100
AcDbEllipse
 62
7
  6
BYLAYER
 10
42.6557593013
 20
70.2388262628
 30
0.0
 11
15.4285527016
 21
14.6201143459
 31
0.0
 40
0.5661264515
 41
1.349670045
 42
1.3794391888
  0
ELLIPSE
  5
380
100
AcDbEntity
  8
0
100
AcDbEllipse
 62
7
  6
BYLAYER
 10
42.6557593014
 20
70.5840011387
 30
0.0
 11
15.7334287619
 21
15.0865489373
 31
0.0
 40
0.5091621171
 41
1.3878744092
 42
1.4176435531
  0
ELLIPSE
  5
381
100
AcDbEntity
  8
0
100
AcDbEllipse
 62
7
  6
BYLAYER
 10
42.6557593013
 20
70.9086969158
 30
0.0
 11
16.023819938
 21
15.507275323
 31
0.0
 40
0.4549951859
 41
1.4272784908
 42
1.4570476347
  0
ELLIPSE
  5
382
100
AcDbEntity
  8
0
100
AcDbEllipse
 62
7
  6
BYLAYER
 10
42.6557593013
 20
71.2104424629
 30
0.0
 11
16.2944188981
 21
15.8860502942
 31
0.0
 40
0.4032531911
 41
1.4674754626
 42
1.4972446065
  0
ELLIPSE
  5
383
100
AcDbEntity
  8
0
100
AcDbEllipse
 62
7
  6
BYLAYER
 10
42.6557593013
 20
71.4869413144
 30
0.0
 11
16.5418339295
 21
16.2246471729
 31
0.0
 40
0.3536019736
 41
1.5082194939
 42
1.5379886378
  0
ELLIPSE
  5
384
100
AcDbEntity
  8
0
100
AcDbEllipse
 62
7
  6
BYLAYER
 10
42.6557593014
 20
71.736089147
 30
0.0
 11
16.7637596114
 21
16.523808647
 31
0.0
 40
0.3057398728
 41
1.5493527354
 42
1.5791218793
  0
ELLIPSE
  5
385
100
AcDbEntity
  8
0
100
AcDbEllipse
 62
7
  6
BYLAYER
 10
42.6557593013
 20
71.9559897953
 30
0.0
 11
16.9585571531
 21
16.7837266909
 31
0.0
 40
0.2593921815
 41
1.590768623
 42
1.6205377669
  0
ELLIPSE
  5
386
100
AcDbEntity
  8
0
100
AcDbEllipse
 62
7
  6
BYLAYER
 10
42.6557593013
 20
72.1449696825
 30
0.0
 11
17.1250267564
 21
17.0043043001
 31
0.0
 40
0.2143062114
 41
1.6323920052
 42
1.6621611491
  0
ELLIPSE
  5
387
100
AcDbEntity
  8
0
100
AcDbEllipse
 62
7
  6
BYLAYER
 10
42.6557593013
 20
72.3015905576
 30
0.0
 11
17.2622772411
 21
17.185307668
 31
0.0
 40
0.1702469903
 41
1.6741676933
 42
1.7039368372
  0
ELLIPSE
  5
388
100
AcDbEntity
  8
0
100
AcDbEllipse
 62
7
  6
BYLAYER
 10
42.6557593013
 20
72.4246604412
 30
0.0
 11
17.3696482286
 21
17.326459176
 31
0.0
 40
0.1269935126
 41
1.7160534926
 42
1.7458226364
  0
ELLIPSE
  5
389
100
AcDbEntity
  8
0
100
AcDbEllipse
 62
7
  6
BYLAYER
 10
42.6557593013
 20
72.5132426971
 30
0.0
 11
17.4466624083
 21
17.4274961419
 31
0.0
 40
0.0843354388
 41
1.7580157314
 42
1.7877848753
  0
ELLIPSE
  5
38A
100
AcDbEntity
  8
0
100
AcDbEllipse
 62
7
  6
BYLAYER
 10
42.6557593013
 20
72.5666631609
 30
0.0
 11
17.4929960222
 21
17.4882083164
 31
0.0
 40
0.0420701413
 41
1.8000262268
 42
1.8297953707
  0
ELLIPSE
  5
38B
100
AcDbEntity
  8
0
100
AcDbEllipse
 62
7
  6
BYLAYER
 10
42.6557593014
 20
67.8931372549
 30
0.0
 11
17.5084611122
 21
0.0
 31
0.0
 40
0.963433044
 41
4.4113560828
 42
4.4411252267
  0
ELLIPSE
  5
38C
100
AcDbEntity
  8
0
100
AcDbEllipse
 62
7
  6
BYLAYER
 10
42.6557593013
 20
69.8757992771
 30
0.0
 11
15.1182070608
 21
14.1001405585
 31
0.0
 40
0.6263036642
 41
-2.4004964607
 42
-2.3707273168
  0
ELLIPSE
  5
38D
100
AcDbEntity
  8
0
100
AcDbEllipse
 62
7
  6
BYLAYER
 10
42.6557593014
 20
71.736089147
 30
0.0
 11
16.7637596114
 21
16.523808647
 31
0.0
 40
0.3057398728
 41
-2.1645365695
 42
-2.1347674256
  0
ELLIPSE
  5
38E
100
AcDbEntity
  8
0
100
AcDbEllipse
 62
7
  6
BYLAYER
 10
42.6557593013
 20
72.4246604412
 30
0.0
 11
17.3696482286
 21
17.326459176
 31
0.0
 40
0.1269935126
 41
-1.9978358124
 42
-1.9680666685
  0
ELLIPSE
  5
38F
100
AcDbEntity
  8
0
100
AcDbEllipse
 62
7
  6
BYLAYER
 10
42.6557593013
 20
70.9086969158
 30
0.0
 11
16.023819938
 21
15.507275323
 31
0.0
 40
0.4549951859
 41
-2.2866108141
 42
-2.2568416702
  0
ELLIPSE
  5
390
100
AcDbEntity
  8
0
100
AcDbEllipse
 62
7
  6
BYLAYER
 10
42.6557593013
 20
69.1073552331
 30
0.0
 11
14.5700382847
 21
12.8060309747
 31
0.0
 40
0.7581403628
 41
-2.4596137039
 42
-2.42984456
  0
ELLIPSE
  5
391
100
AcDbEntity
  8
0
100
AcDbEllipse
 62
7
  6
BYLAYER
 10
42.6557593013
 20
71.9559897953
 30
0.0
 11
16.9585571531
 21
16.7837266909
 31
0.0
 40
0.2593921815
 41
-2.1231206819
 42
-2.093351538
  0
ELLIPSE
  5
392
100
AcDbEntity
  8
0
100
AcDbEllipse
 62
7
  6
BYLAYER
 10
42.6557593013
 20
72.5132426971
 30
0.0
 11
17.4466624083
 21
17.4274961419
 31
0.0
 40
0.0843354388
 41
-1.9558735735
 42
-1.9261044297
  0
ELLIPSE
  5
393
100
AcDbEntity
  8
0
100
AcDbEllipse
 62
7
  6
BYLAYER
 10
42.6557593013
 20
70.2388262628
 30
0.0
 11
15.4285527016
 21
14.6201143459
 31
0.0
 40
0.5661264515
 41
-2.36421926
 42
-2.3344501161
  0
ELLIPSE
  5
394
100
AcDbEntity
  8
0
100
AcDbEllipse
 62
7
  6
BYLAYER
 10
42.6557593013
 20
71.2104424629
 30
0.0
 11
16.2944188981
 21
15.8860502942
 31
0.0
 40
0.4032531911
 41
-2.2464138423
 42
-2.2166446984
  0
ELLIPSE
  5
395
100
AcDbEntity
  8
0
100
AcDbEllipse
 62
7
  6
BYLAYER
 10
42.6557593013
 20
72.5666631609
 30
0.0
 11
17.4929960222
 21
17.4882083164
 31
0.0
 40
0.0420701413
 41
-1.9138630781
 42
-1.8840939343
  0
ELLIPSE
  5
396
100
AcDbEntity
  8
0
100
AcDbEllipse
 62
7
  6
BYLAYER
 10
42.6557593013
 20
72.1449696825
 30
0.0
 11
17.1250267564
 21
17.0043043001
 31
0.0
 40
0.2143062114
 41
-2.0814972997
 42
-2.0517281558
  0
ELLIPSE
  5
397
100
AcDbEntity
  8
0
100
AcDbEllipse
 62
7
  6
BYLAYER
 10
42.6557593013
 20
69.4976830362
 30
0.0
 11
14.8194770471
 21
13.5094930283
 31
0.0
 40
0.6901509118
 41
-2.4334031331
 42
-2.4036339892
  0
ELLIPSE
  5
398
100
AcDbEntity
  8
0
100
AcDbEllipse
 62
7
  6
BYLAYER
 10
42.6557593013
 20
68.7077864981
 30
0.0
 11
14.4741311195
 21
11.8601695234
 31
0.0
 40
0.8306103506
 41
-2.4694201097
 42
-2.4396509658
  0
ELLIPSE
  5
399
100
AcDbEntity
  8
0
100
AcDbEllipse
 62
7
  6
BYLAYER
 10
42.6557593013
 20
71.4869413144
 30
0.0
 11
16.5418339295
 21
16.2246471729
 31
0.0
 40
0.3536019736
 41
-2.205669811
 42
-2.1759006671
  0
ELLIPSE
  5
39A
100
AcDbEntity
  8
0
100
AcDbEllipse
 62
7
  6
BYLAYER
 10
42.6557593013
 20
63.2196113489
 30
0.0
 11
17.4929960222
 21
-17.4882083164
 31
0.0
 40
0.0420701413
 41
1.8840939343
 42
1.9138630781
  0
ELLIPSE
  5
39B
100
AcDbEntity
  8
0
100
AcDbEllipse
 62
7
  6
BYLAYER
 10
42.6557593013
 20
63.2730318127
 30
0.0
 11
17.4466624083
 21
-17.4274961419
 31
0.0
 40
0.0843354388
 41
1.9261044297
 42
1.9558735735
  0
ELLIPSE
  5
39C
100
AcDbEntity
  8
0
100
AcDbEllipse
 62
7
  6
BYLAYER
 10
42.6557593013
 20
63.3616140686
 30
0.0
 11
17.3696482286
 21
-17.326459176
 31
0.0
 40
0.1269935126
 41
1.9680666685
 42
1.9978358124
  0
ELLIPSE
  5
39D
100
AcDbEntity
  8
0
100
AcDbEllipse
 62
7
  6
BYLAYER
 10
42.6557593013
 20
63.4846839522
 30
0.0
 11
17.2622772411
 21
-17.185307668
 31
0.0
 40
0.1702469903
 41
2.0099524677
 42
2.0397216116
  0
ELLIPSE
  5
39E
100
AcDbEntity
  8
0
100
AcDbEllipse
 62
7
  6
BYLAYER
 10
42.6557593013
 20
63.6413048273
 30
0.0
 11
17.1250267564
 21
-17.0043043001
 31
0.0
 40
0.2143062114
 41
2.0517281558
 42
2.0814972997
  0
ELLIPSE
  5
39F
100
AcDbEntity
  8
0
100
AcDbEllipse
 62
7
  6
BYLAYER
 10
42.6557593013
 20
63.8302847145
 30
0.0
 11
16.9585571531
 21
-16.7837266909
 31
0.0
 40
0.2593921815
 41
2.093351538
 42
2.1231206819
  0
ELLIPSE
  5
3A0
100
AcDbEntity
  8
0
100
AcDbEllipse
 62
7
  6
BYLAYER
 10
42.6557593014
 20
64.0501853628
 30
0.0
 11
16.7637596114
 21
-16.523808647
 31
0.0
 40
0.3057398728
 41
2.1347674256
 42
2.1645365695
  0
ELLIPSE
  5
3A1
100
AcDbEntity
  8
0
100
AcDbEllipse
 62
7
  6
BYLAYER
 10
42.6557593013
 20
64.2993331954
 30
0.0
 11
16.5418339295
 21
-16.2246471729
 31
0.0
 40
0.3536019736
 41
2.1759006671
 42
2.205669811
  0
ELLIPSE
  5
3A2
100
AcDbEntity
  8
0
100
AcDbEllipse
 62
7
  6
BYLAYER
 10
42.6557593013
 20
64.5758320469
 30
0.0
 11
16.2944188981
 21
-15.8860502942
 31
0.0
 40
0.4032531911
 41
2.2166446984
 42
2.2464138423
  0
ELLIPSE
  5
3A3
100
AcDbEntity
  8
0
100
AcDbEllipse
 62
7
  6
BYLAYER
 10
42.6557593013
 20
64.877577594
 30
0.0
 11
16.023819938
 21
-15.507275323
 31
0.0
 40
0.4549951859
 41
2.2568416702
 42
2.2866108141
  0
ELLIPSE
  5
3A4
100
AcDbEntity
  8
0
100
AcDbEllipse
 62
7
  6
BYLAYER
 10
42.6557593014
 20
65.2022733711
 30
0.0
 11
15.7334287619
 21
-15.0865489373
 31
0.0
 40
0.5091621171
 41
2.2962457518
 42
2.3260148957
  0
ELLIPSE
  5
3A5
100
AcDbEntity
  8
0
100
AcDbEllipse
 62
7
  6
BYLAYER
 10
42.6557593013
 20
65.547448247
 30
0.0
 11
15.4285527016
 21
-14.6201143459
 31
0.0
 40
0.5661264515
 41
2.3344501161
 42
2.36421926
  0
ELLIPSE
  5
3A6
100
AcDbEntity
  8
0
100
AcDbEllipse
 62
7
  6
BYLAYER
 10
42.6557593013
 20
65.9104752327
 30
0.0
 11
15.1182070608
 21
-14.1001405585
 31
0.0
 40
0.6263036642
 41
2.3707273168
 42
2.4004964607
  0
ELLIPSE
  5
3A7
100
AcDbEntity
  8
0
100
AcDbEllipse
 62
7
  6
BYLAYER
 10
42.6557593013
 20
66.2885914736
 30
0.0
 11
14.8194770471
 21
-13.5094930283
 31
0.0
 40
0.6901509118
 41
2.4036339892
 42
2.4334031331
  0
ELLIPSE
  5
3A8
100
AcDbEntity
  8
0
100
AcDbEllipse
 62
7
  6
BYLAYER
 10
42.6557593013
 20
66.6789192767
 30
0.0
 11
14.5700382847
 21
-12.8060309747
 31
0.0
 40
0.7581403628
 41
2.42984456
 42
2.4596137039
  0
ELLIPSE
  5
3A9
100
AcDbEntity
  8
0
100
AcDbEllipse
 62
7
  6
BYLAYER
 10
42.6557593013
 20
67.0784880117
 30
0.0
 11
14.4741311195
 21
-11.8601695234
 31
0.0
 40
0.8306103506
 41
2.4396509658
 42
2.4694201097
  0
ELLIPSE
  5
3AA
100
AcDbEntity
  8
0
100
AcDbEllipse
 62
7
  6
BYLAYER
 10
42.6557593013
 20
67.4842567194
 30
0.0
 11
14.9543464083
 21
-10.0427045149
 31
0.0
 40
0.9066977799
 41
2.3889978337
 42
2.4187669776
  0
ELLIPSE
  5
3AB
100
AcDbEntity
  8
0
100
AcDbEllipse
 62
7
  6
BYLAYER
 10
42.6557593014
 20
70.5840011387
 30
0.0
 11
15.7334287619
 21
15.0865489373
 31
0.0
 40
0.5091621171
 41
-2.3260148957
 42
-2.2962457518
  0
ELLIPSE
  5
3AC
100
AcDbEntity
  8
0
100
AcDbEllipse
 62
7
  6
BYLAYER
 10
42.6557593013
 20
72.3015905576
 30
0.0
 11
17.2622772411
 21
17.185307668
 31
0.0
 40
0.1702469903
 41
-2.0397216116
 42
-2.0099524677
  0
ELLIPSE
  5
3AD
100
AcDbEntity
  8
0
100
AcDbEllipse
 62
7
  6
BYLAYER
 10
42.6557593013
 20
68.3020177904
 30
0.0
 11
14.9543464083
 21
10.0427045149
 31
0.0
 40
0.9066977799
 41
-2.4187669776
 42
-2.3889978337
  0
ENDSEC
  0
SECTION
  2
OBJECTS
  0
DICTIONARY
  5
C
100
AcDbDictionary
280
0
281
1
  3
ACAD_GROUP
350
D
  3
ACAD_MLINESTYLE
350
17
  3
ACAD_LAYOUT
350
1A
  3
ACAD_PLOTSETTINGS
350
19
  3
ACAD_PLOTSTYLENAME
350
E
  0
DICTIONARY
  5
D
102
{ACAD_REACTORS
330
C
102
}
100
AcDbDictionary
280
0
281
1
  0
ACDBDICTIONARYWDFLT
  5
E
102
{ACAD_REACTORS
330
C
102
}
100
AcDbDictionary
281
1
  3
Normal
350
F
100
AcDbDictionaryWithDefault
340
F
  0
DICTIONARY
  5
17
102
{ACAD_REACTORS
330
C
102
}
100
AcDbDictionary
280
0
281
1
  3
Standard
350
18
  0
DICTIONARY
  5
19
102
{ACAD_REACTORS
330
C
102
}
100
AcDbDictionary
281
1
  0
DICTIONARY
  5
1A
102
{ACAD_REACTORS
330
C
102
}
100
AcDbDictionary
281
1
  3
Model
350
3AE
  3
Layout1
350
3AF
  0
ACDBPLACEHOLDER
  5
F
102
{ACAD_REACTORS
330
E
102
}
  0
MLINESTYLE
  5
18
102
{ACAD_REACTORS
330
17
102
}
100
AcDbMlineStyle
  2
STANDARD
 70
0
  3

 62
256
 51
90.0
 52
90.0
 71
2
 49
0.5
 62
256
  6
BYLAYER
 49
-0.5
 62
256
  6
BYLAYER
  0
LAYOUT
  5
3AE
102
{ACAD_REACTORS
330
1A
102
}
100
AcDbPlotSettings
  1

  2
none_device
  4

  6

 40
0.0
 41
0.0
 42
0.0
 43
0.0
 44
210.0
 45
297.0
 46
0.0
 47
0.0
 48
0.0
 49
0.0
140
0.0
141
0.0
142
1.0
143
1.0
 70
1024
 72
1
 73
0
 74
0
  7

 75
0
147
1.0
148
0.0
149
0.0
100
AcDbLayout
  1
Model
 70
0
 71
0
 10
0.0
 20
0.0
 11
210.0
 21
297.0
 12
0.0
 22
0.0
 32
0.0
 14
0.0
 24
0.0
 34
0.0
 15
0.0
 25
0.0
 35
0.0
146
0.0
 13
0.0
 23
0.0
 33
0.0
 16
1.0
 26
0.0
 36
0.0
 17
0.0
 27
1.0
 37
0.0
 76
0
330
210
345
0
346
0
  0
LAYOUT
  5
3AF
102
{ACAD_REACTORS
330
1A
102
}
100
AcDbPlotSettings
  1

  2
none_device
  4

  6

 40
0.0
 41
0.0
 42
0.0
 43
0.0
 44
210.0
 45
297.0
 46
0.0
 47
0.0
 48
0.0
 49
0.0
140
0.0
141
0.0
142
1.0
143
1.0
 70
0
 72
1
 73
0
 74
0
  7

 75
0
147
1.0
148
0.0
149
0.0
100
AcDbLayout
  1
Layout1
 70
0
 71
1
 10
0.0
 20
0.0
 11
210.0
 21
297.0
 12
0.0
 22
0.0
 32
0.0
 14
0.0
 24
0.0
 34
0.0
 15
0.0
 25
0.0
 35
0.0
146
0.0
 13
0.0
 23
0.0
 33
0.0
 16
1.0
 26
0.0
 36
0.0
 17
0.0
 27
1.0
 37
0.0
 76
0
330
211
345
0
346
0
  0
ENDSEC
  0
EOF
