999
DXF file: C:\Users\sesa63760\Dev\_Creo\CAD\MCADID0005617_3D-CAD\mcadid0005617_3d-simplified_2.dxf
999
Pro/ENGINEER 2019471 by Parametric Technology Corporation
  0
SECTION
  2
HEADER
  9
$ACADVER
  1
AC1024
  9
$DWGCODEPAGE
  3
ANSI_1252
  9
$EXTMAX
 10
83.4576591163
 20
118.0329750359
 30
0.0
  9
$EXTMIN
 10
0.0
 20
0.0
 30
0.0
  9
$LIMMIN
 10
0.0
 20
0.0
  9
$LIMMAX
 10
83.4576591163
 20
118.0329750359
  9
$VIEWCTR
 10
41.7288295581
 20
59.016487518
  9
$VIEWSIZE
 40
118.0329750359
  9
$CLAYER
  8
0
  9
$LTSCALE
 40
7.6940013357
  9
$CELTYPE
  6
BYLAYER
  9
$DIMSCALE
 40
1.0
  9
$DIMASZ
 40
0.9935435609
  9
$DIMEXO
 40
1.0
  9
$DIMDLI
 40
5.3158554683
  9
$DIMEXE
 40
1.0
  9
$DIMCEN
 40
1.2590184004
  9
$DIMLFAC
 40
1.0
  9
$DIMBLK
  1
_FILLED
  9
$DIMALT
 70
0
  9
$DIMALTF
 40
0.0393700787
  9
$DIMTXT
 40
1.3909609853
  9
$DIMTOL
 70
1
  9
$DIMLIM
 70
0
  9
$DIMTFAC
 40
1.0
  9
$DIMTP
 40
0.01
  9
$DIMTM
 40
0.01
  9
$DIMGAP
 40
0.625
  9
$DIMDSEP
 70
46
  9
$AUNITS
 70
0
  9
$PDMODE
 70
3
  9
$PDSIZE
 40
0.3125
  9
$HANDSEED
  5
2E7
  9
$TILEMODE
 70
1
  9
$MEASUREMENT
 70
1
  9
$INSUNITS
 70
4
  0
ENDSEC
  0
SECTION
  2
CLASSES
  0
CLASS
  1
ACDBDICTIONARYWDFLT
  2
AcDbDictionaryWithDefault
  3
AutoCAD 2000
 90
0
 91
1
280
0
281
0
  0
CLASS
  1
ACDBPLACEHOLDER
  2
AcDbPlaceHolder
  3
AutoCAD 2000
 90
0
 91
1
280
0
281
0
  0
CLASS
  1
LAYOUT
  2
AcDbLayout
  3
AutoCAD 2000
 90
0
 91
0
280
0
281
0
  0
ENDSEC
  0
SECTION
  2
TABLES
  0
TABLE
  2
VPORT
  5
8
100
AcDbSymbolTable
 70
2
  0
VPORT
  5
1F4
100
AcDbSymbolTableRecord
100
AcDbViewportTableRecord
  2
*ACTIVE
 70
0
 10
0.0
 20
0.0
 11
1.0
 21
1.0
 12
41.7288295581
 22
59.016487518
 13
0.0
 23
0.0
 14
1.0
 24
1.0
 15
0.0
 25
0.0
 16
0.0
 26
0.0
 36
1.0
 17
0.0
 27
0.0
 37
0.0
 40
118.0329750359
 41
0.7070707071
 42
50.0
 43
0.0
 44
0.0
 50
0.0
 51
0.0
 71
0
 72
100
 73
1
 74
1
 75
0
 76
0
 77
0
 78
0
  0
ENDTAB
  0
TABLE
  2
LTYPE
  5
5
100
AcDbSymbolTable
 70
6
  0
LTYPE
  5
14
100
AcDbSymbolTableRecord
100
AcDbLinetypeTableRecord
  2
BYBLOCK
 70
0
  3

 72
65
 73
0
 40
0.0
  0
LTYPE
  5
15
100
AcDbSymbolTableRecord
100
AcDbLinetypeTableRecord
  2
BYLAYER
 70
0
  3

 72
65
 73
0
 40
0.0
  0
LTYPE
  5
16
100
AcDbSymbolTableRecord
100
AcDbLinetypeTableRecord
  2
CONTINUOUS
 70
64
  3
Solid line
 72
65
 73
0
 40
0.0
  0
LTYPE
  5
1F5
100
AcDbSymbolTableRecord
100
AcDbLinetypeTableRecord
  2
CENTER
 70
64
  3
____ _ ____ _ ____ _ ____ _ ____ _ ____ _ ____
 72
65
 73
4
 40
0.6
 49
0.375
 74
0
 49
-0.075
 74
0
 49
0.075
 74
0
 49
-0.075
 74
0
  0
LTYPE
  5
1F6
100
AcDbSymbolTableRecord
100
AcDbLinetypeTableRecord
  2
HIDDEN
 70
64
  3
- - - - - - - - - - - - - - - - - - - -
 72
65
 73
2
 40
0.2
 49
0.1
 74
0
 49
-0.1
 74
0
  0
LTYPE
  5
1F7
100
AcDbSymbolTableRecord
100
AcDbLinetypeTableRecord
  2
PHANTOM
 70
64
  3
_____ _ _ _____ _ _ _____ _ _ _____
 72
65
 73
6
 40
0.8
 49
0.45
 74
0
 49
-0.05
 74
0
 49
0.1
 74
0
 49
-0.05
 74
0
 49
0.1
 74
0
 49
-0.05
 74
0
  0
LTYPE
  5
1F8
100
AcDbSymbolTableRecord
100
AcDbLinetypeTableRecord
  2
DOT
 70
64
  3
. . . . . . . . . . . . . . . . . . . .
 72
65
 73
2
 40
0.2
 49
0.1
 74
0
 49
-0.1
 74
0
  0
LTYPE
  5
1F9
100
AcDbSymbolTableRecord
100
AcDbLinetypeTableRecord
  2
DASHED
 70
64
  3
- - - - - - - - - - - - - - - - - - - -
 72
65
 73
2
 40
0.2
 49
0.1
 74
0
 49
-0.1
 74
0
  0
ENDTAB
  0
TABLE
  2
LAYER
  5
2
100
AcDbSymbolTable
 70
36
  0
LAYER
  5
10
100
AcDbSymbolTableRecord
100
AcDbLayerTableRecord
  2
0
 70
0
 62
7
  6
CONTINUOUS
370
-3
390
F
  0
LAYER
  5
1FA
100
AcDbSymbolTableRecord
100
AcDbLayerTableRecord
  2
DEFAULT_1
 70
0
 62
7
  6
CENTER
370
-3
390
F
  0
LAYER
  5
1FB
100
AcDbSymbolTableRecord
100
AcDbLayerTableRecord
  2
DEFAULT_2
 70
0
 62
7
  6
HIDDEN
370
-3
390
F
  0
LAYER
  5
1FC
100
AcDbSymbolTableRecord
100
AcDbLayerTableRecord
  2
DEFAULT_3
 70
0
 62
7
  6
PHANTOM
370
-3
390
F
  0
LAYER
  5
1FD
100
AcDbSymbolTableRecord
100
AcDbLayerTableRecord
  2
00_COMPONENTS
 70
0
 62
7
  6
CONTINUOUS
370
-3
390
F
  0
LAYER
  5
1FE
100
AcDbSymbolTableRecord
100
AcDbLayerTableRecord
  2
00_COMPONENTS_1
 70
0
 62
7
  6
CONTINUOUS
370
-3
390
F
  0
LAYER
  5
1FF
100
AcDbSymbolTableRecord
100
AcDbLayerTableRecord
  2
00_COMPONENTS_2
 70
0
 62
7
  6
CONTINUOUS
370
-3
390
F
  0
LAYER
  5
200
100
AcDbSymbolTableRecord
100
AcDbLayerTableRecord
  2
00_COMPONENTS_3
 70
0
 62
7
  6
CONTINUOUS
370
-3
390
F
  0
LAYER
  5
201
100
AcDbSymbolTableRecord
100
AcDbLayerTableRecord
  2
01_1_DEFAULT_DATUMS
 70
0
 62
7
  6
CONTINUOUS
370
-3
390
F
  0
LAYER
  5
202
100
AcDbSymbolTableRecord
100
AcDbLayerTableRecord
  2
01_PLANES
 70
0
 62
7
  6
CONTINUOUS
370
-3
390
F
  0
LAYER
  5
203
100
AcDbSymbolTableRecord
100
AcDbLayerTableRecord
  2
02_COORD_SYS
 70
0
 62
7
  6
CONTINUOUS
370
-3
390
F
  0
LAYER
  5
204
100
AcDbSymbolTableRecord
100
AcDbLayerTableRecord
  2
03_AXES
 70
0
 62
7
  6
CONTINUOUS
370
-3
390
F
  0
LAYER
  5
205
100
AcDbSymbolTableRecord
100
AcDbLayerTableRecord
  2
04_POINTS
 70
0
 62
7
  6
CONTINUOUS
370
-3
390
F
  0
LAYER
  5
206
100
AcDbSymbolTableRecord
100
AcDbLayerTableRecord
  2
05_CURVES
 70
0
 62
7
  6
CONTINUOUS
370
-3
390
F
  0
LAYER
  5
207
100
AcDbSymbolTableRecord
100
AcDbLayerTableRecord
  2
06_SURFS
 70
0
 62
7
  6
CONTINUOUS
370
-3
390
F
  0
LAYER
  5
208
100
AcDbSymbolTableRecord
100
AcDbLayerTableRecord
  2
07_COSMETICS
 70
0
 62
7
  6
CONTINUOUS
370
-3
390
F
  0
LAYER
  5
209
100
AcDbSymbolTableRecord
100
AcDbLayerTableRecord
  2
10_NOTES
 70
0
 62
7
  6
CONTINUOUS
370
-3
390
F
  0
LAYER
  5
20A
100
AcDbSymbolTableRecord
100
AcDbLayerTableRecord
  2
11_NOTES_PUB
 70
0
 62
7
  6
CONTINUOUS
370
-3
390
F
  0
LAYER
  5
20B
100
AcDbSymbolTableRecord
100
AcDbLayerTableRecord
  2
13_REF_GTOL
 70
0
 62
7
  6
CONTINUOUS
370
-3
390
F
  0
LAYER
  5
20C
100
AcDbSymbolTableRecord
100
AcDbLayerTableRecord
  2
16_MISC
 70
0
 62
7
  6
CONTINUOUS
370
-3
390
F
  0
LAYER
  5
20D
100
AcDbSymbolTableRecord
100
AcDbLayerTableRecord
  2
17_NO_PRINT
 70
0
 62
7
  6
CONTINUOUS
370
-3
390
F
  0
LAYER
  5
20E
100
AcDbSymbolTableRecord
100
AcDbLayerTableRecord
  2
18_DATUM_CAMS_JOINTS
 70
0
 62
7
  6
CONTINUOUS
370
-3
390
F
  0
LAYER
  5
20F
100
AcDbSymbolTableRecord
100
AcDbLayerTableRecord
  2
19_DATUM_FUNCTIONAL
 70
0
 62
7
  6
CONTINUOUS
370
-3
390
F
  0
LAYER
  5
210
100
AcDbSymbolTableRecord
100
AcDbLayerTableRecord
  2
20_DATUM_KINEMATIC_SCHEME
 70
0
 62
7
  6
CONTINUOUS
370
-3
390
F
  0
LAYER
  5
211
100
AcDbSymbolTableRecord
100
AcDbLayerTableRecord
  2
INTFCLR_37585
 70
0
 62
7
  6
CONTINUOUS
370
-3
390
F
  0
LAYER
  5
212
100
AcDbSymbolTableRecord
100
AcDbLayerTableRecord
  2
INTF_BLANK
 70
0
 62
7
  6
CONTINUOUS
370
-3
390
F
  0
LAYER
  5
213
100
AcDbSymbolTableRecord
100
AcDbLayerTableRecord
  2
SHELL25
 70
0
 62
7
  6
CONTINUOUS
370
-3
390
F
  0
LAYER
  5
214
100
AcDbSymbolTableRecord
100
AcDbLayerTableRecord
  2
SHELL26
 70
0
 62
7
  6
CONTINUOUS
370
-3
390
F
  0
LAYER
  5
215
100
AcDbSymbolTableRecord
100
AcDbLayerTableRecord
  2
SHELL27
 70
0
 62
7
  6
CONTINUOUS
370
-3
390
F
  0
LAYER
  5
216
100
AcDbSymbolTableRecord
100
AcDbLayerTableRecord
  2
SHELL980
 70
0
 62
7
  6
CONTINUOUS
370
-3
390
F
  0
LAYER
  5
217
100
AcDbSymbolTableRecord
100
AcDbLayerTableRecord
  2
_BLACK_HOLE
 70
0
 62
7
  6
CONTINUOUS
370
-3
390
F
  0
LAYER
  5
218
100
AcDbSymbolTableRecord
100
AcDbLayerTableRecord
  2
black
 70
0
 62
7
  6
CONTINUOUS
370
-3
390
F
  0
ENDTAB
  0
TABLE
  2
STYLE
  5
3
100
AcDbSymbolTable
 70
1
  0
STYLE
  5
11
100
AcDbSymbolTableRecord
100
AcDbTextStyleTableRecord
  2
STANDARD
 70
0
 40
0.0
 41
1.0
 50
0.0
 71
0
 42
0.2
  3
ARIAL.TTF
  4

  0
STYLE
  5
219
100
AcDbSymbolTableRecord
100
AcDbTextStyleTableRecord
  2
TEXTSTYLE_1
 70
0
 40
0.0
 41
0.8
 50
0.0
 71
0
 42
0.2
  3
gdt
  4

  0
ENDTAB
  0
TABLE
  2
VIEW
  5
6
100
AcDbSymbolTable
 70
0
  0
ENDTAB
  0
TABLE
  2
UCS
  5
7
100
AcDbSymbolTable
 70
0
  0
ENDTAB
  0
TABLE
  2
APPID
  5
9
100
AcDbSymbolTable
 70
1
  0
APPID
  5
21A
100
AcDbSymbolTableRecord
100
AcDbRegAppTableRecord
  2
ACAD
 70
0
  0
ENDTAB
  0
TABLE
  2
BLOCK_RECORD
  5
1
100
AcDbSymbolTable
 70
0
  0
BLOCK_RECORD
  5
21B
100
AcDbSymbolTableRecord
100
AcDbBlockTableRecord
  2
*Model_Space
  0
BLOCK_RECORD
  5
21C
100
AcDbSymbolTableRecord
100
AcDbBlockTableRecord
  2
*Paper_Space
  0
BLOCK_RECORD
  5
21D
100
AcDbSymbolTableRecord
100
AcDbBlockTableRecord
  2
_FILLED
  0
ENDTAB
  0
TABLE
  2
DIMSTYLE
  5
A
100
AcDbSymbolTable
 70
1
100
AcDbDimStyleTable
 71
0
  0
DIMSTYLE
105
21E
100
AcDbSymbolTableRecord
100
AcDbDimStyleTableRecord
  2
STANDARD
 70
0
  3

  4

 40
1.0
 41
0.9935435609
 42
1.0
 43
0.38
 44
1.0
 45
0.0
 46
0.0
 47
0.01
 48
0.01
140
1.3909609853
141
0.09
142
0.0
143
25.4
144
1.0
145
0.0
146
1.0
147
0.625
 71
1
 72
0
 73
0
 74
0
 75
0
 76
0
 77
1
 78
8
 79
2
170
0
171
1
172
0
173
0
174
0
175
0
176
0
177
0
178
0
270
2
179
2
271
2
272
2
273
2
274
2
275
0
280
0
281
0
282
0
283
1
284
8
285
0
286
0
287
3
288
0
340
11
278
46
341
21D
342
21D
343
21D
344
21D
  0
ENDTAB
  0
ENDSEC
  0
SECTION
  2
BLOCKS
  0
BLOCK
  5
20
100
AcDbEntity
  8
0
100
AcDbBlockBegin
  2
*Model_Space
 70
0
 10
0.0
 20
0.0
 30
0.0
  3
*Model_Space
  1

  0
ENDBLK
  5
21
100
AcDbEntity
  8
0
100
AcDbBlockEnd
  0
BLOCK
  5
1C
100
AcDbEntity
  8
0
100
AcDbBlockBegin
  2
*Paper_Space
 70
0
 10
0.0
 20
0.0
 30
0.0
  3
*Paper_Space
  1

  0
ENDBLK
  5
1D
100
AcDbEntity
  8
0
100
AcDbBlockEnd
  0
BLOCK
  5
21F
100
AcDbEntity
  8
0
100
AcDbBlockBegin
  2
_FILLED
 70
64
 10
0.0
 20
0.0
  3
_FILLED
  1

  0
SOLID
  5
220
100
AcDbEntity
  8
0
  6
BYBLOCK
 62
0
100
AcDbTrace
 10
0.0
 20
0.0
 11
-1.0
 21
0.25
 12
-1.0
 22
-0.25
 13
-1.0
 23
-0.25
  0
ENDBLK
  5
221
100
AcDbEntity
  8
0
  6
BYBLOCK
 62
0
100
AcDbBlockEnd
  0
ENDSEC
  0
SECTION
  2
ENTITIES
  0
LINE
  5
222
100
AcDbEntity
  8
00_COMPONENTS_2
100
AcDbLine
 62
7
  6
BYLAYER
 10
31.3609681781
 20
7.8736807092
 11
56.2750605836
 21
7.8736807092
  0
LINE
  5
223
100
AcDbEntity
  8
00_COMPONENTS_2
100
AcDbLine
 62
7
  6
BYLAYER
 10
28.0720143768
 20
20.6204807096
 11
59.5640143848
 21
20.6204807096
  0
LINE
  5
224
100
AcDbEntity
  8
00_COMPONENTS_2
100
AcDbLine
 62
7
  6
BYLAYER
 10
27.8180143768
 20
20.8744807096
 11
59.8180143848
 21
20.8744807096
  0
LINE
  5
225
100
AcDbEntity
  8
00_COMPONENTS_2
100
AcDbLine
 62
7
  6
BYLAYER
 10
28.0720143768
 20
20.6204807096
 11
27.8180143768
 21
20.8744807096
  0
LINE
  5
226
100
AcDbEntity
  8
00_COMPONENTS_2
100
AcDbLine
 62
7
  6
BYLAYER
 10
27.4243143768
 20
30.1695835106
 11
26.3555143808
 21
30.786655476
  0
LINE
  5
227
100
AcDbEntity
  8
0
100
AcDbLine
 62
7
  6
BYLAYER
 10
15.2684143808
 20
54.4300807096
 11
15.2684143808
 21
83.2844807096
  0
LINE
  5
228
100
AcDbEntity
  8
00_COMPONENTS_2
100
AcDbLine
 62
7
  6
BYLAYER
 10
59.8180143848
 20
29.4876751077
 11
27.8180143768
 21
29.4876751077
  0
LINE
  5
229
100
AcDbEntity
  8
00_COMPONENTS_2
100
AcDbLine
 62
7
  6
BYLAYER
 10
27.4243143768
 20
30.1695835106
 11
60.2117143848
 21
30.1695835106
  0
LINE
  5
22A
100
AcDbEntity
  8
0
100
AcDbLine
 62
7
  6
BYLAYER
 10
19.9674143808
 20
83.2844807096
 11
19.9674143808
 21
54.4300807096
  0
LINE
  5
22B
100
AcDbEntity
  8
0
100
AcDbLine
 62
7
  6
BYLAYER
 10
23.5742776263
 20
54.4300807096
 11
23.5742776263
 21
51.1280807096
  0
LINE
  5
22C
100
AcDbEntity
  8
00_COMPONENTS_2
100
AcDbLine
 62
7
  6
BYLAYER
 10
25.4030143808
 20
37.0796807096
 11
62.2330143808
 21
37.0796807096
  0
LINE
  5
22D
100
AcDbEntity
  8
00_COMPONENTS_2
100
AcDbLine
 62
7
  6
BYLAYER
 10
24.7680143808
 20
38.3496807096
 11
62.8680143808
 21
38.3496807096
  0
LINE
  5
22E
100
AcDbEntity
  8
00_COMPONENTS_2
100
AcDbLine
 62
7
  6
BYLAYER
 10
62.8680143808
 20
39.8736807096
 11
24.7680143808
 21
39.8736807096
  0
LINE
  5
22F
100
AcDbEntity
  8
0
100
AcDbLine
 62
7
  6
BYLAYER
 10
23.9742643808
 20
46.2744807096
 11
23.9742643808
 21
47.8619807096
  0
LINE
  5
230
100
AcDbEntity
  8
0
100
AcDbLine
 62
7
  6
BYLAYER
 10
24.3180143808
 20
51.1280807096
 11
24.3180143808
 21
49.8619807096
  0
LINE
  5
231
100
AcDbEntity
  8
0
100
AcDbLine
 62
7
  6
BYLAYER
 10
24.3616143808
 20
54.4300807096
 11
24.3616143861
 21
51.1280807096
  0
LINE
  5
232
100
AcDbEntity
  8
00_COMPONENTS_2
100
AcDbLine
 62
7
  6
BYLAYER
 10
24.7680143808
 20
38.3496807096
 11
24.7680143808
 21
39.8736807096
  0
LINE
  5
233
100
AcDbEntity
  8
00_COMPONENTS_2
100
AcDbLine
 62
7
  6
BYLAYER
 10
25.4030143808
 20
37.0796807096
 11
25.4030143808
 21
38.3496807096
  0
LINE
  5
234
100
AcDbEntity
  8
0
100
AcDbLine
 62
7
  6
BYLAYER
 10
25.8180143808
 20
49.8619807096
 11
25.8180143808
 21
47.8619807096
  0
LINE
  5
235
100
AcDbEntity
  8
0
100
AcDbLine
 62
7
  6
BYLAYER
 10
26.0380143808
 20
51.1280807096
 11
26.0380143808
 21
54.4300807096
  0
LINE
  5
236
100
AcDbEntity
  8
00_COMPONENTS_2
100
AcDbLine
 62
7
  6
BYLAYER
 10
26.3555143808
 20
30.786655476
 11
26.3555143808
 21
37.0796807096
  0
LINE
  5
237
100
AcDbEntity
  8
0
100
AcDbLine
 62
7
  6
BYLAYER
 10
26.8253511354
 20
54.4300807096
 11
26.8253511354
 21
51.1280807096
  0
LINE
  5
238
100
AcDbEntity
  8
00_COMPONENTS_2
100
AcDbLine
 62
7
  6
BYLAYER
 10
27.8180143768
 20
20.8744807096
 11
27.8180143768
 21
29.4876751077
  0
LINE
  5
239
100
AcDbEntity
  8
0
100
AcDbLine
 62
7
  6
BYLAYER
 10
28.8320143808
 20
39.8736807096
 11
28.8320143808
 21
46.2744807096
  0
LINE
  5
23A
100
AcDbEntity
  8
0
100
AcDbLine
 62
7
  6
BYLAYER
 10
30.0766143808
 20
54.4300807096
 11
30.0766143808
 21
52.6266807096
  0
LINE
  5
23B
100
AcDbEntity
  8
0
100
AcDbLine
 62
7
  6
BYLAYER
 10
23.9742643808
 20
46.2744807096
 11
63.6617643808
 21
46.2744807096
  0
LINE
  5
23C
100
AcDbEntity
  8
00_COMPONENTS_2
100
AcDbLine
 62
7
  6
BYLAYER
 10
31.3609681781
 20
7.8736807092
 11
31.3609681781
 21
20.6204807096
  0
LINE
  5
23D
100
AcDbEntity
  8
00_COMPONENTS_2
100
AcDbLine
 62
7
  6
BYLAYER
 10
31.5174571517
 20
20.6204807096
 11
31.5174571517
 21
7.8736807092
  0
LINE
  5
23E
100
AcDbEntity
  8
0
100
AcDbLine
 62
7
  6
BYLAYER
 10
31.5614143808
 20
51.1280807096
 11
31.5614143808
 21
53.4140807096
  0
LINE
  5
23F
100
AcDbEntity
  8
00_COMPONENTS_2
100
AcDbLine
 62
7
  6
BYLAYER
 10
32.053406317
 20
7.8736807092
 11
32.053406317
 21
20.6204807096
  0
LINE
  5
240
100
AcDbEntity
  8
00_COMPONENTS_2
100
AcDbLine
 62
7
  6
BYLAYER
 10
32.5122087728
 20
20.6204807096
 11
32.5122087728
 21
7.8736807092
  0
LINE
  5
241
100
AcDbEntity
  8
00_COMPONENTS_2
100
AcDbLine
 62
7
  6
BYLAYER
 10
33.5475830535
 20
7.8736807092
 11
33.5475830535
 21
20.6204807096
  0
LINE
  5
242
100
AcDbEntity
  8
00_COMPONENTS_2
100
AcDbLine
 62
7
  6
BYLAYER
 10
34.2774323624
 20
20.6204807096
 11
34.2774323624
 21
7.8736807092
  0
LINE
  5
243
100
AcDbEntity
  8
0
100
AcDbLine
 62
7
  6
BYLAYER
 10
63.6617643808
 20
47.8619807096
 11
23.9742643808
 21
47.8619807096
  0
LINE
  5
244
100
AcDbEntity
  8
0
100
AcDbLine
 62
7
  6
BYLAYER
 10
66.1700143808
 20
48.5880807096
 11
64.3412143808
 21
48.5880807096
  0
LINE
  5
245
100
AcDbEntity
  8
0
100
AcDbLine
 62
7
  6
BYLAYER
 10
24.3182668879
 20
49.8619807096
 11
63.3177618738
 21
49.8619807096
  0
LINE
  5
246
100
AcDbEntity
  8
0
100
AcDbLine
 62
7
  6
BYLAYER
 10
23.5742868506
 20
51.1280807096
 11
63.3177618738
 21
51.1280807096
  0
LINE
  5
247
100
AcDbEntity
  8
00_COMPONENTS_2
100
AcDbLine
 62
7
  6
BYLAYER
 10
35.722106554
 20
20.6204807096
 11
35.722106554
 21
7.8736807092
  0
LINE
  5
248
100
AcDbEntity
  8
00_COMPONENTS_2
100
AcDbLine
 62
7
  6
BYLAYER
 10
35.7416727123
 20
7.8736807092
 11
35.7416727123
 21
20.6204807096
  0
LINE
  5
249
100
AcDbEntity
  8
0
100
AcDbLine
 62
7
  6
BYLAYER
 10
36.5790143808
 20
54.4300807096
 11
36.5790143808
 21
53.4140807096
  0
LINE
  5
24A
100
AcDbEntity
  8
00_COMPONENTS_2
100
AcDbLine
 62
7
  6
BYLAYER
 10
36.5848100479
 20
37.0796807096
 11
36.5848100479
 21
31.6173319154
  0
LINE
  5
24B
100
AcDbEntity
  8
00_COMPONENTS_2
100
AcDbLine
 62
7
  6
BYLAYER
 10
36.69283085
 20
20.6204807096
 11
36.69283085
 21
7.8736807092
  0
LINE
  5
24C
100
AcDbEntity
  8
0
100
AcDbLine
 62
7
  6
BYLAYER
 10
37.2140143808
 20
51.1280807096
 11
37.2140143808
 21
54.4300807096
  0
LINE
  5
24D
100
AcDbEntity
  8
00_COMPONENTS_2
100
AcDbLine
 62
7
  6
BYLAYER
 10
37.972909564
 20
20.6204807096
 11
37.972909564
 21
7.8736807092
  0
LINE
  5
24E
100
AcDbEntity
  8
0
100
AcDbLine
 62
7
  6
BYLAYER
 10
38.279489951
 20
54.4300807096
 11
38.279489951
 21
52.9060807096
  0
LINE
  5
24F
100
AcDbEntity
  8
00_COMPONENTS_2
100
AcDbLine
 62
7
  6
BYLAYER
 10
38.486151709
 20
7.8736807092
 11
38.486151709
 21
20.6204807096
  0
LINE
  5
250
100
AcDbEntity
  8
0
100
AcDbLine
 62
7
  6
BYLAYER
 10
38.7888143783
 20
52.9060807096
 11
38.7888143783
 21
51.1280807096
  0
LINE
  5
251
100
AcDbEntity
  8
0
100
AcDbLine
 62
7
  6
BYLAYER
 10
61.2939092033
 20
104.7883713234
 11
61.1846065776
 21
104.5760225637
  0
LINE
  5
252
100
AcDbEntity
  8
0
100
AcDbLine
 62
7
  6
BYLAYER
 10
38.9921759053
 20
52.3980807096
 11
48.6438528563
 21
52.3980807096
  0
LINE
  5
253
100
AcDbEntity
  8
0
100
AcDbLine
 62
7
  6
BYLAYER
 10
26.8253511354
 20
52.6266807096
 11
30.0766143808
 21
52.6266807096
  0
LINE
  5
254
100
AcDbEntity
  8
0
100
AcDbLine
 62
7
  6
BYLAYER
 10
57.5594143808
 20
52.6266807096
 11
64.0616259185
 21
52.6266807096
  0
LINE
  5
255
100
AcDbEntity
  8
0
100
AcDbLine
 62
7
  6
BYLAYER
 10
42.8329658338
 20
52.9060807096
 11
38.279489951
 21
52.9060807096
  0
LINE
  5
256
100
AcDbEntity
  8
0
100
AcDbLine
 62
7
  6
BYLAYER
 10
57.5594143808
 20
53.4140807096
 11
51.0570143808
 21
53.4140807096
  0
LINE
  5
257
100
AcDbEntity
  8
0
100
AcDbLine
 62
7
  6
BYLAYER
 10
36.5790143808
 20
53.4140807096
 11
30.0766143808
 21
53.4140807096
  0
LINE
  5
258
100
AcDbEntity
  8
0
100
AcDbLine
 62
7
  6
BYLAYER
 10
15.2684143808
 20
54.4300807096
 11
66.1700143808
 21
54.4300807096
  0
LINE
  5
259
100
AcDbEntity
  8
0
100
AcDbLine
 62
7
  6
BYLAYER
 10
38.9920143808
 20
52.9060807096
 11
38.9920143808
 21
52.3980807096
  0
LINE
  5
25A
100
AcDbEntity
  8
00_COMPONENTS_2
100
AcDbLine
 62
7
  6
BYLAYER
 10
39.5937988202
 20
20.6204807096
 11
39.5937988202
 21
7.8736807092
  0
LINE
  5
25B
100
AcDbEntity
  8
0
100
AcDbLine
 62
7
  6
BYLAYER
 10
40.5160143808
 20
83.2844807096
 11
40.5160143808
 21
107.9224807096
  0
LINE
  5
25C
100
AcDbEntity
  8
00_COMPONENTS_2
100
AcDbLine
 62
7
  6
BYLAYER
 10
40.6220468077
 20
20.6204807096
 11
40.6220468077
 21
7.8736807092
  0
LINE
  5
25D
100
AcDbEntity
  8
00_COMPONENTS_2
100
AcDbLine
 62
7
  6
BYLAYER
 10
41.3249856963
 20
20.6204807096
 11
41.3249856963
 21
7.8736807092
  0
LINE
  5
25E
100
AcDbEntity
  8
00_COMPONENTS_2
100
AcDbLine
 62
7
  6
BYLAYER
 10
41.5939883355
 20
7.8736807092
 11
41.5939883355
 21
20.6204807096
  0
LINE
  5
25F
100
AcDbEntity
  8
00_COMPONENTS_2
100
AcDbLine
 62
7
  6
BYLAYER
 10
42.7826401001
 20
20.6204807096
 11
42.7826401001
 21
7.8736807092
  0
LINE
  5
260
100
AcDbEntity
  8
0
100
AcDbLine
 62
7
  6
BYLAYER
 10
61.2939092033
 20
95.933838788
 11
61.1846065776
 21
95.7214900283
  0
LINE
  5
261
100
AcDbEntity
  8
0
100
AcDbLine
 62
7
  6
BYLAYER
 10
66.1700143808
 20
55.9540807096
 11
55.4004143808
 21
55.9540807096
  0
LINE
  5
262
100
AcDbEntity
  8
0
100
AcDbLine
 62
7
  6
BYLAYER
 10
69.3450143808
 20
55.9794807122
 11
57.9404143808
 21
55.9794807122
  0
LINE
  5
263
100
AcDbEntity
  8
0
100
AcDbLine
 62
7
  6
BYLAYER
 10
57.9404143808
 20
59.0274807122
 11
69.3450143808
 21
59.0274807122
  0
LINE
  5
264
100
AcDbEntity
  8
0
100
AcDbLine
 62
7
  6
BYLAYER
 10
42.8329658338
 20
52.9060807096
 11
42.8329658338
 21
54.4300807096
  0
LINE
  5
265
100
AcDbEntity
  8
00_COMPONENTS_2
100
AcDbLine
 62
7
  6
BYLAYER
 10
43.4889839599
 20
20.6204807096
 11
43.4889839599
 21
7.8736807092
  0
LINE
  5
266
100
AcDbEntity
  8
0
100
AcDbLine
 62
7
  6
BYLAYER
 10
43.8180143808
 20
52.3980807096
 11
43.8180143808
 21
51.1280807096
  0
LINE
  5
267
100
AcDbEntity
  8
00_COMPONENTS_2
100
AcDbLine
 62
7
  6
BYLAYER
 10
44.2167198476
 20
20.6204807096
 11
44.2167198476
 21
7.8736807092
  0
LINE
  5
268
100
AcDbEntity
  8
00_COMPONENTS_2
100
AcDbLine
 62
7
  6
BYLAYER
 10
44.8533886615
 20
7.8736807092
 11
44.8533886615
 21
20.6204807096
  0
LINE
  5
269
100
AcDbEntity
  8
00_COMPONENTS_2
100
AcDbLine
 62
7
  6
BYLAYER
 10
46.0420404262
 20
20.6204807096
 11
46.0420404262
 21
7.8736807092
  0
LINE
  5
26A
100
AcDbEntity
  8
00_COMPONENTS_2
100
AcDbLine
 62
7
  6
BYLAYER
 10
46.3783439916
 20
20.6204807096
 11
46.3783439916
 21
7.8736807092
  0
LINE
  5
26B
100
AcDbEntity
  8
0
100
AcDbLine
 62
7
  6
BYLAYER
 10
61.3462725355
 20
105.1286782663
 11
61.2424143808
 21
104.8661193321
  0
LINE
  5
26C
100
AcDbEntity
  8
0
100
AcDbLine
 62
7
  6
BYLAYER
 10
61.3462725355
 20
96.274145731
 11
61.2424143808
 21
96.0115867967
  0
LINE
  5
26D
100
AcDbEntity
  8
0
100
AcDbLine
 62
7
  6
BYLAYER
 10
65.9735920168
 20
102.8486360012
 11
66.7099669851
 21
104.2792357717
  0
LINE
  5
26E
100
AcDbEntity
  8
00_COMPONENTS_2
100
AcDbLine
 62
7
  6
BYLAYER
 10
47.0812828802
 20
20.6204807096
 11
47.0812828802
 21
7.8736807092
  0
LINE
  5
26F
100
AcDbEntity
  8
00_COMPONENTS_2
100
AcDbLine
 62
7
  6
BYLAYER
 10
48.0422299414
 20
7.8736807092
 11
48.0422299414
 21
20.6204807096
  0
LINE
  5
270
100
AcDbEntity
  8
0
100
AcDbLine
 62
7
  6
BYLAYER
 10
48.6440143808
 20
54.4300807096
 11
48.6440143808
 21
52.3980807096
  0
LINE
  5
271
100
AcDbEntity
  8
0
100
AcDbLine
 62
7
  6
BYLAYER
 10
48.8980143808
 20
51.1280807096
 11
48.8980143808
 21
54.4300807096
  0
LINE
  5
272
100
AcDbEntity
  8
00_COMPONENTS_2
100
AcDbLine
 62
7
  6
BYLAYER
 10
49.1498770527
 20
20.6204807096
 11
49.1498770527
 21
7.8736807092
  0
LINE
  5
273
100
AcDbEntity
  8
00_COMPONENTS_2
100
AcDbLine
 62
7
  6
BYLAYER
 10
49.7234595574
 20
20.6204807096
 11
49.7234595574
 21
7.8736807092
  0
LINE
  5
274
100
AcDbEntity
  8
0
100
AcDbLine
 62
7
  6
BYLAYER
 10
65.9735920168
 20
93.9941034658
 11
66.7099669851
 21
95.4247032364
  0
LINE
  5
275
100
AcDbEntity
  8
0
100
AcDbLine
 62
7
  6
BYLAYER
 10
69.3450143808
 20
64.48848071
 11
57.9404143808
 21
64.48848071
  0
LINE
  5
276
100
AcDbEntity
  8
0
100
AcDbLine
 62
7
  6
BYLAYER
 10
57.9404143808
 20
65.3032441059
 11
69.3450143808
 21
65.3032441059
  0
LINE
  5
277
100
AcDbEntity
  8
0
100
AcDbLine
 62
7
  6
BYLAYER
 10
57.9404143808
 20
66.7530075019
 11
69.3450143808
 21
66.7530075019
  0
LINE
  5
278
100
AcDbEntity
  8
00_COMPONENTS_2
100
AcDbLine
 62
7
  6
BYLAYER
 10
50.9431979117
 20
7.8736807092
 11
50.9431979117
 21
20.6204807096
  0
LINE
  5
279
100
AcDbEntity
  8
00_COMPONENTS_2
100
AcDbLine
 62
7
  6
BYLAYER
 10
51.0512187138
 20
37.0796807096
 11
51.0512187138
 21
31.6173319154
  0
LINE
  5
27A
100
AcDbEntity
  8
0
100
AcDbLine
 62
7
  6
BYLAYER
 10
51.0570143808
 20
54.4300807096
 11
51.0570143808
 21
53.4140807096
  0
LINE
  5
27B
100
AcDbEntity
  8
00_COMPONENTS_2
100
AcDbLine
 62
7
  6
BYLAYER
 10
51.8943560494
 20
20.6204807096
 11
51.8943560494
 21
7.8736807092
  0
LINE
  5
27C
100
AcDbEntity
  8
00_COMPONENTS_2
100
AcDbLine
 62
7
  6
BYLAYER
 10
51.9631899051
 20
20.6204807096
 11
51.9631899051
 21
7.8736807092
  0
LINE
  5
27D
100
AcDbEntity
  8
00_COMPONENTS_2
100
AcDbLine
 62
7
  6
BYLAYER
 10
53.3585963993
 20
7.8736807092
 11
53.3585963993
 21
20.6204807096
  0
LINE
  5
27E
100
AcDbEntity
  8
0
100
AcDbLine
 62
7
  6
BYLAYER
 10
53.7494143808
 20
83.2844807096
 11
53.7494143808
 21
107.9224807096
  0
LINE
  5
27F
100
AcDbEntity
  8
0
100
AcDbLine
 62
7
  6
BYLAYER
 10
53.7748143808
 20
83.2844807096
 11
53.7748143808
 21
107.9224807096
  0
LINE
  5
280
100
AcDbEntity
  8
00_COMPONENTS_2
100
AcDbLine
 62
7
  6
BYLAYER
 10
54.0884457082
 20
20.6204807096
 11
54.0884457082
 21
7.8736807092
  0
LINE
  5
281
100
AcDbEntity
  8
0
100
AcDbLine
 62
7
  6
BYLAYER
 10
69.3450143808
 20
67.1882886538
 11
57.9404143808
 21
67.1882886538
  0
LINE
  5
282
100
AcDbEntity
  8
0
100
AcDbLine
 62
7
  6
BYLAYER
 10
57.9404143808
 20
68.9231409166
 11
61.8639867571
 21
68.9231409166
  0
LINE
  5
283
100
AcDbEntity
  8
0
100
AcDbLine
 62
7
  6
BYLAYER
 10
63.6688420046
 20
68.9231409166
 11
69.3450143808
 21
68.9231409166
  0
LINE
  5
284
100
AcDbEntity
  8
0
100
AcDbLine
 62
7
  6
BYLAYER
 10
69.3450143808
 20
69.7995238609
 11
65.7066837426
 21
69.7995238609
  0
LINE
  5
285
100
AcDbEntity
  8
0
100
AcDbLine
 62
7
  6
BYLAYER
 10
59.8261450191
 20
69.7995238609
 11
57.9404143808
 21
69.7995238609
  0
LINE
  5
286
100
AcDbEntity
  8
00_COMPONENTS_2
100
AcDbLine
 62
7
  6
BYLAYER
 10
55.1238199889
 20
7.8736807092
 11
55.1238199889
 21
20.6204807096
  0
LINE
  5
287
100
AcDbEntity
  8
0
100
AcDbLine
 62
7
  6
BYLAYER
 10
55.4004143808
 20
55.9540807096
 11
55.4004143808
 21
83.2844807096
  0
LINE
  5
288
100
AcDbEntity
  8
00_COMPONENTS_2
100
AcDbLine
 62
7
  6
BYLAYER
 10
55.5826224447
 20
20.6204807096
 11
55.5826224447
 21
7.8736807092
  0
LINE
  5
289
100
AcDbEntity
  8
00_COMPONENTS_2
100
AcDbLine
 62
7
  6
BYLAYER
 10
56.11857161
 20
7.8736807092
 11
56.11857161
 21
20.6204807096
  0
LINE
  5
28A
100
AcDbEntity
  8
00_COMPONENTS_2
100
AcDbLine
 62
7
  6
BYLAYER
 10
56.2750605836
 20
20.6204807096
 11
56.2750605836
 21
7.8736807092
  0
LINE
  5
28B
100
AcDbEntity
  8
0
100
AcDbLine
 62
7
  6
BYLAYER
 10
56.3148143808
 20
107.9224807096
 11
56.3148143808
 21
92.9380292598
  0
LINE
  5
28C
100
AcDbEntity
  8
0
100
AcDbLine
 62
7
  6
BYLAYER
 10
56.3148143808
 20
90.8333772498
 11
56.3148143808
 21
83.2844807096
  0
LINE
  5
28D
100
AcDbEntity
  8
0
100
AcDbLine
 62
7
  6
BYLAYER
 10
57.5594143808
 20
52.6266807096
 11
57.5594143808
 21
54.4300807096
  0
LINE
  5
28E
100
AcDbEntity
  8
0
100
AcDbLine
 62
7
  6
BYLAYER
 10
57.6864143808
 20
83.2844807096
 11
57.6864143808
 21
55.9540807096
  0
LINE
  5
28F
100
AcDbEntity
  8
0
100
AcDbLine
 62
7
  6
BYLAYER
 10
57.9404143808
 20
55.9794807122
 11
57.9404143808
 21
72.5222833865
  0
LINE
  5
290
100
AcDbEntity
  8
0
100
AcDbLine
 62
7
  6
BYLAYER
 10
57.9404143808
 20
71.3870238609
 11
60.086035395
 21
71.3870238609
  0
LINE
  5
291
100
AcDbEntity
  8
0
100
AcDbLine
 62
7
  6
BYLAYER
 10
65.4467933666
 20
71.3870238609
 11
69.3450143808
 21
71.3870238609
  0
LINE
  5
292
100
AcDbEntity
  8
0
100
AcDbLine
 62
7
  6
BYLAYER
 10
69.3450143808
 20
72.3521409164
 11
57.9404143808
 21
72.3521409164
  0
LINE
  5
293
100
AcDbEntity
  8
0
100
AcDbLine
 62
7
  6
BYLAYER
 10
57.9404143808
 20
72.5222886536
 11
69.3450143808
 21
72.5222886536
  0
LINE
  5
294
100
AcDbEntity
  8
0
100
AcDbLine
 62
7
  6
BYLAYER
 10
58.8040143808
 20
46.2744807096
 11
58.8040143808
 21
39.8736807096
  0
LINE
  5
295
100
AcDbEntity
  8
0
100
AcDbLine
 62
7
  6
BYLAYER
 10
59.2866143808
 20
55.9540807096
 11
59.2866143808
 21
55.9794807122
  0
LINE
  5
296
100
AcDbEntity
  8
0
100
AcDbLine
 62
7
  6
BYLAYER
 10
59.2866143808
 20
72.5222886536
 11
59.2866143808
 21
83.2844807096
  0
LINE
  5
297
100
AcDbEntity
  8
00_COMPONENTS_2
100
AcDbLine
 62
7
  6
BYLAYER
 10
59.8180143848
 20
29.4876751077
 11
59.8180143848
 21
20.8744807096
  0
LINE
  5
298
100
AcDbEntity
  8
0
100
AcDbLine
 62
7
  6
BYLAYER
 10
60.086035395
 20
69.6273408909
 11
60.086035395
 21
71.3870238609
  0
LINE
  5
299
100
AcDbEntity
  8
0
100
AcDbLine
 62
7
  6
BYLAYER
 10
61.2424143808
 20
92.5842032548
 11
61.2424143808
 21
95.1197097774
  0
LINE
  5
29A
100
AcDbEntity
  8
0
100
AcDbLine
 62
7
  6
BYLAYER
 10
61.2424143808
 20
96.0115867967
 11
61.2424143808
 21
99.3732768824
  0
LINE
  5
29B
100
AcDbEntity
  8
0
100
AcDbLine
 62
7
  6
BYLAYER
 10
61.2424143808
 20
101.8518275718
 11
61.2424143808
 21
103.9742423127
  0
LINE
  5
29C
100
AcDbEntity
  8
0
100
AcDbLine
 62
7
  6
BYLAYER
 10
61.2424143808
 20
104.8661193321
 11
61.2424143808
 21
107.9224807096
  0
LINE
  5
29D
100
AcDbEntity
  8
00_COMPONENTS_2
100
AcDbLine
 62
7
  6
BYLAYER
 10
61.2805143808
 20
37.0796807096
 11
61.2805143808
 21
30.786655476
  0
LINE
  5
29E
100
AcDbEntity
  8
0
100
AcDbLine
 62
7
  6
BYLAYER
 10
61.8180143808
 20
49.8619807096
 11
61.8180143808
 21
47.8619807096
  0
LINE
  5
29F
100
AcDbEntity
  8
00_COMPONENTS_2
100
AcDbLine
 62
7
  6
BYLAYER
 10
62.2330143808
 20
38.3496807096
 11
62.2330143808
 21
37.0796807096
  0
LINE
  5
2A0
100
AcDbEntity
  8
00_COMPONENTS_2
100
AcDbLine
 62
7
  6
BYLAYER
 10
62.8680143808
 20
39.8736807096
 11
62.8680143808
 21
38.3496807096
  0
LINE
  5
2A1
100
AcDbEntity
  8
0
100
AcDbLine
 62
7
  6
BYLAYER
 10
63.3180143808
 20
51.1280807096
 11
63.3180143808
 21
49.8619807096
  0
LINE
  5
2A2
100
AcDbEntity
  8
0
100
AcDbLine
 62
7
  6
BYLAYER
 10
63.6300143808
 20
54.4300807096
 11
63.6300143808
 21
55.9540807096
  0
LINE
  5
2A3
100
AcDbEntity
  8
0
100
AcDbLine
 62
7
  6
BYLAYER
 10
63.6617643808
 20
47.8619807096
 11
63.6617643808
 21
46.2744807096
  0
LINE
  5
2A4
100
AcDbEntity
  8
0
100
AcDbLine
 62
7
  6
BYLAYER
 10
64.0364143808
 20
107.9224807096
 11
64.0364143808
 21
109.7258807096
  0
LINE
  5
2A5
100
AcDbEntity
  8
0
100
AcDbLine
 62
7
  6
BYLAYER
 10
64.0618143808
 20
54.4300807096
 11
64.0618143808
 21
52.6266807096
  0
LINE
  5
2A6
100
AcDbEntity
  8
0
100
AcDbLine
 62
7
  6
BYLAYER
 10
64.3412143808
 20
54.4300807096
 11
64.3412143808
 21
48.5880807096
  0
LINE
  5
2A7
100
AcDbEntity
  8
0
100
AcDbLine
 62
7
  6
BYLAYER
 10
64.5698143808
 20
55.9540807096
 11
64.5698143808
 21
55.9794807122
  0
LINE
  5
2A8
100
AcDbEntity
  8
0
100
AcDbLine
 62
7
  6
BYLAYER
 10
64.5698143808
 20
72.5222886536
 11
64.5698143808
 21
83.2844807096
  0
LINE
  5
2A9
100
AcDbEntity
  8
0
100
AcDbLine
 62
7
  6
BYLAYER
 10
65.4467933666
 20
71.3870238609
 11
65.4467933666
 21
69.6273408909
  0
LINE
  5
2AA
100
AcDbEntity
  8
0
100
AcDbLine
 62
7
  6
BYLAYER
 10
66.1700143808
 20
55.9540807096
 11
66.1700143808
 21
48.5880807096
  0
LINE
  5
2AB
100
AcDbEntity
  8
0
100
AcDbLine
 62
7
  6
BYLAYER
 10
67.4908143808
 20
107.9224807096
 11
67.4908143808
 21
109.7258807096
  0
LINE
  5
2AC
100
AcDbEntity
  8
0
100
AcDbLine
 62
7
  6
BYLAYER
 10
67.7448143808
 20
102.8486360012
 11
67.7448143808
 21
101.4804691962
  0
LINE
  5
2AD
100
AcDbEntity
  8
0
100
AcDbLine
 62
7
  6
BYLAYER
 10
67.7448143808
 20
93.9941034658
 11
67.7448143808
 21
92.6259366608
  0
LINE
  5
2AE
100
AcDbEntity
  8
0
100
AcDbLine
 62
7
  6
BYLAYER
 10
69.0148143808
 20
83.410301454
 11
69.0148143808
 21
107.9224807096
  0
LINE
  5
2AF
100
AcDbEntity
  8
0
100
AcDbLine
 62
7
  6
BYLAYER
 10
69.3450143808
 20
55.9794807122
 11
69.3450143808
 21
72.5222834032
  0
LINE
  5
2B0
100
AcDbEntity
  8
0
100
AcDbLine
 62
7
  6
BYLAYER
 10
64.5696106726
 20
83.2844807096
 11
15.2684143808
 21
83.2844807096
  0
LINE
  5
2B1
100
AcDbEntity
  8
0
100
AcDbLine
 62
7
  6
BYLAYER
 10
53.7494143808
 20
83.3098807096
 11
53.7748143808
 21
83.3098807096
  0
LINE
  5
2B2
100
AcDbEntity
  8
0
100
AcDbLine
 62
7
  6
BYLAYER
 10
56.3148143808
 20
83.410301454
 11
69.0148143808
 21
83.410301454
  0
LINE
  5
2B3
100
AcDbEntity
  8
00_COMPONENTS_2
100
AcDbLine
 62
7
  6
BYLAYER
 10
61.2805143808
 20
30.786655476
 11
60.2117143848
 21
30.1695835106
  0
LINE
  5
2B4
100
AcDbEntity
  8
0
100
AcDbLine
 62
7
  6
BYLAYER
 10
56.3148143808
 20
90.8333772498
 11
53.7748143808
 21
90.8333772498
  0
LINE
  5
2B5
100
AcDbEntity
  8
0
100
AcDbLine
 62
7
  6
BYLAYER
 10
53.7748143808
 20
91.1872032548
 11
63.9564499813
 21
91.1872032548
  0
LINE
  5
2B6
100
AcDbEntity
  8
0
100
AcDbLine
 62
7
  6
BYLAYER
 10
53.7748143808
 20
92.5842032548
 11
61.2424143808
 21
92.5842032548
  0
LINE
  5
2B7
100
AcDbEntity
  8
0
100
AcDbLine
 62
7
  6
BYLAYER
 10
53.7748143808
 20
92.9380292599
 11
56.3148143808
 21
92.9380292599
  0
LINE
  5
2B8
100
AcDbEntity
  8
0
100
AcDbLine
 62
7
  6
BYLAYER
 10
65.9735920168
 20
93.9941034658
 11
67.7448143808
 21
93.9941034658
  0
LINE
  5
2B9
100
AcDbEntity
  8
0
100
AcDbLine
 62
7
  6
BYLAYER
 10
69.0148143808
 20
89.8853531493
 11
63.9564499813
 21
91.1872032548
  0
LINE
  5
2BA
100
AcDbEntity
  8
0
100
AcDbLine
 62
7
  6
BYLAYER
 10
63.9564499813
 20
91.1872032548
 11
61.2424143808
 21
92.5842032548
  0
LINE
  5
2BB
100
AcDbEntity
  8
00_COMPONENTS_2
100
AcDbLine
 62
7
  6
BYLAYER
 10
59.8180143848
 20
20.8744807096
 11
59.5640143848
 21
20.6204807096
  0
LINE
  5
2BC
100
AcDbEntity
  8
0
100
AcDbLine
 62
7
  6
BYLAYER
 10
56.3148143808
 20
99.3732768824
 11
61.2424143808
 21
99.3732768824
  0
LINE
  5
2BD
100
AcDbEntity
  8
0
100
AcDbLine
 62
7
  6
BYLAYER
 10
69.0148143808
 20
92.2990820684
 11
66.7099669851
 21
92.8922710102
  0
LINE
  5
2BE
100
AcDbEntity
  8
0
100
AcDbLine
 62
7
  6
BYLAYER
 10
66.7099669851
 20
95.4247032364
 11
69.0148143808
 21
94.8315142945
  0
LINE
  5
2BF
100
AcDbEntity
  8
0
100
AcDbLine
 62
7
  6
BYLAYER
 10
56.3148143808
 20
101.8518275718
 11
61.2424143808
 21
101.8518275718
  0
LINE
  5
2C0
100
AcDbEntity
  8
0
100
AcDbLine
 62
7
  6
BYLAYER
 10
65.9735920168
 20
102.8486360012
 11
67.7448143808
 21
102.8486360012
  0
LINE
  5
2C1
100
AcDbEntity
  8
0
100
AcDbLine
 62
7
  6
BYLAYER
 10
69.0148143808
 20
97.3729267768
 11
61.2424143808
 21
99.3732768824
  0
LINE
  5
2C2
100
AcDbEntity
  8
0
100
AcDbLine
 62
7
  6
BYLAYER
 10
69.0148143808
 20
99.8514774662
 11
61.2424143808
 21
101.8518275718
  0
LINE
  5
2C3
100
AcDbEntity
  8
0
100
AcDbLine
 62
7
  6
BYLAYER
 10
53.7748143808
 20
107.8970807096
 11
53.7494143808
 21
107.8970807096
  0
LINE
  5
2C4
100
AcDbEntity
  8
0
100
AcDbLine
 62
7
  6
BYLAYER
 10
40.5160143808
 20
107.9224807096
 11
69.0148143808
 21
107.9224807096
  0
LINE
  5
2C5
100
AcDbEntity
  8
0
100
AcDbLine
 62
7
  6
BYLAYER
 10
69.0148143808
 20
101.1536146038
 11
66.7099669851
 21
101.7468035456
  0
LINE
  5
2C6
100
AcDbEntity
  8
0
100
AcDbLine
 62
7
  6
BYLAYER
 10
66.7099669851
 20
104.2792357717
 11
69.0148143808
 21
103.6860468299
  0
LINE
  5
2C7
100
AcDbEntity
  8
0
100
AcDbLine
 62
7
  6
BYLAYER
 10
67.4908143808
 20
109.7258807096
 11
64.0364143808
 21
109.7258807096
  0
ARC
  5
2C8
100
AcDbEntity
  8
00_COMPONENTS_2
100
AcDbCircle
 62
7
  6
BYLAYER
 10
60.6054143848
 20
29.4876751077
 40
0.7874
100
AcDbArc
 50
120.0
 51
180.0
  0
ARC
  5
2C9
100
AcDbEntity
  8
00_COMPONENTS_2
100
AcDbCircle
 62
7
  6
BYLAYER
 10
27.0306143768
 20
29.4876751077
 40
0.7874
100
AcDbArc
 50
0.0
 51
60.0
  0
SPLINE
  5
2CA
100
AcDbEntity
  8
0
100
AcDbSpline
 62
7
  6
BYLAYER
 70
0
 71
3
 72
14
 73
10
 74
0
 42
0.0000001
 43
0.0000001
 44
0.0000000001
 40
0.0
 40
0.0
 40
0.0
 40
0.0
 40
0.2805815934
 40
0.4161582185
 40
0.5462378553
 40
0.6696948191
 40
0.78608161
 40
0.8957563072
 40
1.0
 40
1.0
 40
1.0
 40
1.0
 10
63.5538143808
 20
102.8396557451
 30
0.0
 10
63.8400699501
 20
102.8396557451
 30
0.0
 10
64.2673856114
 20
102.7890612696
 30
0.0
 10
64.7992837844
 20
102.6188711386
 30
0.0
 10
65.1586989034
 20
102.4469573424
 30
0.0
 10
65.472213075
 20
102.2340693625
 30
0.0
 10
65.7308513476
 20
101.9857765188
 30
0.0
 10
65.9266667181
 20
101.7088650939
 30
0.0
 10
66.0126390648
 20
101.5058884855
 30
0.0
 10
66.0422083088
 20
101.4037300296
 30
0.0
  0
SPLINE
  5
2CB
100
AcDbEntity
  8
0
100
AcDbSpline
 62
7
  6
BYLAYER
 70
0
 71
3
 72
9
 73
5
 74
0
 42
0.0000001
 43
0.0000001
 44
0.0000000001
 40
0.0
 40
0.0
 40
0.0
 40
0.0
 40
0.24161918
 40
1.0
 40
1.0
 40
1.0
 40
1.0
 10
62.1458286165
 20
102.5384560918
 30
0.0
 10
62.2512217966
 20
102.5880851893
 30
0.0
 10
62.6999953947
 20
102.7662543233
 30
0.0
 10
63.1881706132
 20
102.8396557451
 30
0.0
 10
63.5538143808
 20
102.8396557451
 30
0.0
  0
SPLINE
  5
2CC
100
AcDbEntity
  8
0
100
AcDbSpline
 62
7
  6
BYLAYER
 70
0
 71
3
 72
14
 73
10
 74
0
 42
0.0000001
 43
0.0000001
 44
0.0000000001
 40
0.0
 40
0.0
 40
0.0
 40
0.0
 40
0.2805815934
 40
0.4161582185
 40
0.5462378553
 40
0.6696948191
 40
0.78608161
 40
0.8957563072
 40
1.0
 40
1.0
 40
1.0
 40
1.0
 10
63.5538143808
 20
93.9851232097
 30
0.0
 10
63.8400699501
 20
93.9851232097
 30
0.0
 10
64.2673856114
 20
93.9345287342
 30
0.0
 10
64.7992837844
 20
93.7643386032
 30
0.0
 10
65.1586989034
 20
93.592424807
 30
0.0
 10
65.472213075
 20
93.3795368271
 30
0.0
 10
65.7308513476
 20
93.1312439834
 30
0.0
 10
65.9266667181
 20
92.8543325585
 30
0.0
 10
66.0126390648
 20
92.6513559501
 30
0.0
 10
66.0422083087
 20
92.5491974942
 30
0.0
  0
SPLINE
  5
2CD
100
AcDbEntity
  8
0
100
AcDbSpline
 62
7
  6
BYLAYER
 70
0
 71
3
 72
9
 73
5
 74
0
 42
0.0000001
 43
0.0000001
 44
0.0000000001
 40
0.0
 40
0.0
 40
0.0
 40
0.0
 40
0.24161918
 40
1.0
 40
1.0
 40
1.0
 40
1.0
 10
62.1458286165
 20
93.6839235564
 30
0.0
 10
62.2512217966
 20
93.7335526539
 30
0.0
 10
62.6999953947
 20
93.9117217879
 30
0.0
 10
63.1881706132
 20
93.9851232097
 30
0.0
 10
63.5538143808
 20
93.9851232097
 30
0.0
  0
SPLINE
  5
2CE
100
AcDbEntity
  8
0
100
AcDbSpline
 62
7
  6
BYLAYER
 70
0
 71
3
 72
13
 73
9
 74
0
 42
0.0000001
 43
0.0000001
 44
0.0000000001
 40
0.0
 40
0.0
 40
0.0
 40
0.0
 40
0.2826505823
 40
0.5450026185
 40
0.6674178343
 40
0.7837247994
 40
0.8943579211
 40
1.0
 40
1.0
 40
1.0
 40
1.0
 10
64.2030112853
 20
101.3862195714
 30
0.0
 10
64.4425407665
 20
101.3245728699
 30
0.0
 10
64.9154523532
 20
101.2438980114
 30
0.0
 10
65.5040619205
 20
101.2575847424
 30
0.0
 10
65.9348555773
 20
101.3444686469
 30
0.0
 10
66.2252672824
 20
101.4429755828
 30
0.0
 10
66.4857643618
 20
101.5749845116
 30
0.0
 10
66.6400069179
 20
101.686377937
 30
0.0
 10
66.7099669851
 20
101.7468035456
 30
0.0
  0
SPLINE
  5
2CF
100
AcDbEntity
  8
0
100
AcDbSpline
 62
7
  6
BYLAYER
 70
0
 71
3
 72
13
 73
9
 74
0
 42
0.0000001
 43
0.0000001
 44
0.0000000001
 40
0.0
 40
0.0
 40
0.0
 40
0.0
 40
0.2196670475
 40
0.3409552445
 40
0.4682876182
 40
0.5999787813
 40
0.7340116522
 40
1.0
 40
1.0
 40
1.0
 40
1.0
 10
61.2424143808
 20
103.9742423127
 30
0.0
 10
61.3149127864
 20
103.6830431501
 30
0.0
 10
61.5220456896
 20
103.2528193289
 30
0.0
 10
61.9152681417
 20
102.7475059837
 30
0.0
 10
62.2864312213
 20
102.3815694075
 30
0.0
 10
62.7128094668
 20
102.0530912902
 30
0.0
 10
63.3362285119
 20
101.6783684528
 30
0.0
 10
63.851110842
 20
101.4767867178
 30
0.0
 10
64.2030112853
 20
101.3862195714
 30
0.0
  0
SPLINE
  5
2D0
100
AcDbEntity
  8
0
100
AcDbSpline
 62
7
  6
BYLAYER
 70
0
 71
3
 72
13
 73
9
 74
0
 42
0.0000001
 43
0.0000001
 44
0.0000000001
 40
0.0
 40
0.0
 40
0.0
 40
0.0
 40
0.2826505823
 40
0.5450026185
 40
0.6674178343
 40
0.7837247994
 40
0.8943579211
 40
1.0
 40
1.0
 40
1.0
 40
1.0
 10
64.2030112853
 20
92.531687036
 30
0.0
 10
64.4425407665
 20
92.4700403345
 30
0.0
 10
64.9154523532
 20
92.389365476
 30
0.0
 10
65.5040619205
 20
92.4030522071
 30
0.0
 10
65.9348555773
 20
92.4899361116
 30
0.0
 10
66.2252672824
 20
92.5884430474
 30
0.0
 10
66.4857643618
 20
92.7204519762
 30
0.0
 10
66.6400069179
 20
92.8318454016
 30
0.0
 10
66.7099669851
 20
92.8922710102
 30
0.0
  0
SPLINE
  5
2D1
100
AcDbEntity
  8
0
100
AcDbSpline
 62
7
  6
BYLAYER
 70
0
 71
3
 72
13
 73
9
 74
0
 42
0.0000001
 43
0.0000001
 44
0.0000000001
 40
0.0
 40
0.0
 40
0.0
 40
0.0
 40
0.2196670475
 40
0.3409552445
 40
0.4682876182
 40
0.5999787813
 40
0.7340116522
 40
1.0
 40
1.0
 40
1.0
 40
1.0
 10
61.2424143808
 20
95.1197097774
 30
0.0
 10
61.3149127864
 20
94.8285106147
 30
0.0
 10
61.5220456896
 20
94.3982867935
 30
0.0
 10
61.9152681417
 20
93.8929734483
 30
0.0
 10
62.2864312213
 20
93.5270368721
 30
0.0
 10
62.7128094668
 20
93.1985587548
 30
0.0
 10
63.3362285119
 20
92.8238359175
 30
0.0
 10
63.851110842
 20
92.6222541825
 30
0.0
 10
64.2030112853
 20
92.531687036
 30
0.0
  0
SPLINE
  5
2D2
100
AcDbEntity
  8
0
100
AcDbSpline
 62
7
  6
BYLAYER
 70
0
 71
3
 72
14
 73
10
 74
0
 42
0.0000001
 43
0.0000001
 44
0.0000000001
 40
0.0
 40
0.0
 40
0.0
 40
0.0
 40
0.2918771273
 40
0.4278593018
 40
0.5558925859
 40
0.6758946094
 40
0.788645981
 40
0.8958219613
 40
1.0
 40
1.0
 40
1.0
 40
1.0
 10
64.2030112853
 20
97.0756966333
 30
0.0
 10
63.9024936726
 20
97.1530395954
 30
0.0
 10
63.4469971538
 20
97.2211532611
 30
0.0
 10
62.8551838338
 20
97.1937658962
 30
0.0
 10
62.4525992382
 20
97.1166057878
 30
0.0
 10
62.0907816865
 20
96.9836153561
 30
0.0
 10
61.7784395154
 20
96.7970969648
 30
0.0
 10
61.5238601423
 20
96.5609666322
 30
0.0
 10
61.3968593406
 20
96.3726759295
 30
0.0
 10
61.3461819555
 20
96.2741923492
 30
0.0
  0
SPLINE
  5
2D3
100
AcDbEntity
  8
0
100
AcDbSpline
 62
7
  6
BYLAYER
 70
0
 71
3
 72
11
 73
7
 74
0
 42
0.0000001
 43
0.0000001
 44
0.0000000001
 40
0.0
 40
0.0
 40
0.0
 40
0.0
 40
0.2380504118
 40
0.489313856
 40
0.7461184123
 40
1.0
 40
1.0
 40
1.0
 40
1.0
 10
66.7099669851
 20
95.4247032363
 30
0.0
 10
66.5676061004
 20
95.6209402199
 30
0.0
 10
66.2320283812
 20
95.9941440794
 30
0.0
 10
65.6303366839
 20
96.4636701397
 30
0.0
 10
64.9466020291
 20
96.837416033
 30
0.0
 10
64.4534109853
 20
97.011252309
 30
0.0
 10
64.2030112853
 20
97.0756966333
 30
0.0
  0
SPLINE
  5
2D4
100
AcDbEntity
  8
0
100
AcDbSpline
 62
7
  6
BYLAYER
 70
0
 71
3
 72
14
 73
10
 74
0
 42
0.0000001
 43
0.0000001
 44
0.0000000001
 40
0.0
 40
0.0
 40
0.0
 40
0.0
 40
0.2918771273
 40
0.4278593018
 40
0.5558925859
 40
0.6758946094
 40
0.788645981
 40
0.8958219613
 40
1.0
 40
1.0
 40
1.0
 40
1.0
 10
64.2030112853
 20
105.9302291687
 30
0.0
 10
63.9024936726
 20
106.0075721307
 30
0.0
 10
63.4469971538
 20
106.0756857964
 30
0.0
 10
62.8551838338
 20
106.0482984316
 30
0.0
 10
62.4525992382
 20
105.9711383232
 30
0.0
 10
62.0907816865
 20
105.8381478915
 30
0.0
 10
61.7784395154
 20
105.6516295001
 30
0.0
 10
61.5238601423
 20
105.4154991675
 30
0.0
 10
61.3968593406
 20
105.2272084649
 30
0.0
 10
61.3461819555
 20
105.1287248846
 30
0.0
  0
SPLINE
  5
2D5
100
AcDbEntity
  8
0
100
AcDbSpline
 62
7
  6
BYLAYER
 70
0
 71
3
 72
11
 73
7
 74
0
 42
0.0000001
 43
0.0000001
 44
0.0000000001
 40
0.0
 40
0.0
 40
0.0
 40
0.0
 40
0.2380504118
 40
0.489313856
 40
0.7461184123
 40
1.0
 40
1.0
 40
1.0
 40
1.0
 10
66.7099669851
 20
104.2792357717
 30
0.0
 10
66.5676061004
 20
104.4754727553
 30
0.0
 10
66.2320283812
 20
104.8486766148
 30
0.0
 10
65.6303366839
 20
105.3182026751
 30
0.0
 10
64.9466020291
 20
105.6919485684
 30
0.0
 10
64.4534109853
 20
105.8657848444
 30
0.0
 10
64.2030112853
 20
105.9302291687
 30
0.0
  0
SPLINE
  5
2D6
100
AcDbEntity
  8
00_COMPONENTS_2
100
AcDbSpline
 62
7
  6
BYLAYER
 70
0
 71
3
 72
15
 73
11
 74
0
 42
0.0000001
 43
0.0000001
 44
0.0000000001
 40
0.0
 40
0.0
 40
0.0
 40
0.0
 40
0.1262643924
 40
0.2515123322
 40
0.3759716731
 40
0.5
 40
0.6240283269
 40
0.7484876678
 40
0.8737356076
 40
1.0
 40
1.0
 40
1.0
 40
1.0
 10
51.0512187138
 20
31.6173319154
 30
0.0
 10
51.46906854
 20
31.4867706781
 30
0.0
 10
52.3094280503
 20
31.2513216319
 30
0.0
 10
53.5870702001
 20
30.9871121617
 30
0.0
 10
54.8739359871
 20
30.8236288403
 30
0.0
 10
56.1658665473
 20
30.768219141
 30
0.0
 10
57.4577971075
 20
30.8236288403
 30
0.0
 10
58.7446628945
 20
30.9871121617
 30
0.0
 10
60.0223050444
 20
31.2513216319
 30
0.0
 10
60.8626645546
 20
31.4867706781
 30
0.0
 10
61.2805143808
 20
31.6173319154
 30
0.0
  0
SPLINE
  5
2D7
100
AcDbEntity
  8
00_COMPONENTS_2
100
AcDbSpline
 62
7
  6
BYLAYER
 70
0
 71
3
 72
15
 73
11
 74
0
 42
0.0000001
 43
0.0000001
 44
0.0000000001
 40
0.0
 40
0.0
 40
0.0
 40
0.0
 40
0.12500029
 40
0.2500023334
 40
0.3750011493
 40
0.5
 40
0.6249988507
 40
0.7499976666
 40
0.87499971
 40
1.0
 40
1.0
 40
1.0
 40
1.0
 10
36.5848100479
 20
31.6173319154
 30
0.0
 10
37.1783679329
 20
31.486189822
 30
0.0
 10
38.3715083554
 20
31.2500686351
 30
0.0
 10
40.1768120319
 20
30.9864545266
 30
0.0
 10
41.9941496691
 20
30.8234751598
 30
0.0
 10
43.8180143808
 20
30.7682639233
 30
0.0
 10
45.6418790926
 20
30.8234751598
 30
0.0
 10
47.4592167298
 20
30.9864545266
 30
0.0
 10
49.2645204062
 20
31.2500686351
 30
0.0
 10
50.4576608288
 20
31.486189822
 30
0.0
 10
51.0512187138
 20
31.6173319154
 30
0.0
  0
SPLINE
  5
2D8
100
AcDbEntity
  8
00_COMPONENTS_2
100
AcDbSpline
 62
7
  6
BYLAYER
 70
0
 71
3
 72
15
 73
11
 74
0
 42
0.0000001
 43
0.0000001
 44
0.0000000001
 40
0.0
 40
0.0
 40
0.0
 40
0.0
 40
0.1262643924
 40
0.2515123322
 40
0.3759716731
 40
0.5
 40
0.6240283269
 40
0.7484876678
 40
0.8737356076
 40
1.0
 40
1.0
 40
1.0
 40
1.0
 10
26.3555143808
 20
31.6173319154
 30
0.0
 10
26.7733642071
 20
31.4867706781
 30
0.0
 10
27.6137237173
 20
31.2513216319
 30
0.0
 10
28.8913658672
 20
30.9871121617
 30
0.0
 10
30.1782316542
 20
30.8236288403
 30
0.0
 10
31.4701622144
 20
30.768219141
 30
0.0
 10
32.7620927745
 20
30.8236288403
 30
0.0
 10
34.0489585616
 20
30.9871121617
 30
0.0
 10
35.3266007114
 20
31.2513216319
 30
0.0
 10
36.1669602217
 20
31.4867706781
 30
0.0
 10
36.5848100479
 20
31.6173319154
 30
0.0
  0
SPLINE
  5
2D9
100
AcDbEntity
  8
0
100
AcDbSpline
 62
7
  6
BYLAYER
 70
0
 71
3
 72
9
 73
5
 74
0
 42
0.0000001
 43
0.0000001
 44
0.0000000001
 40
0.0
 40
0.0
 40
0.0
 40
0.0
 40
0.2468220982
 40
1.0
 40
1.0
 40
1.0
 40
1.0
 10
63.668842006
 20
68.9231409168
 30
0.0
 10
63.5951128677
 20
68.9124447153
 30
0.0
 10
63.2958280726
 20
68.8734236602
 30
0.0
 10
62.9937541727
 20
68.8533794702
 30
0.0
 10
62.7664143808
 20
68.8533794702
 30
0.0
  0
SPLINE
  5
2DA
100
AcDbEntity
  8
0
100
AcDbSpline
 62
7
  6
BYLAYER
 70
0
 71
3
 72
9
 73
5
 74
0
 42
0.0000001
 43
0.0000001
 44
0.0000000001
 40
0.0
 40
0.0
 40
0.0
 40
0.0
 40
0.2523130281
 40
1.0
 40
1.0
 40
1.0
 40
1.0
 10
62.7664143808
 20
68.8533794702
 30
0.0
 10
62.6902503406
 20
68.8533794702
 30
0.0
 10
62.3883904412
 20
68.8602092151
 30
0.0
 10
62.0873477536
 20
68.8907369812
 30
0.0
 10
61.8639867557
 20
68.9231409168
 30
0.0
  0
SPLINE
  5
2DB
100
AcDbEntity
  8
0
100
AcDbSpline
 62
7
  6
BYLAYER
 70
0
 71
3
 72
11
 73
7
 74
0
 42
0.0000001
 43
0.0000001
 44
0.0000000001
 40
0.0
 40
0.0
 40
0.0
 40
0.0
 40
0.2897042487
 40
0.5568703207
 40
0.7946958813
 40
1.0
 40
1.0
 40
1.0
 40
1.0
 10
63.6688420046
 20
68.9231409166
 30
0.0
 10
63.8843110453
 20
68.9543999322
 30
0.0
 10
64.2956950808
 20
69.0371706023
 30
0.0
 10
64.8634886687
 20
69.2285622589
 30
0.0
 10
65.3395288939
 20
69.4750194158
 30
0.0
 10
65.6020116657
 20
69.6861635984
 30
0.0
 10
65.7066837426
 20
69.7995238609
 30
0.0
  0
SPLINE
  5
2DC
100
AcDbEntity
  8
0
100
AcDbSpline
 62
7
  6
BYLAYER
 70
0
 71
3
 72
11
 73
7
 74
0
 42
0.0000001
 43
0.0000001
 44
0.0000000001
 40
0.0
 40
0.0
 40
0.0
 40
0.0
 40
0.2053041187
 40
0.4431296793
 40
0.7102957513
 40
1.0
 40
1.0
 40
1.0
 40
1.0
 10
59.8261450191
 20
69.7995238609
 30
0.0
 10
59.930817096
 20
69.6861635984
 30
0.0
 10
60.1932998678
 20
69.4750194158
 30
0.0
 10
60.669340093
 20
69.2285622589
 30
0.0
 10
61.2371336809
 20
69.0371706023
 30
0.0
 10
61.6485177164
 20
68.9543999322
 30
0.0
 10
61.8639867571
 20
68.9231409166
 30
0.0
  0
SPLINE
  5
2DD
100
AcDbEntity
  8
0
100
AcDbSpline
 62
7
  6
BYLAYER
 70
0
 71
3
 72
12
 73
8
 74
0
 42
0.0000001
 43
0.0000001
 44
0.0000000001
 40
0.0
 40
0.0
 40
0.0
 40
0.0
 40
0.2783505186
 40
0.544473749
 40
0.7875607277
 40
0.897994421
 40
1.0
 40
1.0
 40
1.0
 40
1.0
 10
62.7664143808
 20
72.097503986
 30
0.0
 10
62.5054031471
 20
72.097503986
 30
0.0
 10
61.9942151374
 20
72.0669142781
 30
0.0
 10
61.2664757285
 20
71.9308757431
 30
0.0
 10
60.7133662534
 20
71.7436083614
 30
0.0
 10
60.3311303103
 20
71.5516569482
 30
0.0
 10
60.1630208558
 20
71.4437902154
 30
0.0
 10
60.086035395
 20
71.3870238609
 30
0.0
  0
SPLINE
  5
2DE
100
AcDbEntity
  8
0
100
AcDbSpline
 62
7
  6
BYLAYER
 70
0
 71
3
 72
12
 73
8
 74
0
 42
0.0000001
 43
0.0000001
 44
0.0000000001
 40
0.0
 40
0.0
 40
0.0
 40
0.0
 40
0.102005579
 40
0.2124392723
 40
0.455526251
 40
0.7216494814
 40
1.0
 40
1.0
 40
1.0
 40
1.0
 10
65.4467933666
 20
71.3870238609
 30
0.0
 10
65.3698079058
 20
71.4437902154
 30
0.0
 10
65.2016984514
 20
71.5516569482
 30
0.0
 10
64.8194625083
 20
71.7436083614
 30
0.0
 10
64.2663530332
 20
71.9308757431
 30
0.0
 10
63.5386136243
 20
72.0669142781
 30
0.0
 10
63.0274256146
 20
72.097503986
 30
0.0
 10
62.7664143808
 20
72.097503986
 30
0.0
  0
ELLIPSE
  5
2DF
100
AcDbEntity
  8
0
100
AcDbEllipse
 62
7
  6
BYLAYER
 10
64.5952143808
 20
104.4201808224
 30
0.0
 11
3.4193096007
 21
0.0
 31
0.0
 40
0.6644630244
 41
2.9440347355
 42
3.3391505717
  0
ELLIPSE
  5
2E0
100
AcDbEntity
  8
0
100
AcDbEllipse
 62
7
  6
BYLAYER
 10
64.1329721833
 20
103.5221552103
 30
0.0
 11
3.4193096007
 21
-0.0
 31
0.0
 40
0.6644630244
 41
2.5504474514
 42
2.6099721559
  0
ELLIPSE
  5
2E1
100
AcDbEntity
  8
0
100
AcDbEllipse
 62
7
  6
BYLAYER
 10
63.1345290367
 20
101.5824198882
 30
0.0
 11
3.4193096007
 21
-0.0
 31
0.0
 40
0.6644630244
 41
0.5911452022
 42
2.1032571002
  0
ELLIPSE
  5
2E2
100
AcDbEntity
  8
0
100
AcDbEllipse
 62
7
  6
BYLAYER
 10
64.5952143808
 20
95.565648287
 30
0.0
 11
3.4193096007
 21
-0.0
 31
0.0
 40
0.6644630244
 41
2.9440347355
 42
3.3391505717
  0
ELLIPSE
  5
2E3
100
AcDbEntity
  8
0
100
AcDbEllipse
 62
7
  6
BYLAYER
 10
64.1329721833
 20
94.6676226749
 30
0.0
 11
3.4193096007
 21
0.0
 31
0.0
 40
0.6644630244
 41
2.5504474514
 42
2.6099721559
  0
ELLIPSE
  5
2E4
100
AcDbEntity
  8
0
100
AcDbEllipse
 62
7
  6
BYLAYER
 10
63.1345290367
 20
92.7278873528
 30
0.0
 11
3.4193096007
 21
0.0
 31
0.0
 40
0.6644630244
 41
0.5911452022
 42
2.1032571002
  0
ENDSEC
  0
SECTION
  2
OBJECTS
  0
DICTIONARY
  5
C
100
AcDbDictionary
280
0
281
1
  3
ACAD_GROUP
350
D
  3
ACAD_MLINESTYLE
350
17
  3
ACAD_LAYOUT
350
1A
  3
ACAD_PLOTSETTINGS
350
19
  3
ACAD_PLOTSTYLENAME
350
E
  0
DICTIONARY
  5
D
102
{ACAD_REACTORS
330
C
102
}
100
AcDbDictionary
280
0
281
1
  0
ACDBDICTIONARYWDFLT
  5
E
102
{ACAD_REACTORS
330
C
102
}
100
AcDbDictionary
281
1
  3
Normal
350
F
100
AcDbDictionaryWithDefault
340
F
  0
DICTIONARY
  5
17
102
{ACAD_REACTORS
330
C
102
}
100
AcDbDictionary
280
0
281
1
  3
Standard
350
18
  0
DICTIONARY
  5
19
102
{ACAD_REACTORS
330
C
102
}
100
AcDbDictionary
281
1
  0
DICTIONARY
  5
1A
102
{ACAD_REACTORS
330
C
102
}
100
AcDbDictionary
281
1
  3
Model
350
2E5
  3
Layout1
350
2E6
  0
ACDBPLACEHOLDER
  5
F
102
{ACAD_REACTORS
330
E
102
}
  0
MLINESTYLE
  5
18
102
{ACAD_REACTORS
330
17
102
}
100
AcDbMlineStyle
  2
STANDARD
 70
0
  3

 62
256
 51
90.0
 52
90.0
 71
2
 49
0.5
 62
256
  6
BYLAYER
 49
-0.5
 62
256
  6
BYLAYER
  0
LAYOUT
  5
2E5
102
{ACAD_REACTORS
330
1A
102
}
100
AcDbPlotSettings
  1

  2
none_device
  4

  6

 40
0.0
 41
0.0
 42
0.0
 43
0.0
 44
210.0
 45
297.0
 46
0.0
 47
0.0
 48
0.0
 49
0.0
140
0.0
141
0.0
142
1.0
143
1.0
 70
1024
 72
1
 73
0
 74
0
  7

 75
0
147
1.0
148
0.0
149
0.0
100
AcDbLayout
  1
Model
 70
0
 71
0
 10
0.0
 20
0.0
 11
210.0
 21
297.0
 12
0.0
 22
0.0
 32
0.0
 14
0.0
 24
0.0
 34
0.0
 15
0.0
 25
0.0
 35
0.0
146
0.0
 13
0.0
 23
0.0
 33
0.0
 16
1.0
 26
0.0
 36
0.0
 17
0.0
 27
1.0
 37
0.0
 76
0
330
21B
345
0
346
0
  0
LAYOUT
  5
2E6
102
{ACAD_REACTORS
330
1A
102
}
100
AcDbPlotSettings
  1

  2
none_device
  4

  6

 40
0.0
 41
0.0
 42
0.0
 43
0.0
 44
210.0
 45
297.0
 46
0.0
 47
0.0
 48
0.0
 49
0.0
140
0.0
141
0.0
142
1.0
143
1.0
 70
0
 72
1
 73
0
 74
0
  7

 75
0
147
1.0
148
0.0
149
0.0
100
AcDbLayout
  1
Layout1
 70
0
 71
1
 10
0.0
 20
0.0
 11
210.0
 21
297.0
 12
0.0
 22
0.0
 32
0.0
 14
0.0
 24
0.0
 34
0.0
 15
0.0
 25
0.0
 35
0.0
146
0.0
 13
0.0
 23
0.0
 33
0.0
 16
1.0
 26
0.0
 36
0.0
 17
0.0
 27
1.0
 37
0.0
 76
0
330
21C
345
0
346
0
  0
ENDSEC
  0
EOF
