999
DXF file: C:\Users\sesa63760\Documents\7-Dev\_Creo\CAD\MCADFD0001430_3D-CAD\drw0001_4.dxf
999
Pro/ENGINEER 2019471 by Parametric Technology Corporation
  0
SECTION
  2
HEADER
  9
$ACADVER
  1
AC1024
  9
$DWGCODEPAGE
  3
ANSI_1252
  9
$EXTMAX
 10
74.6408255214
 20
105.5634532374
 30
0.0
  9
$EXTMIN
 10
0.0
 20
0.0
 30
0.0
  9
$LIMMIN
 10
0.0
 20
0.0
  9
$LIMMAX
 10
74.6408255214
 20
105.5634532374
  9
$VIEWCTR
 10
37.3204127607
 20
52.7817266187
  9
$VIEWSIZE
 40
105.5634532374
  9
$CLAYER
  8
0
  9
$LTSCALE
 40
6.8811732481
  9
$CELTYPE
  6
BYLAYER
  9
$DIMSCALE
 40
1.0
  9
$DIMASZ
 40
0.8885812562
  9
$DIMEXO
 40
1.0
  9
$DIMDLI
 40
4.7542651532
  9
$DIMEXE
 40
1.0
  9
$DIMCEN
 40
1.1260101679
  9
$DIMLFAC
 40
1.0
  9
$DIMBLK
  1
_FILLED
  9
$DIMALT
 70
0
  9
$DIMALTF
 40
0.0393700787
  9
$DIMTXT
 40
1.2440137587
  9
$DIMTOL
 70
1
  9
$DIMLIM
 70
0
  9
$DIMTFAC
 40
1.0
  9
$DIMTP
 40
0.01
  9
$DIMTM
 40
0.01
  9
$DIMGAP
 40
0.625
  9
$DIMDSEP
 70
46
  9
$AUNITS
 70
0
  9
$PDMODE
 70
3
  9
$PDSIZE
 40
0.3125
  9
$HANDSEED
  5
2F0
  9
$TILEMODE
 70
1
  9
$MEASUREMENT
 70
1
  9
$INSUNITS
 70
4
  0
ENDSEC
  0
SECTION
  2
CLASSES
  0
CLASS
  1
ACDBDICTIONARYWDFLT
  2
AcDbDictionaryWithDefault
  3
AutoCAD 2000
 90
0
 91
1
280
0
281
0
  0
CLASS
  1
ACDBPLACEHOLDER
  2
AcDbPlaceHolder
  3
AutoCAD 2000
 90
0
 91
1
280
0
281
0
  0
CLASS
  1
LAYOUT
  2
AcDbLayout
  3
AutoCAD 2000
 90
0
 91
0
280
0
281
0
  0
ENDSEC
  0
SECTION
  2
TABLES
  0
TABLE
  2
VPORT
  5
8
100
AcDbSymbolTable
 70
2
  0
VPORT
  5
1F4
100
AcDbSymbolTableRecord
100
AcDbViewportTableRecord
  2
*ACTIVE
 70
0
 10
0.0
 20
0.0
 11
1.0
 21
1.0
 12
37.3204127607
 22
52.7817266187
 13
0.0
 23
0.0
 14
1.0
 24
1.0
 15
0.0
 25
0.0
 16
0.0
 26
0.0
 36
1.0
 17
0.0
 27
0.0
 37
0.0
 40
105.5634532374
 41
0.7070707071
 42
50.0
 43
0.0
 44
0.0
 50
0.0
 51
0.0
 71
0
 72
100
 73
1
 74
1
 75
0
 76
0
 77
0
 78
0
  0
ENDTAB
  0
TABLE
  2
LTYPE
  5
5
100
AcDbSymbolTable
 70
6
  0
LTYPE
  5
14
100
AcDbSymbolTableRecord
100
AcDbLinetypeTableRecord
  2
BYBLOCK
 70
0
  3

 72
65
 73
0
 40
0.0
  0
LTYPE
  5
15
100
AcDbSymbolTableRecord
100
AcDbLinetypeTableRecord
  2
BYLAYER
 70
0
  3

 72
65
 73
0
 40
0.0
  0
LTYPE
  5
16
100
AcDbSymbolTableRecord
100
AcDbLinetypeTableRecord
  2
CONTINUOUS
 70
64
  3
Solid line
 72
65
 73
0
 40
0.0
  0
LTYPE
  5
1F5
100
AcDbSymbolTableRecord
100
AcDbLinetypeTableRecord
  2
CENTER
 70
64
  3
____ _ ____ _ ____ _ ____ _ ____ _ ____ _ ____
 72
65
 73
4
 40
0.6
 49
0.375
 74
0
 49
-0.075
 74
0
 49
0.075
 74
0
 49
-0.075
 74
0
  0
LTYPE
  5
1F6
100
AcDbSymbolTableRecord
100
AcDbLinetypeTableRecord
  2
HIDDEN
 70
64
  3
- - - - - - - - - - - - - - - - - - - -
 72
65
 73
2
 40
0.2
 49
0.1
 74
0
 49
-0.1
 74
0
  0
LTYPE
  5
1F7
100
AcDbSymbolTableRecord
100
AcDbLinetypeTableRecord
  2
PHANTOM
 70
64
  3
_____ _ _ _____ _ _ _____ _ _ _____
 72
65
 73
6
 40
0.8
 49
0.45
 74
0
 49
-0.05
 74
0
 49
0.1
 74
0
 49
-0.05
 74
0
 49
0.1
 74
0
 49
-0.05
 74
0
  0
LTYPE
  5
1F8
100
AcDbSymbolTableRecord
100
AcDbLinetypeTableRecord
  2
DOT
 70
64
  3
. . . . . . . . . . . . . . . . . . . .
 72
65
 73
2
 40
0.2
 49
0.1
 74
0
 49
-0.1
 74
0
  0
LTYPE
  5
1F9
100
AcDbSymbolTableRecord
100
AcDbLinetypeTableRecord
  2
DASHED
 70
64
  3
- - - - - - - - - - - - - - - - - - - -
 72
65
 73
2
 40
0.2
 49
0.1
 74
0
 49
-0.1
 74
0
  0
ENDTAB
  0
TABLE
  2
LAYER
  5
2
100
AcDbSymbolTable
 70
36
  0
LAYER
  5
10
100
AcDbSymbolTableRecord
100
AcDbLayerTableRecord
  2
0
 70
0
 62
7
  6
CONTINUOUS
370
-3
390
F
  0
LAYER
  5
1FA
100
AcDbSymbolTableRecord
100
AcDbLayerTableRecord
  2
DEFAULT_1
 70
0
 62
7
  6
CENTER
370
-3
390
F
  0
LAYER
  5
1FB
100
AcDbSymbolTableRecord
100
AcDbLayerTableRecord
  2
DEFAULT_2
 70
0
 62
8
  6
HIDDEN
370
-3
390
F
  0
LAYER
  5
1FC
100
AcDbSymbolTableRecord
100
AcDbLayerTableRecord
  2
DEFAULT_3
 70
0
 62
7
  6
PHANTOM
370
-3
390
F
  0
LAYER
  5
1FD
100
AcDbSymbolTableRecord
100
AcDbLayerTableRecord
  2
00_COMPONENTS
 70
0
 62
7
  6
CONTINUOUS
370
-3
390
F
  0
LAYER
  5
1FE
100
AcDbSymbolTableRecord
100
AcDbLayerTableRecord
  2
01_1_DEFAULT_DATUMS
 70
0
 62
7
  6
CONTINUOUS
370
-3
390
F
  0
LAYER
  5
1FF
100
AcDbSymbolTableRecord
100
AcDbLayerTableRecord
  2
01_PLANES
 70
0
 62
7
  6
CONTINUOUS
370
-3
390
F
  0
LAYER
  5
200
100
AcDbSymbolTableRecord
100
AcDbLayerTableRecord
  2
02_COORD_SYS
 70
0
 62
7
  6
CONTINUOUS
370
-3
390
F
  0
LAYER
  5
201
100
AcDbSymbolTableRecord
100
AcDbLayerTableRecord
  2
03_AXES
 70
0
 62
7
  6
CONTINUOUS
370
-3
390
F
  0
LAYER
  5
202
100
AcDbSymbolTableRecord
100
AcDbLayerTableRecord
  2
04_POINTS
 70
0
 62
7
  6
CONTINUOUS
370
-3
390
F
  0
LAYER
  5
203
100
AcDbSymbolTableRecord
100
AcDbLayerTableRecord
  2
05_CURVES
 70
0
 62
7
  6
CONTINUOUS
370
-3
390
F
  0
LAYER
  5
204
100
AcDbSymbolTableRecord
100
AcDbLayerTableRecord
  2
06_SURFS
 70
0
 62
7
  6
CONTINUOUS
370
-3
390
F
  0
LAYER
  5
205
100
AcDbSymbolTableRecord
100
AcDbLayerTableRecord
  2
07_COSMETICS
 70
0
 62
7
  6
CONTINUOUS
370
-3
390
F
  0
LAYER
  5
206
100
AcDbSymbolTableRecord
100
AcDbLayerTableRecord
  2
10_NOTES
 70
0
 62
7
  6
CONTINUOUS
370
-3
390
F
  0
LAYER
  5
207
100
AcDbSymbolTableRecord
100
AcDbLayerTableRecord
  2
11_NOTES_PUB
 70
0
 62
7
  6
CONTINUOUS
370
-3
390
F
  0
LAYER
  5
208
100
AcDbSymbolTableRecord
100
AcDbLayerTableRecord
  2
13_REF_GTOL
 70
0
 62
7
  6
CONTINUOUS
370
-3
390
F
  0
LAYER
  5
209
100
AcDbSymbolTableRecord
100
AcDbLayerTableRecord
  2
16_MISC
 70
0
 62
7
  6
CONTINUOUS
370
-3
390
F
  0
LAYER
  5
20A
100
AcDbSymbolTableRecord
100
AcDbLayerTableRecord
  2
17_NO_PRINT
 70
0
 62
7
  6
CONTINUOUS
370
-3
390
F
  0
LAYER
  5
20B
100
AcDbSymbolTableRecord
100
AcDbLayerTableRecord
  2
18_DATUM_CAMS_JOINTS
 70
0
 62
7
  6
CONTINUOUS
370
-3
390
F
  0
LAYER
  5
20C
100
AcDbSymbolTableRecord
100
AcDbLayerTableRecord
  2
19_DATUM_FUNCTIONAL
 70
0
 62
7
  6
CONTINUOUS
370
-3
390
F
  0
LAYER
  5
20D
100
AcDbSymbolTableRecord
100
AcDbLayerTableRecord
  2
20_DATUM_KINEMATIC_SCHEME
 70
0
 62
7
  6
CONTINUOUS
370
-3
390
F
  0
ENDTAB
  0
TABLE
  2
STYLE
  5
3
100
AcDbSymbolTable
 70
1
  0
STYLE
  5
11
100
AcDbSymbolTableRecord
100
AcDbTextStyleTableRecord
  2
STANDARD
 70
0
 40
0.0
 41
0.8
 50
0.0
 71
0
 42
0.2
  3
txt
  4

  0
STYLE
  5
20E
100
AcDbSymbolTableRecord
100
AcDbTextStyleTableRecord
  2
TEXTSTYLE_1
 70
0
 40
0.0
 41
0.8
 50
0.0
 71
0
 42
0.2
  3
gdt
  4

  0
ENDTAB
  0
TABLE
  2
VIEW
  5
6
100
AcDbSymbolTable
 70
0
  0
ENDTAB
  0
TABLE
  2
UCS
  5
7
100
AcDbSymbolTable
 70
0
  0
ENDTAB
  0
TABLE
  2
APPID
  5
9
100
AcDbSymbolTable
 70
1
  0
APPID
  5
20F
100
AcDbSymbolTableRecord
100
AcDbRegAppTableRecord
  2
ACAD
 70
0
  0
ENDTAB
  0
TABLE
  2
BLOCK_RECORD
  5
1
100
AcDbSymbolTable
 70
0
  0
BLOCK_RECORD
  5
210
100
AcDbSymbolTableRecord
100
AcDbBlockTableRecord
  2
*Model_Space
  0
BLOCK_RECORD
  5
211
100
AcDbSymbolTableRecord
100
AcDbBlockTableRecord
  2
*Paper_Space
  0
BLOCK_RECORD
  5
212
100
AcDbSymbolTableRecord
100
AcDbBlockTableRecord
  2
_FILLED
  0
ENDTAB
  0
TABLE
  2
DIMSTYLE
  5
A
100
AcDbSymbolTable
 70
1
100
AcDbDimStyleTable
 71
0
  0
DIMSTYLE
105
213
100
AcDbSymbolTableRecord
100
AcDbDimStyleTableRecord
  2
STANDARD
 70
0
  3

  4

 40
1.0
 41
0.8885812562
 42
1.0
 43
0.38
 44
1.0
 45
0.0
 46
0.0
 47
0.01
 48
0.01
140
1.2440137587
141
0.09
142
0.0
143
25.4
144
1.0
145
0.0
146
1.0
147
0.625
 71
1
 72
0
 73
0
 74
0
 75
0
 76
0
 77
1
 78
8
 79
2
170
0
171
1
172
0
173
0
174
0
175
0
176
0
177
0
178
0
270
2
179
2
271
2
272
2
273
2
274
2
275
0
280
0
281
0
282
0
283
1
284
8
285
0
286
0
287
3
288
0
340
11
278
46
341
212
342
212
343
212
344
212
  0
ENDTAB
  0
ENDSEC
  0
SECTION
  2
BLOCKS
  0
BLOCK
  5
20
100
AcDbEntity
  8
0
100
AcDbBlockBegin
  2
*Model_Space
 70
0
 10
0.0
 20
0.0
 30
0.0
  3
*Model_Space
  1

  0
ENDBLK
  5
21
100
AcDbEntity
  8
0
100
AcDbBlockEnd
  0
BLOCK
  5
1C
100
AcDbEntity
  8
0
100
AcDbBlockBegin
  2
*Paper_Space
 70
0
 10
0.0
 20
0.0
 30
0.0
  3
*Paper_Space
  1

  0
ENDBLK
  5
1D
100
AcDbEntity
  8
0
100
AcDbBlockEnd
  0
BLOCK
  5
214
100
AcDbEntity
  8
0
100
AcDbBlockBegin
  2
_FILLED
 70
64
 10
0.0
 20
0.0
  3
_FILLED
  1

  0
SOLID
  5
215
100
AcDbEntity
  8
0
  6
BYBLOCK
 62
0
100
AcDbTrace
 10
0.0
 20
0.0
 11
-1.0
 21
0.25
 12
-1.0
 22
-0.25
 13
-1.0
 23
-0.25
  0
ENDBLK
  5
216
100
AcDbEntity
  8
0
  6
BYBLOCK
 62
0
100
AcDbBlockEnd
  0
ENDSEC
  0
SECTION
  2
ENTITIES
  0
LINE
  5
217
100
AcDbEntity
  8
0
100
AcDbLine
 62
7
  6
CONTINUOUS
 10
31.9394775089
 20
7.558705036
 11
40.5394775089
 21
7.558705036
  0
LINE
  5
218
100
AcDbEntity
  8
0
100
AcDbLine
 62
7
  6
CONTINUOUS
 10
31.9394775089
 20
10.5234288556
 11
40.5394775089
 21
10.5234288556
  0
LINE
  5
219
100
AcDbEntity
  8
0
100
AcDbLine
 62
7
  6
CONTINUOUS
 10
31.9394775089
 20
11.558705036
 11
33.1869577624
 21
11.558705036
  0
LINE
  5
21A
100
AcDbEntity
  8
0
100
AcDbLine
 62
7
  6
CONTINUOUS
 10
39.2919972554
 20
11.558705036
 11
40.5394775089
 21
11.558705036
  0
LINE
  5
21B
100
AcDbEntity
  8
0
100
AcDbLine
 62
7
  6
CONTINUOUS
 10
31.9394775089
 20
12.058705036
 11
32.9394775089
 21
12.058705036
  0
LINE
  5
21C
100
AcDbEntity
  8
0
100
AcDbLine
 62
7
  6
CONTINUOUS
 10
39.5394775089
 20
12.058705036
 11
43.6012020022
 21
12.058705036
  0
LINE
  5
21D
100
AcDbEntity
  8
0
100
AcDbLine
 62
7
  6
CONTINUOUS
 10
40.5394775089
 20
13.825711053
 11
42.6194775089
 21
13.9347192339
  0
LINE
  5
21E
100
AcDbEntity
  8
0
100
AcDbLine
 62
7
  6
CONTINUOUS
 10
32.9394775089
 20
14.5234288556
 11
39.5394775089
 21
14.5234288556
  0
LINE
  5
21F
100
AcDbEntity
  8
0
100
AcDbLine
 62
7
  6
CONTINUOUS
 10
43.5394775089
 20
14.6847192339
 11
42.8376908301
 21
14.6847192339
  0
LINE
  5
220
100
AcDbEntity
  8
0
100
AcDbLine
 62
7
  6
CONTINUOUS
 10
32.9394775089
 20
15.558705036
 11
33.1565246481
 21
15.558705036
  0
LINE
  5
221
100
AcDbEntity
  8
0
100
AcDbLine
 62
7
  6
CONTINUOUS
 10
39.3224303697
 20
15.558705036
 11
39.5394775089
 21
15.558705036
  0
LINE
  5
222
100
AcDbEntity
  8
0
100
AcDbLine
 62
7
  6
CONTINUOUS
 10
35.7394775089
 20
18.5248348131
 11
36.7394775089
 21
18.5248348131
  0
LINE
  5
223
100
AcDbEntity
  8
0
100
AcDbLine
 62
7
  6
CONTINUOUS
 10
35.7394775089
 20
23.0254249848
 11
36.7394775089
 21
23.0254249848
  0
LINE
  5
224
100
AcDbEntity
  8
0
100
AcDbLine
 62
7
  6
CONTINUOUS
 10
35.7394775089
 20
23.2842440299
 11
36.7394775089
 21
23.2842440299
  0
LINE
  5
225
100
AcDbEntity
  8
0
100
AcDbLine
 62
7
  6
CONTINUOUS
 10
38.7072700448
 20
23.6049804805
 11
36.7394775089
 21
23.6049804805
  0
LINE
  5
226
100
AcDbEntity
  8
0
100
AcDbLine
 62
7
  6
CONTINUOUS
 10
33.7716849731
 20
23.6049804805
 11
35.7394775089
 21
23.6049804805
  0
LINE
  5
227
100
AcDbEntity
  8
0
100
AcDbLine
 62
7
  6
CONTINUOUS
 10
33.9305678403
 20
23.8637995256
 11
35.7394775089
 21
23.8637995256
  0
LINE
  5
228
100
AcDbEntity
  8
0
100
AcDbLine
 62
7
  6
CONTINUOUS
 10
36.7394775089
 20
23.8637995256
 11
38.5484023549
 21
23.8637995256
  0
LINE
  5
229
100
AcDbEntity
  8
0
100
AcDbLine
 62
7
  6
CONTINUOUS
 10
38.3108017738
 20
24.3777211416
 11
36.7394775089
 21
24.3777211416
  0
LINE
  5
22A
100
AcDbEntity
  8
0
100
AcDbLine
 62
7
  6
CONTINUOUS
 10
34.1681325001
 20
24.3777211416
 11
35.7394775089
 21
24.3777211416
  0
LINE
  5
22B
100
AcDbEntity
  8
0
100
AcDbLine
 62
7
  6
CONTINUOUS
 10
36.7394775089
 20
24.9572766373
 11
35.7394775089
 21
24.9572766373
  0
LINE
  5
22C
100
AcDbEntity
  8
0
100
AcDbLine
 62
7
  6
CONTINUOUS
 10
44.5394775089
 20
91.2326908381
 11
43.5394775089
 21
90.2326908381
  0
LINE
  5
22D
100
AcDbEntity
  8
0
100
AcDbLine
 62
7
  6
CONTINUOUS
 10
40.5394775089
 20
30.058705036
 11
31.9394775089
 21
30.058705036
  0
LINE
  5
22E
100
AcDbEntity
  8
0
100
AcDbLine
 62
7
  6
CONTINUOUS
 10
43.5394775089
 20
14.6847192339
 11
44.5394775089
 21
13.6847192339
  0
LINE
  5
22F
100
AcDbEntity
  8
0
100
AcDbLine
 62
7
  6
CONTINUOUS
 10
38.7894775089
 20
92.5179731142
 11
39.2919972554
 21
93.358705036
  0
LINE
  5
230
100
AcDbEntity
  8
0
100
AcDbLine
 62
7
  6
CONTINUOUS
 10
38.7894775089
 20
88.4670575215
 11
39.3224303698
 21
89.358705036
  0
LINE
  5
231
100
AcDbEntity
  8
0
100
AcDbLine
 62
7
  6
CONTINUOUS
 10
31.9394775089
 20
32.058705036
 11
40.5394775089
 21
32.058705036
  0
LINE
  5
232
100
AcDbEntity
  8
0
100
AcDbLine
 62
7
  6
CONTINUOUS
 10
39.2919972554
 20
11.558705036
 11
38.7894775089
 21
12.3994369578
  0
LINE
  5
233
100
AcDbEntity
  8
0
100
AcDbLine
 62
7
  6
CONTINUOUS
 10
39.3224303697
 20
15.558705036
 11
38.7894775089
 21
16.4503525504
  0
LINE
  5
234
100
AcDbEntity
  8
0
100
AcDbLine
 62
7
  6
CONTINUOUS
 10
40.5394775089
 20
34.8320790414
 11
32.4894775089
 21
34.8320790414
  0
LINE
  5
235
100
AcDbEntity
  8
0
100
AcDbLine
 62
7
  6
CONTINUOUS
 10
40.5394775089
 20
35.9516112721
 11
43.9894775089
 21
35.9516112721
  0
LINE
  5
236
100
AcDbEntity
  8
0
100
AcDbLine
 62
7
  6
CONTINUOUS
 10
43.9894775089
 20
36.4782562876
 11
40.5394775089
 21
36.4782562876
  0
LINE
  5
237
100
AcDbEntity
  8
0
100
AcDbLine
 62
7
  6
CONTINUOUS
 10
40.5394775089
 20
37.3810763142
 11
43.9894775089
 21
37.3810763142
  0
LINE
  5
238
100
AcDbEntity
  8
0
100
AcDbLine
 62
7
  6
CONTINUOUS
 10
38.7894775089
 20
83.2290133959
 11
39.5394775089
 21
84.5738766042
  0
LINE
  5
239
100
AcDbEntity
  8
0
100
AcDbLine
 62
7
  6
CONTINUOUS
 10
40.5394775089
 20
37.8414791301
 11
32.4894775089
 21
37.8414791301
  0
LINE
  5
23A
100
AcDbEntity
  8
0
100
AcDbLine
 62
7
  6
CONTINUOUS
 10
32.4894775089
 20
37.8521511797
 11
31.9394775089
 21
37.8521511797
  0
LINE
  5
23B
100
AcDbEntity
  8
0
100
AcDbLine
 62
7
  6
CONTINUOUS
 10
40.5394775089
 20
37.9077213298
 11
43.9894775089
 21
37.9077213298
  0
LINE
  5
23C
100
AcDbEntity
  8
0
100
AcDbLine
 62
7
  6
CONTINUOUS
 10
43.9894775089
 20
38.3029794731
 11
40.5394775089
 21
38.3029794731
  0
LINE
  5
23D
100
AcDbEntity
  8
0
100
AcDbLine
 62
7
  6
CONTINUOUS
 10
40.5394775089
 20
39.0934957598
 11
43.9894775089
 21
39.0934957598
  0
LINE
  5
23E
100
AcDbEntity
  8
0
100
AcDbLine
 62
7
  6
CONTINUOUS
 10
40.5394775089
 20
39.4887539032
 11
43.9894775089
 21
39.4887539032
  0
LINE
  5
23F
100
AcDbEntity
  8
0
100
AcDbLine
 62
7
  6
CONTINUOUS
 10
40.5394775089
 20
40.4923451118
 11
35.9394775089
 21
40.4923451118
  0
LINE
  5
240
100
AcDbEntity
  8
0
100
AcDbLine
 62
7
  6
CONTINUOUS
 10
32.4894775089
 20
40.4923451119
 11
33.9394775089
 21
40.4923451119
  0
LINE
  5
241
100
AcDbEntity
  8
0
100
AcDbLine
 62
7
  6
CONTINUOUS
 10
39.5394775089
 20
20.3435334677
 11
38.7894775089
 21
21.688396676
  0
LINE
  5
242
100
AcDbEntity
  8
0
100
AcDbLine
 62
7
  6
CONTINUOUS
 10
35.9394775089
 20
41.1260763756
 11
33.9394775089
 21
41.1260763756
  0
LINE
  5
243
100
AcDbEntity
  8
0
100
AcDbLine
 62
7
  6
CONTINUOUS
 10
31.9394775089
 20
7.558705036
 11
31.9394775089
 21
97.358705036
  0
LINE
  5
244
100
AcDbEntity
  8
0
100
AcDbLine
 62
7
  6
CONTINUOUS
 10
32.4894775089
 20
40.4923451119
 11
32.4894775089
 21
34.8320790414
  0
LINE
  5
245
100
AcDbEntity
  8
0
100
AcDbLine
 62
7
  6
CONTINUOUS
 10
32.9394775089
 20
92.858705036
 11
32.9394775089
 21
84.5922098417
  0
LINE
  5
246
100
AcDbEntity
  8
0
100
AcDbLine
 62
7
  6
CONTINUOUS
 10
32.9394775089
 20
7.558705036
 11
32.9394775089
 21
7.626957302
  0
LINE
  5
247
100
AcDbEntity
  8
0
100
AcDbLine
 62
7
  6
CONTINUOUS
 10
32.9394775089
 20
11.558705036
 11
32.9394775089
 21
11.6582183883
  0
LINE
  5
248
100
AcDbEntity
  8
0
100
AcDbLine
 62
7
  6
CONTINUOUS
 10
32.9394775089
 20
12.058705036
 11
32.9394775089
 21
20.3252002303
  0
LINE
  5
249
100
AcDbEntity
  8
0
100
AcDbLine
 62
7
  6
CONTINUOUS
 10
32.9394775089
 20
93.2591916836
 11
32.9394775089
 21
93.358705036
  0
LINE
  5
24A
100
AcDbEntity
  8
0
100
AcDbLine
 62
7
  6
CONTINUOUS
 10
32.9394775089
 20
97.29045277
 11
32.9394775089
 21
97.358705036
  0
LINE
  5
24B
100
AcDbEntity
  8
0
100
AcDbLine
 62
7
  6
CONTINUOUS
 10
33.6894775089
 20
83.2473466334
 11
33.6894775089
 21
81.9522555816
  0
LINE
  5
24C
100
AcDbEntity
  8
0
100
AcDbLine
 62
7
  6
CONTINUOUS
 10
33.6894775089
 20
17.3439092611
 11
33.6894775089
 21
16.4503525504
  0
LINE
  5
24D
100
AcDbEntity
  8
0
100
AcDbLine
 62
7
  6
CONTINUOUS
 10
33.6894775089
 20
13.1840943071
 11
33.6894775089
 21
12.3994369578
  0
LINE
  5
24E
100
AcDbEntity
  8
0
100
AcDbLine
 62
7
  6
CONTINUOUS
 10
33.6894775089
 20
21.6700634385
 11
33.6894775089
 21
22.9651544903
  0
LINE
  5
24F
100
AcDbEntity
  8
0
100
AcDbLine
 62
7
  6
CONTINUOUS
 10
33.6894775089
 20
87.5727490171
 11
33.6894775089
 21
88.4670575215
  0
LINE
  5
250
100
AcDbEntity
  8
0
100
AcDbLine
 62
7
  6
CONTINUOUS
 10
33.6894775089
 20
91.7334094954
 11
33.6894775089
 21
92.5179731141
  0
LINE
  5
251
100
AcDbEntity
  8
0
100
AcDbLine
 62
7
  6
CONTINUOUS
 10
33.8394775089
 20
50.0662730902
 11
33.8394775089
 21
50.4843960698
  0
LINE
  5
252
100
AcDbEntity
  8
0
100
AcDbLine
 62
7
  6
CONTINUOUS
 10
33.9394775089
 20
41.1260763756
 11
33.9394775089
 21
40.4923451119
  0
LINE
  5
253
100
AcDbEntity
  8
0
100
AcDbLine
 62
7
  6
CONTINUOUS
 10
35.3394775089
 20
64.3918525201
 11
35.3394775089
 21
62.9544267056
  0
LINE
  5
254
100
AcDbEntity
  8
0
100
AcDbLine
 62
7
  6
CONTINUOUS
 10
35.3394775089
 20
62.9432485214
 11
35.3394775089
 21
59.5580762565
  0
LINE
  5
255
100
AcDbEntity
  8
0
100
AcDbLine
 62
7
  6
CONTINUOUS
 10
43.1394775089
 20
62.9142713317
 11
43.5394775089
 21
63.3909727688
  0
LINE
  5
256
100
AcDbEntity
  8
0
100
AcDbLine
 62
7
  6
CONTINUOUS
 10
43.1394775089
 20
63.3406284443
 11
43.5394775089
 21
63.6650922744
  0
LINE
  5
257
100
AcDbEntity
  8
0
100
AcDbLine
 62
7
  6
CONTINUOUS
 10
35.7394775089
 20
86.3925752588
 11
35.7394775089
 21
86.3321607646
  0
LINE
  5
258
100
AcDbEntity
  8
0
100
AcDbLine
 62
7
  6
CONTINUOUS
 10
35.7394775089
 20
81.8919850872
 11
35.7394775089
 21
81.0536105463
  0
LINE
  5
259
100
AcDbEntity
  8
0
100
AcDbLine
 62
7
  6
CONTINUOUS
 10
35.7394775089
 20
80.5396889304
 11
35.7394775089
 21
79.9601334346
  0
LINE
  5
25A
100
AcDbEntity
  8
0
100
AcDbLine
 62
7
  6
CONTINUOUS
 10
35.7394775089
 20
24.9572766373
 11
35.7394775089
 21
24.3777211416
  0
LINE
  5
25B
100
AcDbEntity
  8
0
100
AcDbLine
 62
7
  6
CONTINUOUS
 10
35.7394775089
 20
18.5797727466
 11
35.7394775089
 21
18.5248348131
  0
LINE
  5
25C
100
AcDbEntity
  8
0
100
AcDbLine
 62
7
  6
CONTINUOUS
 10
35.7394775089
 20
23.0254249848
 11
35.7394775089
 21
23.8637995256
  0
LINE
  5
25D
100
AcDbEntity
  8
0
100
AcDbLine
 62
7
  6
CONTINUOUS
 10
35.9394775089
 20
40.4923451118
 11
35.9394775089
 21
41.1260763756
  0
LINE
  5
25E
100
AcDbEntity
  8
0
100
AcDbLine
 62
7
  6
CONTINUOUS
 10
36.0394775089
 20
50.0652588923
 11
36.0394775089
 21
50.4843960698
  0
LINE
  5
25F
100
AcDbEntity
  8
0
100
AcDbLine
 62
7
  6
CONTINUOUS
 10
36.7394775089
 20
18.5248348131
 11
36.7394775089
 21
18.5852493074
  0
LINE
  5
260
100
AcDbEntity
  8
0
100
AcDbLine
 62
7
  6
CONTINUOUS
 10
36.7394775089
 20
23.0254249848
 11
36.7394775089
 21
23.8637995256
  0
LINE
  5
261
100
AcDbEntity
  8
0
100
AcDbLine
 62
7
  6
CONTINUOUS
 10
36.7394775089
 20
24.3777211416
 11
36.7394775089
 21
24.9572766373
  0
LINE
  5
262
100
AcDbEntity
  8
0
100
AcDbLine
 62
7
  6
CONTINUOUS
 10
36.7394775089
 20
79.9601334346
 11
36.7394775089
 21
80.5396889304
  0
LINE
  5
263
100
AcDbEntity
  8
0
100
AcDbLine
 62
7
  6
CONTINUOUS
 10
36.7394775089
 20
81.0536105463
 11
36.7394775089
 21
81.8919850872
  0
LINE
  5
264
100
AcDbEntity
  8
0
100
AcDbLine
 62
7
  6
CONTINUOUS
 10
36.7394775089
 20
86.3376373253
 11
36.7394775089
 21
86.3925752588
  0
LINE
  5
265
100
AcDbEntity
  8
0
100
AcDbLine
 62
7
  6
CONTINUOUS
 10
37.8394775089
 20
53.2597278995
 11
37.8394775089
 21
59.5580762565
  0
LINE
  5
266
100
AcDbEntity
  8
0
100
AcDbLine
 62
7
  6
CONTINUOUS
 10
38.0394775089
 20
59.5580762565
 11
38.0394775089
 21
53.2597278995
  0
LINE
  5
267
100
AcDbEntity
  8
0
100
AcDbLine
 62
7
  6
CONTINUOUS
 10
31.9394775089
 20
50.0652588923
 11
33.8394775089
 21
50.0652588923
  0
LINE
  5
268
100
AcDbEntity
  8
0
100
AcDbLine
 62
7
  6
CONTINUOUS
 10
36.0394775089
 20
50.0652588923
 11
40.5394775089
 21
50.0652588923
  0
LINE
  5
269
100
AcDbEntity
  8
0
100
AcDbLine
 62
7
  6
CONTINUOUS
 10
33.8394775089
 20
50.2408615523
 11
36.0394775089
 21
50.2408615523
  0
LINE
  5
26A
100
AcDbEntity
  8
0
100
AcDbLine
 62
7
  6
CONTINUOUS
 10
33.8394775089
 20
50.4843960698
 11
36.0394775089
 21
50.4843960698
  0
LINE
  5
26B
100
AcDbEntity
  8
0
100
AcDbLine
 62
7
  6
CONTINUOUS
 10
38.7894775089
 20
92.5179731141
 11
38.7894775089
 21
91.7333157648
  0
LINE
  5
26C
100
AcDbEntity
  8
0
100
AcDbLine
 62
7
  6
CONTINUOUS
 10
38.7894775089
 20
88.4670575215
 11
38.7894775089
 21
87.5735008109
  0
LINE
  5
26D
100
AcDbEntity
  8
0
100
AcDbLine
 62
7
  6
CONTINUOUS
 10
38.7894775089
 20
22.9651544903
 11
38.7894775089
 21
21.688396676
  0
LINE
  5
26E
100
AcDbEntity
  8
0
100
AcDbLine
 62
7
  6
CONTINUOUS
 10
38.7894775089
 20
12.3994369578
 11
38.7894775089
 21
13.1840005766
  0
LINE
  5
26F
100
AcDbEntity
  8
0
100
AcDbLine
 62
7
  6
CONTINUOUS
 10
38.7894775089
 20
16.4503525504
 11
38.7894775089
 21
17.3446610548
  0
LINE
  5
270
100
AcDbEntity
  8
0
100
AcDbLine
 62
7
  6
CONTINUOUS
 10
38.7894775089
 20
81.9522555816
 11
38.7894775089
 21
83.2290133959
  0
LINE
  5
271
100
AcDbEntity
  8
0
100
AcDbLine
 62
7
  6
CONTINUOUS
 10
39.3394775089
 20
53.2597278995
 11
39.3394775089
 21
62.9432485214
  0
LINE
  5
272
100
AcDbEntity
  8
0
100
AcDbLine
 62
7
  6
CONTINUOUS
 10
39.3394775089
 20
62.9544267056
 11
39.3394775089
 21
64.3918525201
  0
LINE
  5
273
100
AcDbEntity
  8
0
100
AcDbLine
 62
7
  6
CONTINUOUS
 10
39.5394775089
 20
97.358705036
 11
39.5394775089
 21
97.29045277
  0
LINE
  5
274
100
AcDbEntity
  8
0
100
AcDbLine
 62
7
  6
CONTINUOUS
 10
39.5394775089
 20
93.358705036
 11
39.5394775089
 21
93.2591916836
  0
LINE
  5
275
100
AcDbEntity
  8
0
100
AcDbLine
 62
7
  6
CONTINUOUS
 10
39.5394775089
 20
92.858705036
 11
39.5394775089
 21
84.5738766042
  0
LINE
  5
276
100
AcDbEntity
  8
0
100
AcDbLine
 62
7
  6
CONTINUOUS
 10
39.5394775089
 20
11.6582183883
 11
39.5394775089
 21
11.558705036
  0
LINE
  5
277
100
AcDbEntity
  8
0
100
AcDbLine
 62
7
  6
CONTINUOUS
 10
39.5394775089
 20
7.626957302
 11
39.5394775089
 21
7.558705036
  0
LINE
  5
278
100
AcDbEntity
  8
0
100
AcDbLine
 62
7
  6
CONTINUOUS
 10
39.5394775089
 20
12.058705036
 11
39.5394775089
 21
20.3435334677
  0
LINE
  5
279
100
AcDbEntity
  8
0
100
AcDbLine
 62
7
  6
CONTINUOUS
 10
39.5394775089
 20
53.2597278995
 11
39.5394775089
 21
62.7641695126
  0
LINE
  5
27A
100
AcDbEntity
  8
0
100
AcDbLine
 62
7
  6
CONTINUOUS
 10
40.5394775089
 20
7.558705036
 11
40.5394775089
 21
97.358705036
  0
LINE
  5
27B
100
AcDbEntity
  8
0
100
AcDbLine
 62
7
  6
CONTINUOUS
 10
37.8394775089
 20
53.2597278995
 11
39.5394775089
 21
53.2597278995
  0
LINE
  5
27C
100
AcDbEntity
  8
0
100
AcDbLine
 62
7
  6
CONTINUOUS
 10
43.1394775089
 20
67.2601633013
 11
43.1394775089
 21
62.9142713318
  0
LINE
  5
27D
100
AcDbEntity
  8
0
100
AcDbLine
 62
7
  6
CONTINUOUS
 10
43.5394775089
 20
63.3909727688
 11
43.5394775089
 21
66.796780929
  0
LINE
  5
27E
100
AcDbEntity
  8
0
100
AcDbLine
 62
7
  6
CONTINUOUS
 10
43.9894775089
 20
35.9516112721
 11
43.9894775089
 21
39.4887539032
  0
LINE
  5
27F
100
AcDbEntity
  8
0
100
AcDbLine
 62
7
  6
CONTINUOUS
 10
44.6394775089
 20
69.991638144
 11
44.6394775089
 21
71.5170806037
  0
LINE
  5
280
100
AcDbEntity
  8
0
100
AcDbLine
 62
7
  6
CONTINUOUS
 10
42.6633050709
 20
90.4817395126
 11
42.6194775089
 21
90.9826908381
  0
LINE
  5
281
100
AcDbEntity
  8
0
100
AcDbLine
 62
7
  6
CONTINUOUS
 10
42.6194775089
 20
13.9347192339
 11
42.6633050709
 21
14.4356705593
  0
LINE
  5
282
100
AcDbEntity
  8
0
100
AcDbLine
 62
7
  6
CONTINUOUS
 10
35.3394775089
 20
59.5580762565
 11
39.3394775089
 21
59.5580762565
  0
LINE
  5
283
100
AcDbEntity
  8
0
100
AcDbLine
 62
7
  6
CONTINUOUS
 10
39.3394775089
 20
60.3323371912
 11
35.3394775089
 21
60.3323371912
  0
LINE
  5
284
100
AcDbEntity
  8
0
100
AcDbLine
 62
7
  6
CONTINUOUS
 10
35.3394775089
 20
60.5704348679
 11
39.3394775089
 21
60.5704348679
  0
LINE
  5
285
100
AcDbEntity
  8
0
100
AcDbLine
 62
7
  6
CONTINUOUS
 10
39.3394775089
 20
60.6438207985
 11
35.3394775089
 21
60.6438207985
  0
LINE
  5
286
100
AcDbEntity
  8
0
100
AcDbLine
 62
7
  6
CONTINUOUS
 10
35.3394775089
 20
60.8971181867
 11
39.3394775089
 21
60.8971181867
  0
LINE
  5
287
100
AcDbEntity
  8
0
100
AcDbLine
 62
7
  6
CONTINUOUS
 10
39.3394775089
 20
61.075219875
 11
35.3394775089
 21
61.075219875
  0
LINE
  5
288
100
AcDbEntity
  8
0
100
AcDbLine
 62
7
  6
CONTINUOUS
 10
35.3394775089
 20
61.3807939169
 11
39.3394775089
 21
61.3807939169
  0
LINE
  5
289
100
AcDbEntity
  8
0
100
AcDbLine
 62
7
  6
CONTINUOUS
 10
39.3394775089
 20
61.4363403958
 11
35.3394775089
 21
61.4363403958
  0
LINE
  5
28A
100
AcDbEntity
  8
0
100
AcDbLine
 62
7
  6
CONTINUOUS
 10
35.3394775089
 20
61.6837752595
 11
39.3394775089
 21
61.6837752595
  0
LINE
  5
28B
100
AcDbEntity
  8
0
100
AcDbLine
 62
7
  6
CONTINUOUS
 10
39.3394775089
 20
61.8776237412
 11
35.3394775089
 21
61.8776237412
  0
LINE
  5
28C
100
AcDbEntity
  8
0
100
AcDbLine
 62
7
  6
CONTINUOUS
 10
33.6894775089
 20
21.6700634385
 11
32.9394775089
 21
20.3252002303
  0
LINE
  5
28D
100
AcDbEntity
  8
0
100
AcDbLine
 62
7
  6
CONTINUOUS
 10
35.3394775089
 20
62.1749388133
 11
39.3394775089
 21
62.1749388133
  0
LINE
  5
28E
100
AcDbEntity
  8
0
100
AcDbLine
 62
7
  6
CONTINUOUS
 10
39.3394775089
 20
62.2084235216
 11
35.3394775089
 21
62.2084235216
  0
LINE
  5
28F
100
AcDbEntity
  8
0
100
AcDbLine
 62
7
  6
CONTINUOUS
 10
35.3394775089
 20
62.4481872585
 11
39.3394775089
 21
62.4481872585
  0
LINE
  5
290
100
AcDbEntity
  8
0
100
AcDbLine
 62
7
  6
CONTINUOUS
 10
39.3394775089
 20
62.656365616
 11
35.3394775089
 21
62.656365616
  0
LINE
  5
291
100
AcDbEntity
  8
0
100
AcDbLine
 62
7
  6
CONTINUOUS
 10
39.5394775089
 20
62.7375064236
 11
39.3394775089
 21
62.7375064236
  0
LINE
  5
292
100
AcDbEntity
  8
0
100
AcDbLine
 62
7
  6
CONTINUOUS
 10
39.3394775089
 20
62.7641695126
 11
39.5394775089
 21
62.7641695126
  0
LINE
  5
293
100
AcDbEntity
  8
0
100
AcDbLine
 62
7
  6
CONTINUOUS
 10
40.5394775089
 20
62.9142713317
 11
43.1394775089
 21
62.9142713317
  0
LINE
  5
294
100
AcDbEntity
  8
0
100
AcDbLine
 62
7
  6
CONTINUOUS
 10
35.3394775089
 20
62.9432485214
 11
39.3394775089
 21
62.9432485214
  0
LINE
  5
295
100
AcDbEntity
  8
0
100
AcDbLine
 62
7
  6
CONTINUOUS
 10
35.3394775089
 20
63.184766785
 11
39.3394775089
 21
63.184766785
  0
LINE
  5
296
100
AcDbEntity
  8
0
100
AcDbLine
 62
7
  6
CONTINUOUS
 10
40.5394775089
 20
63.3406284443
 11
43.1394775089
 21
63.3406284443
  0
LINE
  5
297
100
AcDbEntity
  8
0
100
AcDbLine
 62
7
  6
CONTINUOUS
 10
39.3394775089
 20
63.4057533577
 11
35.3394775089
 21
63.4057533577
  0
LINE
  5
298
100
AcDbEntity
  8
0
100
AcDbLine
 62
7
  6
CONTINUOUS
 10
35.3394775089
 20
63.6801071523
 11
39.3394775089
 21
63.6801071523
  0
LINE
  5
299
100
AcDbEntity
  8
0
100
AcDbLine
 62
7
  6
CONTINUOUS
 10
35.3394775089
 20
63.8881298788
 11
39.3394775089
 21
63.8881298788
  0
LINE
  5
29A
100
AcDbEntity
  8
0
100
AcDbLine
 62
7
  6
CONTINUOUS
 10
39.3394775089
 20
64.2157437779
 11
35.3394775089
 21
64.2157437779
  0
LINE
  5
29B
100
AcDbEntity
  8
0
100
AcDbLine
 62
7
  6
CONTINUOUS
 10
35.3394775089
 20
64.3918525201
 11
39.3394775089
 21
64.3918525201
  0
LINE
  5
29C
100
AcDbEntity
  8
0
100
AcDbLine
 62
7
  6
CONTINUOUS
 10
32.9394775089
 20
84.5922098417
 11
33.6894775089
 21
83.2473466334
  0
LINE
  5
29D
100
AcDbEntity
  8
0
100
AcDbLine
 62
7
  6
CONTINUOUS
 10
33.6894775089
 20
16.4503525504
 11
33.1565246481
 21
15.558705036
  0
LINE
  5
29E
100
AcDbEntity
  8
0
100
AcDbLine
 62
7
  6
CONTINUOUS
 10
40.5394775089
 20
67.2601633013
 11
43.1394775089
 21
67.2601633013
  0
LINE
  5
29F
100
AcDbEntity
  8
0
100
AcDbLine
 62
7
  6
CONTINUOUS
 10
43.1394775089
 20
67.2601633013
 11
43.5394775089
 21
66.796780929
  0
LINE
  5
2A0
100
AcDbEntity
  8
0
100
AcDbLine
 62
7
  6
CONTINUOUS
 10
33.1565246481
 20
89.358705036
 11
33.6894775089
 21
88.4670575215
  0
LINE
  5
2A1
100
AcDbEntity
  8
0
100
AcDbLine
 62
7
  6
CONTINUOUS
 10
33.6894775089
 20
12.3994369578
 11
33.1869577624
 21
11.558705036
  0
LINE
  5
2A2
100
AcDbEntity
  8
0
100
AcDbLine
 62
7
  6
CONTINUOUS
 10
40.5394775089
 20
69.991638144
 11
44.6394775089
 21
69.991638144
  0
LINE
  5
2A3
100
AcDbEntity
  8
0
100
AcDbLine
 62
7
  6
CONTINUOUS
 10
40.5394775089
 20
70.0208675587
 11
44.6394775089
 21
70.0208675587
  0
LINE
  5
2A4
100
AcDbEntity
  8
0
100
AcDbLine
 62
7
  6
CONTINUOUS
 10
40.5394775089
 20
70.2320857024
 11
44.6394775089
 21
70.2320857024
  0
LINE
  5
2A5
100
AcDbEntity
  8
0
100
AcDbLine
 62
7
  6
CONTINUOUS
 10
33.1869577624
 20
93.358705036
 11
33.6894775089
 21
92.5179731142
  0
LINE
  5
2A6
100
AcDbEntity
  8
0
100
AcDbLine
 62
7
  6
CONTINUOUS
 10
40.5394775089
 20
71.5170806037
 11
44.6394775089
 21
71.5170806037
  0
LINE
  5
2A7
100
AcDbEntity
  8
0
100
AcDbLine
 62
7
  6
CONTINUOUS
 10
40.5394775089
 20
72.858705036
 11
31.9394775089
 21
72.858705036
  0
LINE
  5
2A8
100
AcDbEntity
  8
0
100
AcDbLine
 62
7
  6
CONTINUOUS
 10
31.9394775089
 20
74.858705036
 11
40.5394775089
 21
74.858705036
  0
LINE
  5
2A9
100
AcDbEntity
  8
0
100
AcDbLine
 62
7
  6
CONTINUOUS
 10
44.5394775089
 20
13.6847192339
 11
43.6012020022
 21
12.0591276184
  0
LINE
  5
2AA
100
AcDbEntity
  8
0
100
AcDbLine
 62
7
  6
CONTINUOUS
 10
42.6633050709
 20
14.4356705593
 11
42.8376908301
 21
14.6847192339
  0
LINE
  5
2AB
100
AcDbEntity
  8
0
100
AcDbLine
 62
7
  6
CONTINUOUS
 10
35.7394775089
 20
79.9601334346
 11
36.7394775089
 21
79.9601334346
  0
LINE
  5
2AC
100
AcDbEntity
  8
0
100
AcDbLine
 62
7
  6
CONTINUOUS
 10
42.8376908301
 20
90.2326908381
 11
42.6633050709
 21
90.4817395126
  0
LINE
  5
2AD
100
AcDbEntity
  8
0
100
AcDbLine
 62
7
  6
CONTINUOUS
 10
43.6012020022
 20
92.8582824535
 11
44.5394775089
 21
91.2326908381
  0
LINE
  5
2AE
100
AcDbEntity
  8
0
100
AcDbLine
 62
7
  6
CONTINUOUS
 10
38.3108225177
 20
80.5396889304
 11
36.7394775089
 21
80.5396889304
  0
LINE
  5
2AF
100
AcDbEntity
  8
0
100
AcDbLine
 62
7
  6
CONTINUOUS
 10
34.168153244
 20
80.5396889304
 11
35.7394775089
 21
80.5396889304
  0
LINE
  5
2B0
100
AcDbEntity
  8
0
100
AcDbLine
 62
7
  6
CONTINUOUS
 10
38.5483871775
 20
81.0536105463
 11
36.7394775089
 21
81.0536105463
  0
LINE
  5
2B1
100
AcDbEntity
  8
0
100
AcDbLine
 62
7
  6
CONTINUOUS
 10
35.7394775089
 20
81.0536105463
 11
33.9305526629
 21
81.0536105463
  0
LINE
  5
2B2
100
AcDbEntity
  8
0
100
AcDbLine
 62
7
  6
CONTINUOUS
 10
38.7072700448
 20
81.3124295914
 11
36.7394775089
 21
81.3124295914
  0
LINE
  5
2B3
100
AcDbEntity
  8
0
100
AcDbLine
 62
7
  6
CONTINUOUS
 10
33.7716849731
 20
81.3124295914
 11
35.7394775089
 21
81.3124295914
  0
LINE
  5
2B4
100
AcDbEntity
  8
0
100
AcDbLine
 62
7
  6
CONTINUOUS
 10
36.7394775089
 20
81.6331660421
 11
35.7394775089
 21
81.6331660421
  0
LINE
  5
2B5
100
AcDbEntity
  8
0
100
AcDbLine
 62
7
  6
CONTINUOUS
 10
36.7394775089
 20
81.8919850872
 11
35.7394775089
 21
81.8919850872
  0
LINE
  5
2B6
100
AcDbEntity
  8
0
100
AcDbLine
 62
7
  6
CONTINUOUS
 10
36.7394775089
 20
86.3925752588
 11
35.7394775089
 21
86.3925752588
  0
LINE
  5
2B7
100
AcDbEntity
  8
0
100
AcDbLine
 62
7
  6
CONTINUOUS
 10
32.9394775089
 20
89.358705036
 11
33.1565246481
 21
89.358705036
  0
LINE
  5
2B8
100
AcDbEntity
  8
0
100
AcDbLine
 62
7
  6
CONTINUOUS
 10
39.3224303698
 20
89.358705036
 11
39.5394775089
 21
89.358705036
  0
LINE
  5
2B9
100
AcDbEntity
  8
0
100
AcDbLine
 62
7
  6
CONTINUOUS
 10
43.5394775089
 20
90.2326908381
 11
42.8376908301
 21
90.2326908381
  0
LINE
  5
2BA
100
AcDbEntity
  8
0
100
AcDbLine
 62
7
  6
CONTINUOUS
 10
39.5394775089
 20
90.3939812164
 11
32.9394775089
 21
90.3939812164
  0
LINE
  5
2BB
100
AcDbEntity
  8
0
100
AcDbLine
 62
7
  6
CONTINUOUS
 10
42.6194775089
 20
90.9826908381
 11
40.5394775089
 21
91.091699019
  0
LINE
  5
2BC
100
AcDbEntity
  8
0
100
AcDbLine
 62
7
  6
CONTINUOUS
 10
31.9394775089
 20
92.858705036
 11
32.9394775089
 21
92.858705036
  0
LINE
  5
2BD
100
AcDbEntity
  8
0
100
AcDbLine
 62
7
  6
CONTINUOUS
 10
31.9394775089
 20
93.358705036
 11
33.1869577624
 21
93.358705036
  0
LINE
  5
2BE
100
AcDbEntity
  8
0
100
AcDbLine
 62
7
  6
CONTINUOUS
 10
39.2919972554
 20
93.358705036
 11
40.5394775089
 21
93.358705036
  0
LINE
  5
2BF
100
AcDbEntity
  8
0
100
AcDbLine
 62
7
  6
CONTINUOUS
 10
40.5394775089
 20
94.3939812164
 11
31.9394775089
 21
94.3939812164
  0
LINE
  5
2C0
100
AcDbEntity
  8
0
100
AcDbLine
 62
7
  6
CONTINUOUS
 10
31.9394775089
 20
97.358705036
 11
40.5394775089
 21
97.358705036
  0
LINE
  5
2C1
100
AcDbEntity
  8
0
100
AcDbLine
 62
7
  6
CONTINUOUS
 10
39.5394775089
 20
92.858705036
 11
43.6012020022
 21
92.8582824535
  0
ARC
  5
2C2
100
AcDbEntity
  8
0
100
AcDbCircle
 62
7
  6
CONTINUOUS
 10
36.2394775089
 20
81.9522555816
 40
2.55
100
AcDbArc
 50
180.0
 51
360.0
  0
ARC
  5
2C3
100
AcDbEntity
  8
0
100
AcDbCircle
 62
7
  6
CONTINUOUS
 10
36.2394775089
 20
22.9651544903
 40
2.55
100
AcDbArc
 50
0.0
 51
180.0
  0
ARC
  5
2C4
100
AcDbEntity
  8
0
100
AcDbCircle
 62
7
  6
CONTINUOUS
 10
36.3766649092
 20
80.919019376
 40
2.3636470323
100
AcDbArc
 50
12.8861856751
 51
23.1088859698
  0
ARC
  5
2C5
100
AcDbEntity
  8
0
100
AcDbCircle
 62
7
  6
CONTINUOUS
 10
36.1022901086
 20
23.998390696
 40
2.3636470323
100
AcDbArc
 50
192.8861856752
 51
203.10888597
  0
ARC
  5
2C6
100
AcDbEntity
  8
0
100
AcDbCircle
 62
7
  6
CONTINUOUS
 10
36.1002403039
 20
80.9196853388
 40
2.3615003431
100
AcDbArc
 50
156.8863544722
 51
167.1187402199
  0
ARC
  5
2C7
100
AcDbEntity
  8
0
100
AcDbCircle
 62
7
  6
CONTINUOUS
 10
36.3787147139
 20
23.9977247332
 40
2.3615003431
100
AcDbArc
 50
336.8863544719
 51
347.1187402198
  0
ARC
  5
2C8
100
AcDbEntity
  8
0
100
AcDbCircle
 62
7
  6
CONTINUOUS
 10
37.6175336729
 20
93.4026169855
 40
1.9336212234
100
AcDbArc
 50
344.7043124852
 51
347.0178452805
  0
ARC
  5
2C9
100
AcDbEntity
  8
0
100
AcDbCircle
 62
7
  6
CONTINUOUS
 10
34.8614213448
 20
11.5147930865
 40
1.9336212233
100
AcDbArc
 50
164.7043124852
 51
167.0178452805
  0
ARC
  5
2CA
100
AcDbEntity
  8
0
100
AcDbCircle
 62
7
  6
CONTINUOUS
 10
34.8344814634
 20
93.395830326
 40
1.9058453958
100
AcDbArc
 50
192.96469844
 51
195.3123022557
  0
ARC
  5
2CB
100
AcDbEntity
  8
0
100
AcDbCircle
 62
7
  6
CONTINUOUS
 10
37.6444735544
 20
11.521579746
 40
1.9058453957
100
AcDbArc
 50
12.9646984399
 51
15.3123022558
  0
SPLINE
  5
2CC
100
AcDbEntity
  8
0
100
AcDbSpline
 62
7
  6
CONTINUOUS
 70
0
 71
3
 72
23
 73
19
 74
0
 42
0.0000001
 43
0.0000001
 44
0.0000000001
 40
0.0
 40
0.0
 40
0.0
 40
0.0
 40
0.0614238366
 40
0.1230394602
 40
0.1849317891
 40
0.2472251745
 40
0.3099369508
 40
0.3730392018
 40
0.4364372931
 40
0.4999938969
 40
0.5635502371
 40
0.6269480162
 40
0.6900510074
 40
0.7527652456
 40
0.8150618879
 40
0.8769571058
 40
0.9385755503
 40
1.0
 40
1.0
 40
1.0
 40
1.0
 10
32.9394775089
 20
89.461547539
 30
0.0
 10
32.9394775089
 20
89.2532193185
 30
0.0
 10
32.982225768
 20
88.8346921413
 30
0.0
 10
33.1715815283
 20
88.2324412901
 30
0.0
 10
33.479175136
 20
87.6775451842
 30
0.0
 10
33.8925577307
 20
87.1915696811
 30
0.0
 10
34.3959642402
 20
86.7930558434
 30
0.0
 10
34.9698746174
 20
86.4971331067
 30
0.0
 10
35.5922984923
 20
86.3150094904
 30
0.0
 10
36.239412588
 20
86.2535264482
 30
0.0
 10
36.8865278225
 20
86.3149878384
 30
0.0
 10
37.5089578372
 20
86.4970905282
 30
0.0
 10
38.082891512
 20
86.7929895245
 30
0.0
 10
38.5863286933
 20
87.1915014995
 30
0.0
 10
38.9997409483
 20
87.6774905618
 30
0.0
 10
39.3073599071
 20
88.2324079714
 30
0.0
 10
39.4967265575
 20
88.8346784834
 30
0.0
 10
39.5394775089
 20
89.253217239
 30
0.0
 10
39.5394775089
 20
89.461547539
 30
0.0
  0
SPLINE
  5
2CD
100
AcDbEntity
  8
0
100
AcDbSpline
 62
7
  6
CONTINUOUS
 70
0
 71
3
 72
11
 73
7
 74
0
 42
0.0000001
 43
0.0000001
 44
0.0000000001
 40
0.0
 40
0.0
 40
0.0
 40
0.0
 40
0.2476543178
 40
0.4971620829
 40
0.7481772402
 40
1.0
 40
1.0
 40
1.0
 40
1.0
 10
34.2789494425
 20
86.9250001162
 30
0.0
 10
34.3957029336
 20
87.0674937717
 30
0.0
 10
34.6636324455
 20
87.32773321
 30
0.0
 10
35.1427658975
 20
87.6194365283
 30
0.0
 10
35.6768558555
 20
87.8005734029
 30
0.0
 10
36.0521600551
 20
87.8414639983
 30
0.0
 10
36.2394775089
 20
87.8414639983
 30
0.0
  0
SPLINE
  5
2CE
100
AcDbEntity
  8
0
100
AcDbSpline
 62
7
  6
CONTINUOUS
 70
0
 71
3
 72
11
 73
7
 74
0
 42
0.0000001
 43
0.0000001
 44
0.0000000001
 40
0.0
 40
0.0
 40
0.0
 40
0.0
 40
0.2518150094
 40
0.502827238
 40
0.7523371279
 40
1.0
 40
1.0
 40
1.0
 40
1.0
 10
36.2394775089
 20
87.8414639983
 30
0.0
 10
36.4263557029
 20
87.8414639983
 30
0.0
 10
36.8007772966
 20
87.8007653547
 30
0.0
 10
37.3337452079
 20
87.6204687647
 30
0.0
 10
37.8121340048
 20
87.33006978
 30
0.0
 10
38.0799166534
 20
87.0709356897
 30
0.0
 10
38.1967076959
 20
86.9290163035
 30
0.0
  0
SPLINE
  5
2CF
100
AcDbEntity
  8
0
100
AcDbSpline
 62
7
  6
CONTINUOUS
 70
0
 71
3
 72
11
 73
7
 74
0
 42
0.0000001
 43
0.0000001
 44
0.0000000001
 40
0.0
 40
0.0
 40
0.0
 40
0.0
 40
0.2528184334
 40
0.5042168283
 40
0.7533453482
 40
1.0
 40
1.0
 40
1.0
 40
1.0
 10
36.2394775089
 20
83.3408738266
 30
0.0
 10
36.4841898019
 20
83.3408738266
 30
0.0
 10
36.9750950448
 20
83.270863598
 30
0.0
 10
37.6473076504
 20
82.963841123
 30
0.0
 10
38.1995343163
 20
82.4813807283
 30
0.0
 10
38.4569458778
 20
82.066289965
 30
0.0
 10
38.5506544139
 20
81.8467030113
 30
0.0
  0
SPLINE
  5
2D0
100
AcDbEntity
  8
0
100
AcDbSpline
 62
7
  6
CONTINUOUS
 70
0
 71
3
 72
11
 73
7
 74
0
 42
0.0000001
 43
0.0000001
 44
0.0000000001
 40
0.0
 40
0.0
 40
0.0
 40
0.0
 40
0.2466545977
 40
0.4957831059
 40
0.7471815162
 40
1.0
 40
1.0
 40
1.0
 40
1.0
 10
33.9283022397
 20
81.846706868
 30
0.0
 10
34.0220110337
 20
82.0662932843
 30
0.0
 10
34.2794227782
 20
82.4813829951
 30
0.0
 10
34.831649084
 20
82.9638420932
 30
0.0
 10
35.5038609151
 20
83.2708637798
 30
0.0
 10
35.9947655163
 20
83.3408738266
 30
0.0
 10
36.2394775089
 20
83.3408738266
 30
0.0
  0
SPLINE
  5
2D1
100
AcDbEntity
  8
0
100
AcDbSpline
 62
7
  6
CONTINUOUS
 70
0
 71
3
 72
9
 73
5
 74
0
 42
0.0000001
 43
0.0000001
 44
0.0000000001
 40
0.0
 40
0.0
 40
0.0
 40
0.0
 40
0.4173888027
 40
1.0
 40
1.0
 40
1.0
 40
1.0
 10
32.9394775089
 20
93.2591916836
 30
0.0
 10
32.9394775089
 20
93.2183138937
 30
0.0
 10
32.9468595358
 20
93.1203971773
 30
0.0
 10
32.9644260874
 20
93.023859199
 30
0.0
 10
32.9772189664
 20
92.9682526258
 30
0.0
  0
SPLINE
  5
2D2
100
AcDbEntity
  8
0
100
AcDbSpline
 62
7
  6
CONTINUOUS
 70
0
 71
3
 72
23
 73
19
 74
0
 42
0.0000001
 43
0.0000001
 44
0.0000000001
 40
0.0
 40
0.0
 40
0.0
 40
0.0
 40
0.0402592103
 40
0.0907729016
 40
0.1499465171
 40
0.2153619114
 40
0.2845561451
 40
0.3556956443
 40
0.427694938
 40
0.4999995879
 40
0.5723042447
 40
0.6443035768
 40
0.715443092
 40
0.784637371
 40
0.8500529024
 40
0.9092267216
 40
0.9597405531
 40
1.0
 40
1.0
 40
1.0
 40
1.0
 10
32.9962921712
 20
92.8925343905
 30
0.0
 10
33.026187446
 20
92.7831600336
 30
0.0
 10
33.1142413516
 20
92.5419780811
 30
0.0
 10
33.3169403555
 20
92.1697323291
 30
0.0
 10
33.6174148875
 20
91.7761014679
 30
0.0
 10
34.0141775674
 20
91.3979509749
 30
0.0
 10
34.4946146762
 20
91.0693130255
 30
0.0
 10
35.0397840638
 20
90.8166751543
 30
0.0
 10
35.6286316795
 20
90.6581160306
 30
0.0
 10
36.2394700879
 20
90.604090006
 30
0.0
 10
36.8503088368
 20
90.6581134212
 30
0.0
 10
37.43915729
 20
90.8166701589
 30
0.0
 10
37.984327891
 20
91.0693060712
 30
0.0
 10
38.4647668334
 20
91.3979423308
 30
0.0
 10
38.8615317621
 20
91.7760920518
 30
0.0
 10
39.1620086661
 20
92.1697228269
 30
0.0
 10
39.3647097108
 20
92.5419693369
 30
0.0
 10
39.4527648805
 20
92.7831519563
 30
0.0
 10
39.4826607667
 20
92.8925268369
 30
0.0
  0
SPLINE
  5
2D3
100
AcDbEntity
  8
0
100
AcDbSpline
 62
7
  6
CONTINUOUS
 70
0
 71
3
 72
9
 73
5
 74
0
 42
0.0000001
 43
0.0000001
 44
0.0000000001
 40
0.0
 40
0.0
 40
0.0
 40
0.0
 40
0.5826141418
 40
1.0
 40
1.0
 40
1.0
 40
1.0
 10
39.5017316935
 20
92.9682336817
 30
0.0
 10
39.514526086
 20
93.0238440715
 30
0.0
 10
39.5320945972
 20
93.1203883015
 30
0.0
 10
39.5394775089
 20
93.2183114809
 30
0.0
 10
39.5394775089
 20
93.2591916836
 30
0.0
  0
SPLINE
  5
2D4
100
AcDbEntity
  8
0
100
AcDbSpline
 62
7
  6
CONTINUOUS
 70
0
 71
3
 72
11
 73
7
 74
0
 42
0.0000001
 43
0.0000001
 44
0.0000000001
 40
0.0
 40
0.0
 40
0.0
 40
0.0
 40
0.2515995048
 40
0.5025329535
 40
0.752098417
 40
1.0
 40
1.0
 40
1.0
 40
1.0
 10
36.2394775089
 20
12.9388175074
 30
0.0
 10
36.0649514597
 20
12.9388175074
 30
0.0
 10
35.7153385351
 20
12.9743091372
 30
0.0
 10
35.2142822608
 20
13.131751568
 30
0.0
 10
34.7578841134
 20
13.3865250936
 30
0.0
 10
34.4955088495
 20
13.6152095167
 30
0.0
 10
34.3784890808
 20
13.7412132225
 30
0.0
  0
SPLINE
  5
2D5
100
AcDbEntity
  8
0
100
AcDbSpline
 62
7
  6
CONTINUOUS
 70
0
 71
3
 72
11
 73
7
 74
0
 42
0.0000001
 43
0.0000001
 44
0.0000000001
 40
0.0
 40
0.0
 40
0.0
 40
0.0
 40
0.2479013999
 40
0.4974668093
 40
0.7484003407
 40
1.0
 40
1.0
 40
1.0
 40
1.0
 10
38.1005274229
 20
13.7412794266
 30
0.0
 10
37.9835073387
 20
13.6152660533
 30
0.0
 10
37.7211279926
 20
13.3865632771
 30
0.0
 10
37.2647156975
 20
13.1317683485
 30
0.0
 10
36.7636394773
 20
12.9743122703
 30
0.0
 10
36.4140112017
 20
12.9388175074
 30
0.0
 10
36.2394775089
 20
12.9388175074
 30
0.0
  0
SPLINE
  5
2D6
100
AcDbEntity
  8
0
100
AcDbSpline
 62
7
  6
CONTINUOUS
 70
0
 71
3
 72
11
 73
7
 74
0
 42
0.0000001
 43
0.0000001
 44
0.0000000001
 40
0.0
 40
0.0
 40
0.0
 40
0.0
 40
0.2479013999
 40
0.4974668093
 40
0.7484003407
 40
1.0
 40
1.0
 40
1.0
 40
1.0
 10
34.3784275949
 20
91.1761306453
 30
0.0
 10
34.4954476791
 20
91.3021440186
 30
0.0
 10
34.7578270252
 20
91.5308467948
 30
0.0
 10
35.2142393204
 20
91.7856417235
 30
0.0
 10
35.7153155405
 20
91.9430978017
 30
0.0
 10
36.0649438161
 20
91.9785925645
 30
0.0
 10
36.2394775089
 20
91.9785925645
 30
0.0
  0
SPLINE
  5
2D7
100
AcDbEntity
  8
0
100
AcDbSpline
 62
7
  6
CONTINUOUS
 70
0
 71
3
 72
11
 73
7
 74
0
 42
0.0000001
 43
0.0000001
 44
0.0000000001
 40
0.0
 40
0.0
 40
0.0
 40
0.0
 40
0.2515995048
 40
0.5025329535
 40
0.752098417
 40
1.0
 40
1.0
 40
1.0
 40
1.0
 10
36.2394775089
 20
91.9785925645
 30
0.0
 10
36.4140035581
 20
91.9785925645
 30
0.0
 10
36.7636164827
 20
91.9431009348
 30
0.0
 10
37.264672757
 20
91.7856585039
 30
0.0
 10
37.7210709044
 20
91.5308849784
 30
0.0
 10
37.9834461683
 20
91.3022005552
 30
0.0
 10
38.100465937
 20
91.1761968494
 30
0.0
  0
SPLINE
  5
2D8
100
AcDbEntity
  8
0
100
AcDbSpline
 62
7
  6
CONTINUOUS
 70
0
 71
3
 72
25
 73
21
 74
0
 42
0.0000001
 43
0.0000001
 44
0.0000000001
 40
0.0
 40
0.0
 40
0.0
 40
0.0
 40
0.0095180013
 40
0.0228952765
 40
0.0612429278
 40
0.1146357053
 40
0.1809006763
 40
0.2560033524
 40
0.3358082395
 40
0.4175860308
 40
0.5000000541
 40
0.5824140804
 40
0.6641918562
 40
0.7439967642
 40
0.8190994543
 40
0.8853643922
 40
0.9387570582
 40
0.9771047289
 40
0.990482004
 40
1.0
 40
1.0
 40
1.0
 40
1.0
 10
32.9394775089
 20
97.29045277
 30
0.0
 10
32.9394775089
 20
97.2614912468
 30
0.0
 10
32.9440458569
 20
97.1918350149
 30
0.0
 10
32.9724494072
 20
97.0074749594
 30
0.0
 10
33.0658278081
 20
96.6996185283
 30
0.0
 10
33.2838056844
 20
96.2682968244
 30
0.0
 10
33.6457387677
 20
95.7944500698
 30
0.0
 10
34.1517900495
 20
95.3442692162
 30
0.0
 10
34.7780967064
 20
94.9787175916
 30
0.0
 10
35.4876652427
 20
94.7421809333
 30
0.0
 10
36.2394780508
 20
94.6604937778
 30
0.0
 10
36.9912907785
 20
94.7421811778
 30
0.0
 10
37.7008592931
 20
94.9787179672
 30
0.0
 10
38.3271659132
 20
95.3442697865
 30
0.0
 10
38.8332170658
 20
95.794450792
 30
0.0
 10
39.1951497469
 20
96.2682973666
 30
0.0
 10
39.4131272689
 20
96.6996187931
 30
0.0
 10
39.5065056664
 20
97.0074749405
 30
0.0
 10
39.5349091421
 20
97.1918350495
 30
0.0
 10
39.5394775089
 20
97.261491263
 30
0.0
 10
39.5394775089
 20
97.29045277
 30
0.0
  0
SPLINE
  5
2D9
100
AcDbEntity
  8
0
100
AcDbSpline
 62
7
  6
CONTINUOUS
 70
0
 71
3
 72
11
 73
7
 74
0
 42
0.0000001
 43
0.0000001
 44
0.0000000001
 40
0.0
 40
0.0
 40
0.0
 40
0.0
 40
0.2518150094
 40
0.502827238
 40
0.7523371279
 40
1.0
 40
1.0
 40
1.0
 40
1.0
 10
36.2394775089
 20
17.0759460737
 30
0.0
 10
36.0525993149
 20
17.0759460737
 30
0.0
 10
35.6781777212
 20
17.1166447172
 30
0.0
 10
35.1452098099
 20
17.2969413072
 30
0.0
 10
34.666821013
 20
17.5873402919
 30
0.0
 10
34.3990383644
 20
17.8464743822
 30
0.0
 10
34.2822473219
 20
17.9883937684
 30
0.0
  0
SPLINE
  5
2DA
100
AcDbEntity
  8
0
100
AcDbSpline
 62
7
  6
CONTINUOUS
 70
0
 71
3
 72
11
 73
7
 74
0
 42
0.0000001
 43
0.0000001
 44
0.0000000001
 40
0.0
 40
0.0
 40
0.0
 40
0.0
 40
0.2476543178
 40
0.4971620829
 40
0.7481772402
 40
1.0
 40
1.0
 40
1.0
 40
1.0
 10
38.2000055753
 20
17.9924099558
 30
0.0
 10
38.0832520842
 20
17.8499163003
 30
0.0
 10
37.8153225723
 20
17.5896768619
 30
0.0
 10
37.3361891203
 20
17.2979735436
 30
0.0
 10
36.8020991623
 20
17.116836669
 30
0.0
 10
36.4267949627
 20
17.0759460737
 30
0.0
 10
36.2394775089
 20
17.0759460737
 30
0.0
  0
SPLINE
  5
2DB
100
AcDbEntity
  8
0
100
AcDbSpline
 62
7
  6
CONTINUOUS
 70
0
 71
3
 72
25
 73
21
 74
0
 42
0.0000001
 43
0.0000001
 44
0.0000000001
 40
0.0
 40
0.0
 40
0.0
 40
0.0
 40
0.0095180013
 40
0.0228952765
 40
0.0612429278
 40
0.1146357053
 40
0.1809006763
 40
0.2560033524
 40
0.3358082395
 40
0.4175860308
 40
0.5000000541
 40
0.5824140804
 40
0.6641918562
 40
0.7439967642
 40
0.8190994543
 40
0.8853643922
 40
0.9387570582
 40
0.9771047289
 40
0.990482004
 40
1.0
 40
1.0
 40
1.0
 40
1.0
 10
39.5394775089
 20
7.626957302
 30
0.0
 10
39.5394775089
 20
7.6559188252
 30
0.0
 10
39.5349091609
 20
7.7255750571
 30
0.0
 10
39.5065056106
 20
7.9099351125
 30
0.0
 10
39.4131272097
 20
8.2177915436
 30
0.0
 10
39.1951493334
 20
8.6491132476
 30
0.0
 10
38.8332162501
 20
9.1229600021
 30
0.0
 10
38.3271649683
 20
9.5731408558
 30
0.0
 10
37.7008583114
 20
9.9386924803
 30
0.0
 10
36.9912897751
 20
10.1752291387
 30
0.0
 10
36.239476967
 20
10.2569162941
 30
0.0
 10
35.4876642393
 20
10.1752288942
 30
0.0
 10
34.7780957247
 20
9.9386921047
 30
0.0
 10
34.1517891046
 20
9.5731402855
 30
0.0
 10
33.645737952
 20
9.1229592799
 30
0.0
 10
33.2838052709
 20
8.6491127054
 30
0.0
 10
33.0658277489
 20
8.2177912788
 30
0.0
 10
32.9724493514
 20
7.9099351314
 30
0.0
 10
32.9440458757
 20
7.7255750224
 30
0.0
 10
32.9394775089
 20
7.655918809
 30
0.0
 10
32.9394775089
 20
7.626957302
 30
0.0
  0
SPLINE
  5
2DC
100
AcDbEntity
  8
0
100
AcDbSpline
 62
7
  6
CONTINUOUS
 70
0
 71
3
 72
9
 73
5
 74
0
 42
0.0000001
 43
0.0000001
 44
0.0000000001
 40
0.0
 40
0.0
 40
0.0
 40
0.0
 40
0.4173888027
 40
1.0
 40
1.0
 40
1.0
 40
1.0
 10
39.5394775089
 20
11.6582183883
 30
0.0
 10
39.5394775089
 20
11.6990961782
 30
0.0
 10
39.532095482
 20
11.7970128947
 30
0.0
 10
39.5145289304
 20
11.8935508729
 30
0.0
 10
39.5017360515
 20
11.9491574461
 30
0.0
  0
SPLINE
  5
2DD
100
AcDbEntity
  8
0
100
AcDbSpline
 62
7
  6
CONTINUOUS
 70
0
 71
3
 72
23
 73
19
 74
0
 42
0.0000001
 43
0.0000001
 44
0.0000000001
 40
0.0
 40
0.0
 40
0.0
 40
0.0
 40
0.0402592103
 40
0.0907729016
 40
0.1499465171
 40
0.2153619114
 40
0.2845561451
 40
0.3556956443
 40
0.427694938
 40
0.4999995879
 40
0.5723042447
 40
0.6443035768
 40
0.715443092
 40
0.784637371
 40
0.8500529024
 40
0.9092267216
 40
0.9597405531
 40
1.0
 40
1.0
 40
1.0
 40
1.0
 10
39.4826628466
 20
12.0248756815
 30
0.0
 10
39.4527675718
 20
12.1342500384
 30
0.0
 10
39.3647136662
 20
12.3754319908
 30
0.0
 10
39.1620146623
 20
12.7476777429
 30
0.0
 10
38.8615401303
 20
13.141308604
 30
0.0
 10
38.4647774504
 20
13.519459097
 30
0.0
 10
37.9843403416
 20
13.8480970464
 30
0.0
 10
37.439170954
 20
14.1007349176
 30
0.0
 10
36.8503233383
 20
14.2592940413
 30
0.0
 10
36.2394849299
 20
14.3133200659
 30
0.0
 10
35.628646181
 20
14.2592966507
 30
0.0
 10
35.0397977278
 20
14.100739913
 30
0.0
 10
34.4946271268
 20
13.8481040008
 30
0.0
 10
34.0141881844
 20
13.5194677412
 30
0.0
 10
33.6174232558
 20
13.1413180202
 30
0.0
 10
33.3169463517
 20
12.7476872451
 30
0.0
 10
33.114245307
 20
12.375440735
 30
0.0
 10
33.0261901373
 20
12.1342581156
 30
0.0
 10
32.9962942511
 20
12.024883235
 30
0.0
  0
SPLINE
  5
2DE
100
AcDbEntity
  8
0
100
AcDbSpline
 62
7
  6
CONTINUOUS
 70
0
 71
3
 72
9
 73
5
 74
0
 42
0.0000001
 43
0.0000001
 44
0.0000000001
 40
0.0
 40
0.0
 40
0.0
 40
0.0
 40
0.5826141418
 40
1.0
 40
1.0
 40
1.0
 40
1.0
 10
32.9772233243
 20
11.9491763902
 30
0.0
 10
32.9644289318
 20
11.8935660004
 30
0.0
 10
32.9468604206
 20
11.7970217705
 30
0.0
 10
32.9394775089
 20
11.699098591
 30
0.0
 10
32.9394775089
 20
11.6582183883
 30
0.0
  0
SPLINE
  5
2DF
100
AcDbEntity
  8
0
100
AcDbSpline
 62
7
  6
CONTINUOUS
 70
0
 71
3
 72
23
 73
19
 74
0
 42
0.0000001
 43
0.0000001
 44
0.0000000001
 40
0.0
 40
0.0
 40
0.0
 40
0.0
 40
0.0614238366
 40
0.1230394602
 40
0.1849317891
 40
0.2472251745
 40
0.3099369508
 40
0.3730392018
 40
0.4364372931
 40
0.4999938969
 40
0.5635502371
 40
0.6269480162
 40
0.6900510074
 40
0.7527652456
 40
0.8150618879
 40
0.8769571058
 40
0.9385755503
 40
1.0
 40
1.0
 40
1.0
 40
1.0
 10
39.5394775089
 20
15.455862533
 30
0.0
 10
39.5394775089
 20
15.6641907535
 30
0.0
 10
39.4967292498
 20
16.0827179306
 30
0.0
 10
39.3073734895
 20
16.6849687818
 30
0.0
 10
38.9997798818
 20
17.2398648878
 30
0.0
 10
38.5863972871
 20
17.7258403908
 30
0.0
 10
38.0829907776
 20
18.1243542286
 30
0.0
 10
37.5090804004
 20
18.4202769652
 30
0.0
 10
36.8866565255
 20
18.6024005815
 30
0.0
 10
36.2395424298
 20
18.6638836237
 30
0.0
 10
35.5924271953
 20
18.6024222336
 30
0.0
 10
34.9699971806
 20
18.4203195437
 30
0.0
 10
34.3960635058
 20
18.1244205475
 30
0.0
 10
33.8926263245
 20
17.7259085725
 30
0.0
 10
33.4792140695
 20
17.2399195101
 30
0.0
 10
33.1715951107
 20
16.6850021006
 30
0.0
 10
32.9822284603
 20
16.0827315886
 30
0.0
 10
32.9394775089
 20
15.664192833
 30
0.0
 10
32.9394775089
 20
15.455862533
 30
0.0
  0
SPLINE
  5
2E0
100
AcDbEntity
  8
0
100
AcDbSpline
 62
7
  6
CONTINUOUS
 70
0
 71
3
 72
11
 73
7
 74
0
 42
0.0000001
 43
0.0000001
 44
0.0000000001
 40
0.0
 40
0.0
 40
0.0
 40
0.0
 40
0.2466545977
 40
0.4957831059
 40
0.7471815162
 40
1.0
 40
1.0
 40
1.0
 40
1.0
 10
38.5506527781
 20
23.070703204
 30
0.0
 10
38.4569439841
 20
22.8511167876
 30
0.0
 10
38.1995322396
 20
22.4360270768
 30
0.0
 10
37.6473059338
 20
21.9535679788
 30
0.0
 10
36.9750941027
 20
21.6465462922
 30
0.0
 10
36.4841895015
 20
21.5765362453
 30
0.0
 10
36.2394775089
 20
21.5765362453
 30
0.0
  0
SPLINE
  5
2E1
100
AcDbEntity
  8
0
100
AcDbSpline
 62
7
  6
CONTINUOUS
 70
0
 71
3
 72
11
 73
7
 74
0
 42
0.0000001
 43
0.0000001
 44
0.0000000001
 40
0.0
 40
0.0
 40
0.0
 40
0.0
 40
0.2528184334
 40
0.5042168283
 40
0.7533453482
 40
1.0
 40
1.0
 40
1.0
 40
1.0
 10
36.2394775089
 20
21.5765362453
 30
0.0
 10
35.9947652159
 20
21.5765362453
 30
0.0
 10
35.503859973
 20
21.6465464739
 30
0.0
 10
34.8316473675
 20
21.953568949
 30
0.0
 10
34.2794207016
 20
22.4360293437
 30
0.0
 10
34.02200914
 20
22.8511201069
 30
0.0
 10
33.9283006039
 20
23.0707070607
 30
0.0
  0
SPLINE
  5
2E2
100
AcDbEntity
  8
0
100
AcDbSpline
 62
7
  6
CONTINUOUS
 70
0
 71
3
 72
11
 73
7
 74
0
 42
0.0000001
 43
0.0000001
 44
0.0000000001
 40
0.0
 40
0.0
 40
0.0
 40
0.0
 40
0.2522131864
 40
0.5034091294
 40
0.7527739971
 40
1.0
 40
1.0
 40
1.0
 40
1.0
 10
36.2394775089
 20
16.6143195882
 30
0.0
 10
36.4541047223
 20
16.6143195882
 30
0.0
 10
36.884334014
 20
16.6670221198
 30
0.0
 10
37.4879944461
 20
16.899558597
 30
0.0
 10
38.0128297562
 20
17.270684453
 30
0.0
 10
38.2891817534
 20
17.5975146107
 30
0.0
 10
38.4033108197
 20
17.7742507563
 30
0.0
  0
SPLINE
  5
2E3
100
AcDbEntity
  8
0
100
AcDbSpline
 62
7
  6
CONTINUOUS
 70
0
 71
3
 72
11
 73
7
 74
0
 42
0.0000001
 43
0.0000001
 44
0.0000000001
 40
0.0
 40
0.0
 40
0.0
 40
0.0
 40
0.2472314514
 40
0.4965979844
 40
0.7477921645
 40
1.0
 40
1.0
 40
1.0
 40
1.0
 10
34.0775959279
 20
17.7712332491
 30
0.0
 10
34.1918269371
 20
17.5949074299
 30
0.0
 10
34.4682002022
 20
17.2688920944
 30
0.0
 10
34.9926192612
 20
16.8987579252
 30
0.0
 10
35.5955375466
 20
16.6668723914
 30
0.0
 10
36.025154573
 20
16.6143195882
 30
0.0
 10
36.2394775089
 20
16.6143195882
 30
0.0
  0
SPLINE
  5
2E4
100
AcDbEntity
  8
0
100
AcDbSpline
 62
7
  6
CONTINUOUS
 70
0
 71
3
 72
11
 73
7
 74
0
 42
0.0000001
 43
0.0000001
 44
0.0000000001
 40
0.0
 40
0.0
 40
0.0
 40
0.0
 40
0.2522131864
 40
0.5034091294
 40
0.7527739971
 40
1.0
 40
1.0
 40
1.0
 40
1.0
 10
36.2394775089
 20
88.3030904837
 30
0.0
 10
36.0248502955
 20
88.3030904837
 30
0.0
 10
35.5946210038
 20
88.2503879521
 30
0.0
 10
34.9909605717
 20
88.0178514749
 30
0.0
 10
34.4661252616
 20
87.6467256189
 30
0.0
 10
34.1897732645
 20
87.3198954612
 30
0.0
 10
34.0756441981
 20
87.1431593157
 30
0.0
  0
SPLINE
  5
2E5
100
AcDbEntity
  8
0
100
AcDbSpline
 62
7
  6
CONTINUOUS
 70
0
 71
3
 72
11
 73
7
 74
0
 42
0.0000001
 43
0.0000001
 44
0.0000000001
 40
0.0
 40
0.0
 40
0.0
 40
0.0
 40
0.2474163333
 40
0.4968368604
 40
0.747971807
 40
1.0
 40
1.0
 40
1.0
 40
1.0
 10
38.3338155488
 20
91.3312810669
 30
0.0
 10
38.2167712327
 20
91.4940077662
 30
0.0
 10
37.9405953326
 20
91.7931807585
 30
0.0
 10
37.4308129314
 20
92.1309149196
 30
0.0
 10
36.8528859381
 20
92.341614242
 30
0.0
 10
36.4436617479
 20
92.3893034573
 30
0.0
 10
36.2394775089
 20
92.3893034573
 30
0.0
  0
SPLINE
  5
2E6
100
AcDbEntity
  8
0
100
AcDbSpline
 62
7
  6
CONTINUOUS
 70
0
 71
3
 72
15
 73
11
 74
0
 42
0.0000001
 43
0.0000001
 44
0.0000000001
 40
0.0
 40
0.0
 40
0.0
 40
0.0
 40
0.1228818768
 40
0.2461692498
 40
0.3700523832
 40
0.4947277818
 40
0.620188382
 40
0.7463249919
 40
0.8730733967
 40
1.0
 40
1.0
 40
1.0
 40
1.0
 10
33.7015693056
 20
22.9755213199
 30
0.0
 10
33.7168250479
 20
22.8250426166
 30
0.0
 10
33.7762236552
 20
22.5257203226
 30
0.0
 10
33.9487383787
 20
22.1013607609
 30
0.0
 10
34.1988092831
 20
21.7148096071
 30
0.0
 10
34.5176925666
 20
21.3791530154
 30
0.0
 10
34.8947121147
 20
21.1057749185
 30
0.0
 10
35.3170650113
 20
20.903604575
 30
0.0
 10
35.7703103881
 20
20.7797172256
 30
0.0
 10
36.0832489773
 20
20.7517828187
 30
0.0
 10
36.2394775089
 20
20.7517828187
 30
0.0
  0
SPLINE
  5
2E7
100
AcDbEntity
  8
0
100
AcDbSpline
 62
7
  6
CONTINUOUS
 70
0
 71
3
 72
15
 73
11
 74
0
 42
0.0000001
 43
0.0000001
 44
0.0000000001
 40
0.0
 40
0.0
 40
0.0
 40
0.0
 40
0.1269265723
 40
0.253674919
 40
0.37981151
 40
0.505272105
 40
0.6299475091
 40
0.7538306553
 40
0.8771180781
 40
1.0
 40
1.0
 40
1.0
 40
1.0
 10
36.2394775089
 20
20.7517828187
 30
0.0
 10
36.3957060447
 20
20.7517828187
 30
0.0
 10
36.7086446137
 20
20.7797171799
 30
0.0
 10
37.1618899749
 20
20.9036045711
 30
0.0
 10
37.5842428917
 20
21.1057749189
 30
0.0
 10
37.9612625413
 20
21.3791530565
 30
0.0
 10
38.2801458826
 20
21.7148097912
 30
0.0
 10
38.530216859
 20
22.1013611491
 30
0.0
 10
38.7027315568
 20
22.525721003
 30
0.0
 10
38.7621301102
 20
22.825043512
 30
0.0
 10
38.7773858089
 20
22.9755223166
 30
0.0
  0
SPLINE
  5
2E8
100
AcDbEntity
  8
0
100
AcDbSpline
 62
7
  6
CONTINUOUS
 70
0
 71
3
 72
11
 73
7
 74
0
 42
0.0000001
 43
0.0000001
 44
0.0000000001
 40
0.0
 40
0.0
 40
0.0
 40
0.0
 40
0.25202809
 40
0.5031629648
 40
0.7525835432
 40
1.0
 40
1.0
 40
1.0
 40
1.0
 10
36.2394775089
 20
92.3893034573
 30
0.0
 10
36.0352969292
 20
92.3893034573
 30
0.0
 10
35.6260800989
 20
92.3416159954
 30
0.0
 10
35.0481621903
 20
92.1309240849
 30
0.0
 10
34.5383852046
 20
91.7932013546
 30
0.0
 10
34.2622096733
 20
91.4940377679
 30
0.0
 10
34.1451645084
 20
91.3313158801
 30
0.0
  0
SPLINE
  5
2E9
100
AcDbEntity
  8
0
100
AcDbSpline
 62
7
  6
CONTINUOUS
 70
0
 71
3
 72
11
 73
7
 74
0
 42
0.0000001
 43
0.0000001
 44
0.0000000001
 40
0.0
 40
0.0
 40
0.0
 40
0.0
 40
0.2472314514
 40
0.4965979844
 40
0.7477921645
 40
1.0
 40
1.0
 40
1.0
 40
1.0
 10
38.4013590899
 20
87.1461768228
 30
0.0
 10
38.2871280807
 20
87.3225026421
 30
0.0
 10
38.0107548156
 20
87.6485179776
 30
0.0
 10
37.4863357566
 20
88.0186521467
 30
0.0
 10
36.8834174712
 20
88.2505376805
 30
0.0
 10
36.4538004448
 20
88.3030904837
 30
0.0
 10
36.2394775089
 20
88.3030904837
 30
0.0
  0
SPLINE
  5
2EA
100
AcDbEntity
  8
0
100
AcDbSpline
 62
7
  6
CONTINUOUS
 70
0
 71
3
 72
11
 73
7
 74
0
 42
0.0000001
 43
0.0000001
 44
0.0000000001
 40
0.0
 40
0.0
 40
0.0
 40
0.0
 40
0.2474163333
 40
0.4968368604
 40
0.747971807
 40
1.0
 40
1.0
 40
1.0
 40
1.0
 10
34.145139469
 20
13.586129005
 30
0.0
 10
34.2621837851
 20
13.4234023057
 30
0.0
 10
34.5383596852
 20
13.1242293134
 30
0.0
 10
35.0481420864
 20
12.7864951524
 30
0.0
 10
35.6260690797
 20
12.57579583
 30
0.0
 10
36.03529327
 20
12.5281066146
 30
0.0
 10
36.2394775089
 20
12.5281066146
 30
0.0
  0
SPLINE
  5
2EB
100
AcDbEntity
  8
0
100
AcDbSpline
 62
7
  6
CONTINUOUS
 70
0
 71
3
 72
11
 73
7
 74
0
 42
0.0000001
 43
0.0000001
 44
0.0000000001
 40
0.0
 40
0.0
 40
0.0
 40
0.0
 40
0.25202809
 40
0.5031629648
 40
0.7525835432
 40
1.0
 40
1.0
 40
1.0
 40
1.0
 10
36.2394775089
 20
12.5281066146
 30
0.0
 10
36.4436580886
 20
12.5281066146
 30
0.0
 10
36.8528749189
 20
12.5757940766
 30
0.0
 10
37.4307928275
 20
12.7864859871
 30
0.0
 10
37.9405698132
 20
13.1242087173
 30
0.0
 10
38.2167453445
 20
13.4233723041
 30
0.0
 10
38.3337905094
 20
13.5860941919
 30
0.0
  0
SPLINE
  5
2EC
100
AcDbEntity
  8
0
100
AcDbSpline
 62
7
  6
CONTINUOUS
 70
0
 71
3
 72
15
 73
11
 74
0
 42
0.0000001
 43
0.0000001
 44
0.0000000001
 40
0.0
 40
0.0
 40
0.0
 40
0.0
 40
0.1228818768
 40
0.2461692498
 40
0.3700523832
 40
0.4947277818
 40
0.620188382
 40
0.7463249919
 40
0.8730733967
 40
1.0
 40
1.0
 40
1.0
 40
1.0
 10
38.7773857122
 20
81.941888752
 30
0.0
 10
38.7621299699
 20
82.0923674554
 30
0.0
 10
38.7027313626
 20
82.3916897493
 30
0.0
 10
38.5302166391
 20
82.816049311
 30
0.0
 10
38.2801457347
 20
83.2026004648
 30
0.0
 10
37.9612624512
 20
83.5382570565
 30
0.0
 10
37.5842429031
 20
83.8116351535
 30
0.0
 10
37.1618900065
 20
84.0138054969
 30
0.0
 10
36.7086446297
 20
84.1376928463
 30
0.0
 10
36.3957060405
 20
84.1656272532
 30
0.0
 10
36.2394775089
 20
84.1656272532
 30
0.0
  0
SPLINE
  5
2ED
100
AcDbEntity
  8
0
100
AcDbSpline
 62
7
  6
CONTINUOUS
 70
0
 71
3
 72
15
 73
11
 74
0
 42
0.0000001
 43
0.0000001
 44
0.0000000001
 40
0.0
 40
0.0
 40
0.0
 40
0.0
 40
0.1269265723
 40
0.253674919
 40
0.37981151
 40
0.505272105
 40
0.6299475091
 40
0.7538306553
 40
0.8771180781
 40
1.0
 40
1.0
 40
1.0
 40
1.0
 10
36.2394775089
 20
84.1656272532
 30
0.0
 10
36.0832489731
 20
84.1656272532
 30
0.0
 10
35.7703104041
 20
84.137692892
 30
0.0
 10
35.3170650429
 20
84.0138055008
 30
0.0
 10
34.8947121261
 20
83.811635153
 30
0.0
 10
34.5176924765
 20
83.5382570155
 30
0.0
 10
34.1988091352
 20
83.2026002807
 30
0.0
 10
33.9487381588
 20
82.8160489228
 30
0.0
 10
33.776223461
 20
82.3916890689
 30
0.0
 10
33.7168249076
 20
82.0923665599
 30
0.0
 10
33.7015692089
 20
81.9418877553
 30
0.0
  0
ENDSEC
  0
SECTION
  2
OBJECTS
  0
DICTIONARY
  5
C
100
AcDbDictionary
280
0
281
1
  3
ACAD_GROUP
350
D
  3
ACAD_MLINESTYLE
350
17
  3
ACAD_LAYOUT
350
1A
  3
ACAD_PLOTSETTINGS
350
19
  3
ACAD_PLOTSTYLENAME
350
E
  0
DICTIONARY
  5
D
102
{ACAD_REACTORS
330
C
102
}
100
AcDbDictionary
280
0
281
1
  0
ACDBDICTIONARYWDFLT
  5
E
102
{ACAD_REACTORS
330
C
102
}
100
AcDbDictionary
281
1
  3
Normal
350
F
100
AcDbDictionaryWithDefault
340
F
  0
DICTIONARY
  5
17
102
{ACAD_REACTORS
330
C
102
}
100
AcDbDictionary
280
0
281
1
  3
Standard
350
18
  0
DICTIONARY
  5
19
102
{ACAD_REACTORS
330
C
102
}
100
AcDbDictionary
281
1
  0
DICTIONARY
  5
1A
102
{ACAD_REACTORS
330
C
102
}
100
AcDbDictionary
281
1
  3
Model
350
2EE
  3
Layout1
350
2EF
  0
ACDBPLACEHOLDER
  5
F
102
{ACAD_REACTORS
330
E
102
}
  0
MLINESTYLE
  5
18
102
{ACAD_REACTORS
330
17
102
}
100
AcDbMlineStyle
  2
STANDARD
 70
0
  3

 62
256
 51
90.0
 52
90.0
 71
2
 49
0.5
 62
256
  6
BYLAYER
 49
-0.5
 62
256
  6
BYLAYER
  0
LAYOUT
  5
2EE
102
{ACAD_REACTORS
330
1A
102
}
100
AcDbPlotSettings
  1

  2
none_device
  4

  6

 40
0.0
 41
0.0
 42
0.0
 43
0.0
 44
210.0
 45
297.0
 46
0.0
 47
0.0
 48
0.0
 49
0.0
140
0.0
141
0.0
142
1.0
143
1.0
 70
1024
 72
1
 73
0
 74
0
  7

 75
0
147
1.0
148
0.0
149
0.0
100
AcDbLayout
  1
Model
 70
0
 71
0
 10
0.0
 20
0.0
 11
210.0
 21
297.0
 12
0.0
 22
0.0
 32
0.0
 14
0.0
 24
0.0
 34
0.0
 15
0.0
 25
0.0
 35
0.0
146
0.0
 13
0.0
 23
0.0
 33
0.0
 16
1.0
 26
0.0
 36
0.0
 17
0.0
 27
1.0
 37
0.0
 76
0
330
210
345
0
346
0
  0
LAYOUT
  5
2EF
102
{ACAD_REACTORS
330
1A
102
}
100
AcDbPlotSettings
  1

  2
none_device
  4

  6

 40
0.0
 41
0.0
 42
0.0
 43
0.0
 44
210.0
 45
297.0
 46
0.0
 47
0.0
 48
0.0
 49
0.0
140
0.0
141
0.0
142
1.0
143
1.0
 70
0
 72
1
 73
0
 74
0
  7

 75
0
147
1.0
148
0.0
149
0.0
100
AcDbLayout
  1
Layout1
 70
0
 71
1
 10
0.0
 20
0.0
 11
210.0
 21
297.0
 12
0.0
 22
0.0
 32
0.0
 14
0.0
 24
0.0
 34
0.0
 15
0.0
 25
0.0
 35
0.0
146
0.0
 13
0.0
 23
0.0
 33
0.0
 16
1.0
 26
0.0
 36
0.0
 17
0.0
 27
1.0
 37
0.0
 76
0
330
211
345
0
346
0
  0
ENDSEC
  0
EOF
